  0
SECTION
  2
HEADER
  9
$ACADVER
  1
AC1018
  9
$ACADMAINTVER
 70
     2
  9
$DWGCODEPAGE
  3
ANSI_1252
  9
$INSBASE
 10
0.0
 20
0.0
 30
0.0
  9
$EXTMIN
 10
-0.0181260584133725
 20
-0.0256328098773793
 30
-0.0015258207003583
  9
$EXTMAX
 10
594.0181288244414
 20
840.0256367214323
 30
0.0000000349246037
  9
$LIMMIN
 10
0.0
 20
0.0
  9
$LIMMAX
 10
594.0
 20
840.0
  9
$ORTHOMODE
 70
     1
  9
$REGENMODE
 70
     1
  9
$FILLMODE
 70
     1
  9
$QTEXTMODE
 70
     0
  9
$MIRRTEXT
 70
     1
  9
$LTSCALE
 40
20.0
  9
$ATTMODE
 70
     1
  9
$TEXTSIZE
 40
3.5
  9
$TRACEWID
 40
1.0
  9
$TEXTSTYLE
  7
STANDARD
  9
$CLAYER
  8
VOLL
  9
$CELTYPE
  6
ByLayer
  9
$CECOLOR
 62
   256
  9
$CELTSCALE
 40
1.0
  9
$DISPSILH
 70
     0
  9
$DIMSCALE
 40
2.0
  9
$DIMASZ
 40
3.5
  9
$DIMEXO
 40
1.0
  9
$DIMDLI
 40
7.0
  9
$DIMRND
 40
0.0
  9
$DIMDLE
 40
0.0
  9
$DIMEXE
 40
1.0
  9
$DIMTP
 40
0.0
  9
$DIMTM
 40
0.0
  9
$DIMTXT
 40
3.5
  9
$DIMCEN
 40
1.5
  9
$DIMTSZ
 40
0.0
  9
$DIMTOL
 70
     0
  9
$DIMLIM
 70
     0
  9
$DIMTIH
 70
     0
  9
$DIMTOH
 70
     0
  9
$DIMSE1
 70
     0
  9
$DIMSE2
 70
     0
  9
$DIMTAD
 70
     1
  9
$DIMZIN
 70
     8
  9
$DIMBLK
  1

  9
$DIMASO
 70
     1
  9
$DIMSHO
 70
     0
  9
$DIMPOST
  1

  9
$DIMAPOST
  1

  9
$DIMALT
 70
     0
  9
$DIMALTD
 70
     2
  9
$DIMALTF
 40
25.4
  9
$DIMLFAC
 40
1.0
  9
$DIMTOFL
 70
     1
  9
$DIMTVP
 40
0.0
  9
$DIMTIX
 70
     0
  9
$DIMSOXD
 70
     0
  9
$DIMSAH
 70
     0
  9
$DIMBLK1
  1

  9
$DIMBLK2
  1

  9
$DIMSTYLE
  2
Standard
  9
$DIMCLRD
 70
     0
  9
$DIMCLRE
 70
     0
  9
$DIMCLRT
 70
     1
  9
$DIMTFAC
 40
0.5142857142857144
  9
$DIMGAP
 40
1.5
  9
$DIMJUST
 70
     0
  9
$DIMSD1
 70
     0
  9
$DIMSD2
 70
     0
  9
$DIMTOLJ
 70
     1
  9
$DIMTZIN
 70
     8
  9
$DIMALTZ
 70
     8
  9
$DIMALTTZ
 70
     8
  9
$DIMUPT
 70
     0
  9
$DIMDEC
 70
     2
  9
$DIMTDEC
 70
     2
  9
$DIMALTU
 70
     2
  9
$DIMALTTD
 70
     2
  9
$DIMTXSTY
  7
STANDARD
  9
$DIMAUNIT
 70
     0
  9
$DIMADEC
 70
     2
  9
$DIMALTRND
 40
0.0
  9
$DIMAZIN
 70
     2
  9
$DIMDSEP
 70
    46
  9
$DIMATFIT
 70
     3
  9
$DIMFRAC
 70
     0
  9
$DIMLDRBLK
  1

  9
$DIMLUNIT
 70
     2
  9
$DIMLWD
 70
    -2
  9
$DIMLWE
 70
    -2
  9
$DIMTMOVE
 70
     0
  9
$LUNITS
 70
     2
  9
$LUPREC
 70
     2
  9
$SKETCHINC
 40
1.0
  9
$FILLETRAD
 40
0.0
  9
$AUNITS
 70
     0
  9
$AUPREC
 70
     0
  9
$MENU
  1
ACAD
  9
$ELEVATION
 40
0.0
  9
$PELEVATION
 40
0.0
  9
$THICKNESS
 40
0.0
  9
$LIMCHECK
 70
     0
  9
$CHAMFERA
 40
0.0
  9
$CHAMFERB
 40
0.0
  9
$CHAMFERC
 40
0.0
  9
$CHAMFERD
 40
0.0
  9
$SKPOLY
 70
     0
  9
$TDCREATE
 40
2455397.825393172
  9
$TDUCREATE
 40
2455397.783726505
  9
$TDUPDATE
 40
2456254.428845463
  9
$TDUUPDATE
 40
2456254.387178796
  9
$TDINDWG
 40
0.1861439815
  9
$TDUSRTIMER
 40
0.1861439815
  9
$USRTIMER
 70
     1
  9
$ANGBASE
 50
0.0
  9
$ANGDIR
 70
     0
  9
$PDMODE
 70
     0
  9
$PDSIZE
 40
0.0
  9
$PLINEWID
 40
0.0
  9
$SPLFRAME
 70
     0
  9
$SPLINETYPE
 70
     6
  9
$SPLINESEGS
 70
     8
  9
$HANDSEED
  5
7618
  9
$SURFTAB1
 70
     6
  9
$SURFTAB2
 70
     6
  9
$SURFTYPE
 70
     6
  9
$SURFU
 70
     6
  9
$SURFV
 70
     6
  9
$UCSBASE
  2

  9
$UCSNAME
  2

  9
$UCSORG
 10
0.0
 20
0.0
 30
0.0
  9
$UCSXDIR
 10
1.0
 20
0.0
 30
0.0
  9
$UCSYDIR
 10
0.0
 20
1.0
 30
0.0
  9
$UCSORTHOREF
  2

  9
$UCSORTHOVIEW
 70
     0
  9
$UCSORGTOP
 10
0.0
 20
0.0
 30
0.0
  9
$UCSORGBOTTOM
 10
0.0
 20
0.0
 30
0.0
  9
$UCSORGLEFT
 10
0.0
 20
0.0
 30
0.0
  9
$UCSORGRIGHT
 10
0.0
 20
0.0
 30
0.0
  9
$UCSORGFRONT
 10
0.0
 20
0.0
 30
0.0
  9
$UCSORGBACK
 10
0.0
 20
0.0
 30
0.0
  9
$PUCSBASE
  2

  9
$PUCSNAME
  2

  9
$PUCSORG
 10
0.0
 20
0.0
 30
0.0
  9
$PUCSXDIR
 10
1.0
 20
0.0
 30
0.0
  9
$PUCSYDIR
 10
0.0
 20
1.0
 30
0.0
  9
$PUCSORTHOREF
  2

  9
$PUCSORTHOVIEW
 70
     0
  9
$PUCSORGTOP
 10
0.0
 20
0.0
 30
0.0
  9
$PUCSORGBOTTOM
 10
0.0
 20
0.0
 30
0.0
  9
$PUCSORGLEFT
 10
0.0
 20
0.0
 30
0.0
  9
$PUCSORGRIGHT
 10
0.0
 20
0.0
 30
0.0
  9
$PUCSORGFRONT
 10
0.0
 20
0.0
 30
0.0
  9
$PUCSORGBACK
 10
0.0
 20
0.0
 30
0.0
  9
$USERI1
 70
     0
  9
$USERI2
 70
     0
  9
$USERI3
 70
     0
  9
$USERI4
 70
     0
  9
$USERI5
 70
     0
  9
$USERR1
 40
0.0
  9
$USERR2
 40
0.0
  9
$USERR3
 40
0.0
  9
$USERR4
 40
0.0
  9
$USERR5
 40
0.0
  9
$WORLDVIEW
 70
     1
  9
$SHADEDGE
 70
     3
  9
$SHADEDIF
 70
    70
  9
$TILEMODE
 70
     1
  9
$MAXACTVP
 70
    16
  9
$PINSBASE
 10
0.0
 20
0.0
 30
0.0
  9
$PLIMCHECK
 70
     0
  9
$PEXTMIN
 10
1.000000000000000E+20
 20
1.000000000000000E+20
 30
1.000000000000000E+20
  9
$PEXTMAX
 10
-1.000000000000000E+20
 20
-1.000000000000000E+20
 30
-1.000000000000000E+20
  9
$PLIMMIN
 10
0.0
 20
0.0
  9
$PLIMMAX
 10
12.0
 20
9.0
  9
$UNITMODE
 70
     0
  9
$VISRETAIN
 70
     0
  9
$PLINEGEN
 70
     0
  9
$PSLTSCALE
 70
     0
  9
$TREEDEPTH
 70
  3020
  9
$CMLSTYLE
  2
Standard
  9
$CMLJUST
 70
     0
  9
$CMLSCALE
 40
1.0
  9
$PROXYGRAPHICS
 70
     1
  9
$MEASUREMENT
 70
     0
  9
$CELWEIGHT
370
    -1
  9
$ENDCAPS
280
     0
  9
$JOINSTYLE
280
     0
  9
$LWDISPLAY
290
     0
  9
$INSUNITS
 70
     0
  9
$HYPERLINKBASE
  1

  9
$STYLESHEET
  1
monochrome 1.ctb
  9
$XEDIT
290
     1
  9
$CEPSNTYPE
380
     0
  9
$PSTYLEMODE
290
     1
  9
$FINGERPRINTGUID
  2
{D68B0D0D-A558-11D7-B632-000102183313}
  9
$VERSIONGUID
  2
{25339562-227E-4F7F-A0C9-82CE12EDF734}
  9
$EXTNAMES
290
     1
  9
$PSVPSCALE
 40
0.0
  9
$OLESTARTUP
290
     0
  9
$SORTENTS
280
   127
  9
$INDEXCTL
280
     0
  9
$HIDETEXT
280
     0
  9
$XCLIPFRAME
290
     0
  9
$HALOGAP
280
     0
  9
$OBSCOLOR
 70
   257
  9
$OBSLTYPE
280
     0
  9
$INTERSECTIONDISPLAY
280
     0
  9
$INTERSECTIONCOLOR
 70
   257
  9
$DIMASSOC
280
     1
  9
$PROJECTNAME
  1

  0
ENDSEC
  0
SECTION
  2
CLASSES
  0
CLASS
  1
ACDBDICTIONARYWDFLT
  2
AcDbDictionaryWithDefault
  3
ObjectDBX Classes
 90
        0
 91
        1
280
     0
281
     0
  0
CLASS
  1
DICTIONARYVAR
  2
AcDbDictionaryVar
  3
ObjectDBX Classes
 90
        0
 91
        2
280
     0
281
     0
  0
ENDSEC
  0
SECTION
  2
TABLES
  0
TABLE
  2
VPORT
  5
8
330
0
100
AcDbSymbolTable
 70
     3
  0
VPORT
  5
7617
330
8
100
AcDbSymbolTableRecord
100
AcDbViewportTableRecord
  2
*Active
 70
     0
 10
0.0
 20
0.0
 11
1.0
 21
1.0
 12
297.0
 22
420.0
 13
0.0
 23
0.0
 14
1.0
 24
1.0
 15
10.0
 25
10.0
 16
0.0
 26
0.0
 36
1.0
 17
0.0
 27
0.0
 37
0.0
 40
840.0
 41
1.404858299595141
 42
50.0
 43
0.0
 44
0.0
 50
0.0
 51
0.0
 71
     0
 72
  1500
 73
     1
 74
     0
 75
     0
 76
     0
 77
     0
 78
     0
281
     0
 65
     1
110
0.0
120
0.0
130
0.0
111
1.0
121
0.0
131
0.0
112
0.0
122
1.0
132
0.0
 79
     0
146
0.0
  0
ENDTAB
  0
TABLE
  2
LTYPE
  5
5
330
0
100
AcDbSymbolTable
 70
     2
  0
LTYPE
  5
13
330
5
100
AcDbSymbolTableRecord
100
AcDbLinetypeTableRecord
  2
ByBlock
 70
     0
  3

 72
    65
 73
     0
 40
0.0
  0
LTYPE
  5
14
330
5
100
AcDbSymbolTableRecord
100
AcDbLinetypeTableRecord
  2
ByLayer
 70
     0
  3

 72
    65
 73
     0
 40
0.0
  0
LTYPE
  5
15
330
5
100
AcDbSymbolTableRecord
100
AcDbLinetypeTableRecord
  2
Continuous
 70
     0
  3
Solid line
 72
    65
 73
     0
 40
0.0
  0
LTYPE
  5
25
330
5
100
AcDbSymbolTableRecord
100
AcDbLinetypeTableRecord
  2
STRICHPUNKT
 70
     0
  3
__ . __ . __ . __ . __ . __ . __ . __ . __ . __
 72
    65
 73
     4
 40
1.0
 49
0.5
 74
     0
 49
-0.25
 74
     0
 49
0.0
 74
     0
 49
-0.25
 74
     0
  0
ENDTAB
  0
TABLE
  2
LAYER
  5
2
330
0
100
AcDbSymbolTable
 70
     9
  0
LAYER
  5
10
330
2
100
AcDbSymbolTableRecord
100
AcDbLayerTableRecord
  2
0
 70
     0
 62
     7
  6
Continuous
370
    -3
390
F
  0
LAYER
  5
2B
330
2
100
AcDbSymbolTableRecord
100
AcDbLayerTableRecord
  2
VOLL
 70
     0
 62
     1
  6
Continuous
370
    -3
390
F
  0
LAYER
  5
2C
330
2
100
AcDbSymbolTableRecord
100
AcDbLayerTableRecord
  2
HILF
 70
     0
 62
     2
  6
Continuous
370
    -3
390
F
  0
LAYER
  5
2D
330
2
100
AcDbSymbolTableRecord
100
AcDbLayerTableRecord
  2
MITTEL
 70
     0
 62
     2
  6
STRICHPUNKT
370
    -3
390
F
  0
LAYER
  5
2F
330
2
100
AcDbSymbolTableRecord
100
AcDbLayerTableRecord
  2
BEM
 70
     0
 62
     7
  6
Continuous
370
    -3
390
F
  0
LAYER
  5
30
330
2
100
AcDbSymbolTableRecord
100
AcDbLayerTableRecord
  2
STEMPEL
 70
     0
 62
     3
  6
Continuous
370
    -3
390
F
  0
LAYER
  5
33
330
2
100
AcDbSymbolTableRecord
100
AcDbLayerTableRecord
  2
TEXT
 70
     0
 62
     7
  6
Continuous
370
    -3
390
F
  0
LAYER
  5
1AD
330
2
100
AcDbSymbolTableRecord
100
AcDbLayerTableRecord
  2
SCHRAFF
 70
     0
 62
     7
  6
Continuous
370
    -3
390
F
  0
LAYER
  5
3A5
330
2
100
AcDbSymbolTableRecord
100
AcDbLayerTableRecord
  2
DEFPOINTS
 70
     0
 62
     7
  6
Continuous
290
     0
370
    -3
390
F
  0
ENDTAB
  0
TABLE
  2
STYLE
  5
3
330
0
100
AcDbSymbolTable
 70
     2
  0
STYLE
  5
11
330
3
100
AcDbSymbolTableRecord
100
AcDbTextStyleTableRecord
  2
STANDARD
 70
     0
 40
0.0
 41
0.8
 50
0.0
 71
     0
 42
3.5
  3
simplex.shx
  4

  0
STYLE
  5
24
330
3
100
AcDbSymbolTableRecord
100
AcDbTextStyleTableRecord
  2
GREEKS
 70
     0
 40
0.0
 41
0.8
 50
0.0
 71
     0
 42
2.5
  3
SIMPLEX.shx
  4

  0
ENDTAB
  0
TABLE
  2
VIEW
  5
6
330
0
100
AcDbSymbolTable
 70
     0
  0
ENDTAB
  0
TABLE
  2
UCS
  5
7
330
0
100
AcDbSymbolTable
 70
     0
  0
ENDTAB
  0
TABLE
  2
APPID
  5
9
330
0
100
AcDbSymbolTable
 70
     1
  0
APPID
  5
12
330
9
100
AcDbSymbolTableRecord
100
AcDbRegAppTableRecord
  2
ACAD
 70
     0
  0
ENDTAB
  0
TABLE
  2
DIMSTYLE
  5
A
330
0
100
AcDbSymbolTable
 70
     1
100
AcDbDimStyleTable
 71
     1
340
A2
  0
DIMSTYLE
105
A2
330
A
100
AcDbSymbolTableRecord
100
AcDbDimStyleTableRecord
  2
Standard
 70
     0
340
11
  0
ENDTAB
  0
TABLE
  2
BLOCK_RECORD
  5
1
330
0
100
AcDbSymbolTable
 70
     4
  0
BLOCK_RECORD
  5
1E
102
{ACAD_XDICTIONARY
360
DB
102
}
330
1
100
AcDbSymbolTableRecord
100
AcDbBlockTableRecord
  2
*Model_Space
340
21
  0
BLOCK_RECORD
  5
1A
102
{ACAD_XDICTIONARY
360
DD
102
}
330
1
100
AcDbSymbolTableRecord
100
AcDbBlockTableRecord
  2
*Paper_Space
340
1D
  0
BLOCK_RECORD
  5
22
330
1
100
AcDbSymbolTableRecord
100
AcDbBlockTableRecord
  2
LOGO
340
0
102
{BLKREFS
331
56
102
}
  0
BLOCK_RECORD
  5
23
330
1
100
AcDbSymbolTableRecord
100
AcDbBlockTableRecord
  2
LORO
340
0
102
{BLKREFS
331
9B
102
}
  0
BLOCK_RECORD
  5
703E
330
1
100
AcDbSymbolTableRecord
100
AcDbBlockTableRecord
  2
*X2
340
0
102
{BLKREFS
331
70FB
102
}
  0
BLOCK_RECORD
  5
754D
330
1
100
AcDbSymbolTableRecord
100
AcDbBlockTableRecord
  2
*X3
340
0
102
{BLKREFS
331
75DD
102
}
  0
ENDTAB
  0
ENDSEC
  0
SECTION
  2
BLOCKS
  0
BLOCK
  5
37
330
1E
100
AcDbEntity
  8
0
100
AcDbBlockBegin
  2
*Model_Space
 70
     0
 10
0.0
 20
0.0
 30
0.0
  3
*Model_Space
  1

  0
ENDBLK
  5
38
330
1E
100
AcDbEntity
  8
0
100
AcDbBlockEnd
  0
BLOCK
  5
35
330
1A
100
AcDbEntity
 67
     1
  8
0
100
AcDbBlockBegin
  2
*Paper_Space
 70
     0
 10
0.0
 20
0.0
 30
0.0
  3
*Paper_Space
  1

  0
ENDBLK
  5
36
330
1A
100
AcDbEntity
 67
     1
  8
0
100
AcDbBlockEnd
  0
BLOCK
  5
39
330
22
100
AcDbEntity
  8
0
100
AcDbBlockBegin
  2
LOGO
 70
     0
 10
0.0
 20
0.0
 30
0.0
  3
LOGO
  1

  0
ARC
  5
3A
330
22
100
AcDbEntity
  8
0
100
AcDbCircle
 10
11.59973089678112
 20
-9.271599258481501
 30
0.0
 40
4.5
100
AcDbArc
 50
270.0
 51
231.0575587310159
  0
LINE
  5
3B
330
22
100
AcDbEntity
  8
0
100
AcDbLine
 10
3.599730896781125
 20
-4.771599258481529
 30
0.0
 11
3.599730896781153
 21
-11.77159925848133
 31
0.0
  0
LINE
  5
3C
330
22
100
AcDbEntity
  8
0
100
AcDbLine
 10
2.599730896781125
 20
-4.771599258481529
 30
0.0
 11
2.599730896781153
 21
-11.77159925848133
 31
0.0
  0
CIRCLE
  5
3D
330
22
100
AcDbEntity
  8
0
100
AcDbCircle
 10
11.59973089678112
 20
-9.271599258481501
 30
0.0
 40
3.5
  0
ARC
  5
3E
330
22
100
AcDbEntity
  8
0
100
AcDbCircle
 10
31.59973089678115
 20
-9.271599258481472
 30
0.0
 40
4.5
100
AcDbArc
 50
270.0
 51
231.0575587310182
  0
LINE
  5
3F
330
22
100
AcDbEntity
  8
0
100
AcDbLine
 10
17.59973089678112
 20
-4.771599258481472
 30
0.0
 11
17.59973089678115
 21
-13.77159925848147
 31
0.0
  0
ARC
  5
40
330
22
100
AcDbEntity
  8
0
100
AcDbCircle
 10
22.59973089678116
 20
-7.271599258481472
 30
0.0
 40
2.5
100
AcDbArc
 50
293.1161887722295
 51
90.0
  0
CIRCLE
  5
41
330
22
100
AcDbEntity
  8
0
100
AcDbCircle
 10
31.59973089678115
 20
-9.271599258481472
 30
0.0
 40
3.5
  0
ARC
  5
42
330
22
100
AcDbEntity
  8
0
100
AcDbCircle
 10
4.599730896781153
 20
-11.77159925848133
 30
0.0
 40
1.0
100
AcDbArc
 50
180.0
 51
270.0
  0
ARC
  5
43
330
22
100
AcDbEntity
  8
0
100
AcDbCircle
 10
4.599730896781153
 20
-11.77159925848133
 30
0.0
 40
2.0
100
AcDbArc
 50
179.9999999999992
 51
270.0
  0
LINE
  5
44
330
22
100
AcDbEntity
  8
0
100
AcDbLine
 10
11.59973089678115
 20
-13.77159925848144
 30
0.0
 11
4.599730896781153
 21
-13.77159925848147
 31
0.0
  0
LINE
  5
45
330
22
100
AcDbEntity
  8
0
100
AcDbLine
 10
8.771303772034769
 20
-12.77159925848136
 30
0.0
 11
4.599730896781153
 21
-12.77159925848133
 31
0.0
  0
LINE
  5
46
330
22
100
AcDbEntity
  8
0
100
AcDbLine
 10
31.59973089678115
 20
-13.77159925848147
 30
0.0
 11
23.6715276665056
 21
-13.77159925848144
 31
0.0
  0
LINE
  5
47
330
22
100
AcDbEntity
  8
0
100
AcDbLine
 10
23.56565672307022
 20
-9.51278021337896
 30
0.0
 11
24.4388546544846
 21
-12.77159925848144
 31
0.0
  0
LINE
  5
48
330
22
100
AcDbEntity
  8
0
100
AcDbLine
 10
22.59973089678116
 20
-9.771599258481472
 30
0.0
 11
18.59973089678112
 21
-9.771599258481472
 31
0.0
  0
LINE
  5
49
330
22
100
AcDbEntity
  8
0
100
AcDbLine
 10
18.59973089678115
 20
-13.77159925848144
 30
0.0
 11
17.59973089678115
 21
-13.77159925848144
 31
0.0
  0
LINE
  5
4A
330
22
100
AcDbEntity
  8
0
100
AcDbLine
 10
18.59973089678115
 20
-9.771599258481472
 30
0.0
 11
18.59973089678115
 21
-13.77159925848144
 31
0.0
  0
LINE
  5
4B
330
22
100
AcDbEntity
  8
0
100
AcDbLine
 10
22.59973089678116
 20
-9.771599258481472
 30
0.0
 11
23.67152766650562
 21
-13.77159925848147
 31
0.0
  0
ARC
  5
4C
330
22
100
AcDbEntity
  8
0
100
AcDbCircle
 10
22.59973089678116
 20
-7.271599258481472
 30
0.0
 40
2.5
100
AcDbArc
 50
270.0
 51
270.0000000000007
  0
LINE
  5
4D
330
22
100
AcDbEntity
  8
0
100
AcDbLine
 10
28.77130377203494
 20
-12.77159925848147
 30
0.0
 11
24.43885465448463
 21
-12.77159925848144
 31
0.0
  0
LINE
  5
4E
330
22
100
AcDbEntity
  8
0
100
AcDbLine
 10
3.599730896781125
 20
-4.771599258481472
 30
0.0
 11
2.599730896781125
 21
-4.771599258481472
 31
0.0
  0
LINE
  5
4F
330
22
100
AcDbEntity
  8
0
100
AcDbLine
 10
22.59973089678116
 20
-8.771599258481472
 30
0.0
 11
18.59973089678115
 21
-8.771599258481472
 31
0.0
  0
LINE
  5
50
330
22
100
AcDbEntity
  8
0
100
AcDbLine
 10
22.59973089678116
 20
-5.771599258481472
 30
0.0
 11
18.59973089678115
 21
-5.771599258481472
 31
0.0
  0
LINE
  5
51
330
22
100
AcDbEntity
  8
0
100
AcDbLine
 10
22.59973089678116
 20
-4.771599258481472
 30
0.0
 11
17.59973089678115
 21
-4.771599258481472
 31
0.0
  0
LINE
  5
52
330
22
100
AcDbEntity
  8
0
100
AcDbLine
 10
18.59973089678115
 20
-5.771599258481472
 30
0.0
 11
18.59973089678115
 21
-8.771599258481472
 31
0.0
  0
ARC
  5
53
330
22
100
AcDbEntity
  8
0
100
AcDbCircle
 10
22.59973089678116
 20
-7.271599258481472
 30
0.0
 40
1.5
100
AcDbArc
 50
270.0
 51
90.0
  0
ENDBLK
  5
54
330
22
100
AcDbEntity
  8
0
100
AcDbBlockEnd
  0
BLOCK
  5
55
330
23
100
AcDbEntity
  8
0
100
AcDbBlockBegin
  2
LORO
 70
     0
 10
0.0
 20
0.0
 30
0.0
  3
LORO
  1

  0
INSERT
  5
56
330
23
100
AcDbEntity
  8
STEMPEL
100
AcDbBlockReference
  2
LOGO
 10
-1.748032802467321
 20
3.771489518552062
 30
0.0
  0
ENDBLK
  5
57
330
23
100
AcDbEntity
  8
0
100
AcDbBlockEnd
  0
BLOCK
  5
703F
330
703E
100
AcDbEntity
  8
0
100
AcDbBlockBegin
  2
*X2
 70
     1
 10
0.0
 20
0.0
 30
0.0
  3
*X2
  1

  0
LINE
  5
7040
330
703E
100
AcDbEntity
  8
0
 62
     0
100
AcDbLine
 10
66.5911102513664
 20
172.6571274293485
 30
0.0
 11
67.88728254096705
 21
173.9532997189491
 31
0.0
  0
LINE
  5
7041
330
703E
100
AcDbEntity
  8
0
 62
     0
100
AcDbLine
 10
64.91816184620272
 20
172.7519459771512
 30
0.0
 11
66.51526896889443
 21
174.3490530998429
 31
0.0
  0
LINE
  5
7042
330
703E
100
AcDbEntity
  8
0
 62
     0
100
AcDbLine
 10
63.60622135240145
 20
173.2077724363163
 30
0.0
 11
65.28570550995198
 21
174.8872565938668
 31
0.0
  0
LINE
  5
7043
330
703E
100
AcDbEntity
  8
0
 62
     0
100
AcDbLine
 10
62.55768838314424
 20
173.9270064200255
 30
0.0
 11
64.30236191589563
 21
175.6716799527768
 31
0.0
  0
LINE
  5
7044
330
703E
100
AcDbEntity
  8
0
 62
     0
100
AcDbLine
 10
61.73484949062789
 20
174.8719344804755
 30
0.0
 11
63.54362530555839
 21
176.680710295406
 31
0.0
  0
LINE
  5
7045
330
703E
100
AcDbEntity
  8
0
 62
     0
100
AcDbLine
 10
61.15072036926896
 20
176.0555723120829
 30
0.0
 11
63.0371760182109
 21
177.9420279610248
 31
0.0
  0
LINE
  5
7046
330
703E
100
AcDbEntity
  8
0
 62
     0
100
AcDbLine
 10
59.98450853356822
 20
176.6571274293485
 30
0.0
 11
62.88728254096705
 21
179.5599014367473
 31
0.0
  0
LINE
  5
7047
330
703E
100
AcDbEntity
  8
0
 62
     0
100
AcDbLine
 10
56.21674158060184
 20
174.6571274293485
 30
0.0
 11
62.88728254096705
 21
181.3276683897137
 31
0.0
  0
LINE
  5
7048
330
703E
100
AcDbEntity
  8
0
 62
     0
100
AcDbLine
 10
56.66903498714995
 20
176.877187788863
 30
0.0
 11
62.88728254096705
 21
183.0954353426801
 31
0.0
  0
LINE
  5
7049
330
703E
100
AcDbEntity
  8
0
 62
     0
100
AcDbLine
 10
57.40924510781806
 20
179.3851648624975
 30
0.0
 11
62.88728254096705
 21
184.8632022956465
 31
0.0
  0
LINE
  5
704A
330
703E
100
AcDbEntity
  8
0
 62
     0
100
AcDbLine
 10
56.52536163133488
 20
180.2690483389807
 30
0.0
 11
62.88728254096705
 21
186.6309692486128
 31
0.0
  0
LINE
  5
704B
330
703E
100
AcDbEntity
  8
0
 62
     0
100
AcDbLine
 10
55.6414781548517
 20
181.1529318154638
 30
0.0
 11
62.88728254096705
 21
188.3987362015792
 31
0.0
  0
LINE
  5
704C
330
703E
100
AcDbEntity
  8
0
 62
     0
100
AcDbLine
 10
58.31750726100699
 20
185.5967278745855
 30
0.0
 11
62.88728254096705
 21
190.1665031545455
 31
0.0
  0
LINE
  5
704D
330
703E
100
AcDbEntity
  8
0
 62
     0
100
AcDbLine
 10
59.32911801676605
 20
188.376105583311
 30
0.0
 11
62.88728254096705
 21
191.9342701075119
 31
0.0
  0
LINE
  5
704E
330
703E
100
AcDbEntity
  8
0
 62
     0
100
AcDbLine
 10
60.34072877252511
 20
191.1554832920364
 30
0.0
 11
62.8355270461321
 21
193.6502815656434
 31
0.0
  0
LINE
  5
704F
330
703E
100
AcDbEntity
  8
0
 62
     0
100
AcDbLine
 10
60.02421184022856
 20
192.6067333127062
 30
0.0
 11
62.46195393272875
 21
195.0444754052064
 31
0.0
  0
LINE
  5
7050
330
703E
100
AcDbEntity
  8
0
 62
     0
100
AcDbLine
 10
58.30683900390446
 20
192.6571274293485
 30
0.0
 11
62.0883808193254
 21
196.4386692447694
 31
0.0
  0
LINE
  5
7051
330
703E
100
AcDbEntity
  8
0
 62
     0
100
AcDbLine
 10
56.53907205093808
 20
192.6571274293485
 30
0.0
 11
61.71480770592205
 21
197.8328630843324
 31
0.0
  0
LINE
  5
7052
330
703E
100
AcDbEntity
  8
0
 62
     0
100
AcDbLine
 10
55.74288654863171
 20
193.6287088800084
 30
0.0
 11
61.22926534270447
 21
199.1150876740812
 31
0.0
  0
LINE
  5
7053
330
703E
100
AcDbEntity
  8
0
 62
     0
100
AcDbLine
 10
57.98989106170044
 20
197.6434803460436
 30
0.0
 11
60.00174811918218
 21
199.6553374035253
 31
0.0
  0
LINE
  5
7054
330
703E
100
AcDbEntity
  8
0
 62
     0
100
AcDbLine
 10
168.8808315450926
 20
197.1651027925545
 30
0.0
 11
171.2630085216351
 21
199.547279769097
 31
0.0
  0
LINE
  5
7055
330
703E
100
AcDbEntity
  8
0
 62
     0
100
AcDbLine
 10
168.2337839323363
 20
194.7502882268318
 30
0.0
 11
172.1494013595919
 21
198.6659056540874
 31
0.0
  0
LINE
  5
7056
330
703E
100
AcDbEntity
  8
0
 62
     0
100
AcDbLine
 10
167.887282540967
 20
192.6360198824962
 30
0.0
 11
172.8268552968106
 21
197.5755926383397
 31
0.0
  0
LINE
  5
7057
330
703E
100
AcDbEntity
  8
0
 62
     0
100
AcDbLine
 10
167.887282540967
 20
190.8682529295298
 30
0.0
 11
173.5043092340293
 21
196.4852796225921
 31
0.0
  0
LINE
  5
7058
330
703E
100
AcDbEntity
  8
0
 62
     0
100
AcDbLine
 10
167.887282540967
 20
189.1004859765635
 30
0.0
 11
170.3026663521419
 21
191.5158697877384
 31
0.0
  0
LINE
  5
7059
330
703E
100
AcDbEntity
  8
0
 62
     0
100
AcDbLine
 10
171.4439239937521
 20
192.6571274293485
 30
0.0
 11
174.181763171248
 21
195.3949666068444
 31
0.0
  0
LINE
  5
705A
330
703E
100
AcDbEntity
  8
0
 62
     0
100
AcDbLine
 10
167.887282540967
 20
187.3327190235971
 30
0.0
 11
170.7743881946244
 21
190.2198246772544
 31
0.0
  0
LINE
  5
705B
330
703E
100
AcDbEntity
  8
0
 62
     0
100
AcDbLine
 10
173.2116909467184
 20
192.6571274293485
 30
0.0
 11
174.8234137568144
 21
194.2688502394445
 31
0.0
  0
LINE
  5
705C
330
703E
100
AcDbEntity
  8
0
 62
     0
100
AcDbLine
 10
167.887282540967
 20
185.5649520706307
 30
0.0
 11
171.2461100371068
 21
188.9237795667705
 31
0.0
  0
LINE
  5
705D
330
703E
100
AcDbEntity
  8
0
 62
     0
100
AcDbLine
 10
174.9794578996848
 20
192.6571274293485
 30
0.0
 11
175.1360793904445
 21
192.8137489201082
 31
0.0
  0
LINE
  5
705E
330
703E
100
AcDbEntity
  8
0
 62
     0
100
AcDbLine
 10
167.887282540967
 20
183.7971851176644
 30
0.0
 11
171.7178318795892
 21
187.6277344562865
 31
0.0
  0
LINE
  5
705F
330
703E
100
AcDbEntity
  8
0
 62
     0
100
AcDbLine
 10
167.887282540967
 20
182.029418164698
 30
0.0
 11
172.1895537220716
 21
186.3316893458025
 31
0.0
  0
LINE
  5
7060
330
703E
100
AcDbEntity
  8
0
 62
     0
100
AcDbLine
 10
167.887282540967
 20
180.2616512117316
 30
0.0
 11
172.661275564554
 21
185.0356442353186
 31
0.0
  0
LINE
  5
7061
330
703E
100
AcDbEntity
  8
0
 62
     0
100
AcDbLine
 10
162.887282540967
 20
173.4938842587652
 30
0.0
 11
163.6018497581068
 21
174.208451475905
 31
0.0
  0
LINE
  5
7062
330
703E
100
AcDbEntity
  8
0
 62
     0
100
AcDbLine
 10
167.8359584944105
 20
178.4425602122087
 30
0.0
 11
173.3439041262587
 21
183.9505058440569
 31
0.0
  0
LINE
  5
7063
330
703E
100
AcDbEntity
  8
0
 62
     0
100
AcDbLine
 10
163.8182926645167
 20
172.6571274293485
 30
0.0
 11
174.2277876027419
 21
183.0666223675737
 31
0.0
  0
LINE
  5
7064
330
703E
100
AcDbEntity
  8
0
 62
     0
100
AcDbLine
 10
165.6435908232286
 20
172.714658635094
 30
0.0
 11
175.111671079225
 21
182.1827388910905
 31
0.0
  0
LINE
  5
7065
330
703E
100
AcDbEntity
  8
0
 62
     0
100
AcDbLine
 10
171.3538265704494
 20
176.6571274293485
 30
0.0
 11
173.1788843831427
 21
178.4821852420418
 31
0.0
  0
LINE
  5
7066
330
703E
100
AcDbEntity
  8
0
 62
     0
100
AcDbLine
 10
172.454189084036
 20
175.9897229899687
 30
0.0
 11
173.825931995899
 21
177.3614659018317
 31
0.0
  0
LINE
  5
7067
330
703E
100
AcDbEntity
  8
0
 62
     0
100
AcDbLine
 10
173.1822200558128
 20
174.9499870087791
 30
0.0
 11
174.4729796086553
 21
176.2407465616217
 31
0.0
  0
LINE
  5
7068
330
703E
100
AcDbEntity
  8
0
 62
     0
100
AcDbLine
 10
174.6571274293485
 20
174.6571274293485
 30
0.0
 11
175.1200272214116
 21
175.1200272214116
 31
0.0
  0
LINE
  5
7069
330
703E
100
AcDbEntity
  8
0
 62
     0
100
AcDbLine
 10
61.59984963305912
 20
198.2618924529971
 30
0.0
 11
60.2107712637844
 21
199.6509708222718
 31
0.0
  0
LINE
  5
706A
330
703E
100
AcDbEntity
  8
0
 62
     0
100
AcDbLine
 10
62.24689724581542
 20
195.8470778872744
 30
0.0
 11
58.9475191471196
 21
199.1464559859702
 31
0.0
  0
LINE
  5
706B
330
703E
100
AcDbEntity
  8
0
 62
     0
100
AcDbLine
 10
62.88728254096705
 20
193.4389256391564
 30
0.0
 11
58.25540400078481
 21
198.0708041793386
 31
0.0
  0
LINE
  5
706C
330
703E
100
AcDbEntity
  8
0
 62
     0
100
AcDbLine
 10
62.88728254096705
 20
191.67115868619
 30
0.0
 11
57.57795006356614
 21
196.9804911635909
 31
0.0
  0
LINE
  5
706D
330
703E
100
AcDbEntity
  8
0
 62
     0
100
AcDbLine
 10
62.88728254096705
 20
189.9033917332236
 30
0.0
 11
56.90049612634746
 21
195.8901781478432
 31
0.0
  0
LINE
  5
706E
330
703E
100
AcDbEntity
  8
0
 62
     0
100
AcDbLine
 10
62.88728254096705
 20
188.1356247802573
 30
0.0
 11
60.21442921408613
 21
190.8084781071382
 31
0.0
  0
LINE
  5
706F
330
703E
100
AcDbEntity
  8
0
 62
     0
100
AcDbLine
 10
58.36577989187587
 20
192.6571274293485
 30
0.0
 11
56.22313289908266
 21
194.7997744221417
 31
0.0
  0
LINE
  5
7070
330
703E
100
AcDbEntity
  8
0
 62
     0
100
AcDbLine
 10
62.88728254096705
 20
186.3678578272909
 30
0.0
 11
59.74270737160372
 21
189.5124329966543
 31
0.0
  0
LINE
  5
7071
330
703E
100
AcDbEntity
  8
0
 62
     0
100
AcDbLine
 10
56.5980129389095
 20
192.6571274293485
 30
0.0
 11
55.72176028650066
 21
193.5333800817573
 31
0.0
  0
LINE
  5
7072
330
703E
100
AcDbEntity
  8
0
 62
     0
100
AcDbLine
 10
62.88728254096705
 20
184.6000908743245
 30
0.0
 11
59.27098552912131
 21
188.2163878861703
 31
0.0
  0
LINE
  5
7073
330
703E
100
AcDbEntity
  8
0
 62
     0
100
AcDbLine
 10
62.88728254096705
 20
182.8323239213581
 30
0.0
 11
58.79926368663889
 21
186.9203427756863
 31
0.0
  0
LINE
  5
7074
330
703E
100
AcDbEntity
  8
0
 62
     0
100
AcDbLine
 10
62.88728254096705
 20
181.0645569683918
 30
0.0
 11
58.32754184415648
 21
185.6242976652024
 31
0.0
  0
LINE
  5
7075
330
703E
100
AcDbEntity
  8
0
 62
     0
100
AcDbLine
 10
62.88728254096705
 20
179.2967900154254
 30
0.0
 11
57.8321138340055
 21
184.351958722387
 31
0.0
  0
LINE
  5
7076
330
703E
100
AcDbEntity
  8
0
 62
     0
100
AcDbLine
 10
67.75917817407762
 20
172.6571274293485
 30
0.0
 11
65.80491949257485
 21
174.6113861108513
 31
0.0
  0
LINE
  5
7077
330
703E
100
AcDbEntity
  8
0
 62
     0
100
AcDbLine
 10
63.34154122246982
 20
177.0747643809563
 30
0.0
 11
56.94823035752231
 21
183.4680752459038
 31
0.0
  0
LINE
  5
7078
330
703E
100
AcDbEntity
  8
0
 62
     0
100
AcDbLine
 10
65.99141122111125
 20
172.6571274293485
 30
0.0
 11
56.06434688103913
 21
182.5841917694206
 31
0.0
  0
LINE
  5
7079
330
703E
100
AcDbEntity
  8
0
 62
     0
100
AcDbLine
 10
63.73824877910426
 20
173.1425229183891
 30
0.0
 11
61.37267803000766
 21
175.5080936674857
 31
0.0
  0
LINE
  5
707A
330
703E
100
AcDbEntity
  8
0
 62
     0
100
AcDbLine
 10
60.22364426814484
 20
176.6571274293485
 30
0.0
 11
55.63728254096705
 21
181.2434891565263
 31
0.0
  0
LINE
  5
707B
330
703E
100
AcDbEntity
  8
0
 62
     0
100
AcDbLine
 10
58.65104190229555
 20
176.4619628422314
 30
0.0
 11
57.24251698981749
 21
177.8704877547095
 31
0.0
  0
LINE
  5
707C
330
703E
100
AcDbEntity
  8
0
 62
     0
100
AcDbLine
 10
57.92301093051874
 20
175.4222268610419
 30
0.0
 11
56.59546937706118
 21
176.7497684144995
 31
0.0
  0
LINE
  5
707D
330
703E
100
AcDbEntity
  8
0
 62
     0
100
AcDbLine
 10
56.92034340924576
 20
174.6571274293485
 30
0.0
 11
55.94842176430488
 21
175.6290490742894
 31
0.0
  0
LINE
  5
707E
330
703E
100
AcDbEntity
  8
0
 62
     0
100
AcDbLine
 10
163.2185936342615
 20
172.6571274293485
 30
0.0
 11
162.887282540967
 21
172.988438522643
 31
0.0
  0
LINE
  5
707F
330
703E
100
AcDbEntity
  8
0
 62
     0
100
AcDbLine
 10
164.9853978334756
 20
172.6580901831007
 30
0.0
 11
163.4541255750935
 21
174.1893624414829
 31
0.0
  0
LINE
  5
7080
330
703E
100
AcDbEntity
  8
0
 62
     0
100
AcDbLine
 10
166.4902215550165
 20
172.9210334145263
 30
0.0
 11
164.8519584116991
 21
174.5592965578436
 31
0.0
  0
LINE
  5
7081
330
703E
100
AcDbEntity
  8
0
 62
     0
100
AcDbLine
 10
167.6735838860035
 20
173.5054380365056
 30
0.0
 11
165.9635450402596
 21
175.2154768822494
 31
0.0
  0
LINE
  5
7082
330
703E
100
AcDbEntity
  8
0
 62
     0
100
AcDbLine
 10
168.6182769179258
 20
174.3285119575497
 30
0.0
 11
166.8450983035322
 21
176.1016905719432
 31
0.0
  0
LINE
  5
7083
330
703E
100
AcDbEntity
  8
0
 62
     0
100
AcDbLine
 10
169.3372650882239
 20
175.3772907402179
 30
0.0
 11
167.4961270372112
 21
177.2184287912306
 31
0.0
  0
LINE
  5
7084
330
703E
100
AcDbEntity
  8
0
 62
     0
100
AcDbLine
 10
169.8251953520597
 20
176.6571274293485
 30
0.0
 11
167.8587346268524
 21
178.6235881545558
 31
0.0
  0
LINE
  5
7085
330
703E
100
AcDbEntity
  8
0
 62
     0
100
AcDbLine
 10
173.592962305026
 20
174.6571274293485
 30
0.0
 11
172.9068884697109
 21
175.3432012646636
 31
0.0
  0
LINE
  5
7086
330
703E
100
AcDbEntity
  8
0
 62
     0
100
AcDbLine
 10
171.592962305026
 20
176.6571274293485
 30
0.0
 11
167.887282540967
 21
180.3628071934075
 31
0.0
  0
LINE
  5
7087
330
703E
100
AcDbEntity
  8
0
 62
     0
100
AcDbLine
 10
175.3607292579924
 20
174.6571274293485
 30
0.0
 11
167.887282540967
 21
182.1305741463739
 31
0.0
  0
LINE
  5
7088
330
703E
100
AcDbEntity
  8
0
 62
     0
100
AcDbLine
 10
173.137282540967
 20
178.6483410993403
 30
0.0
 11
167.887282540967
 21
183.8983410993403
 31
0.0
  0
LINE
  5
7089
330
703E
100
AcDbEntity
  8
0
 62
     0
100
AcDbLine
 10
173.7667728524461
 20
179.7866177408276
 30
0.0
 11
167.887282540967
 21
185.6661080523067
 31
0.0
  0
LINE
  5
708A
330
703E
100
AcDbEntity
  8
0
 62
     0
100
AcDbLine
 10
174.6506563289293
 20
180.6705012173108
 30
0.0
 11
167.887282540967
 21
187.433875005273
 31
0.0
  0
LINE
  5
708B
330
703E
100
AcDbEntity
  8
0
 62
     0
100
AcDbLine
 10
175.137282540967
 20
181.9516419582394
 30
0.0
 11
167.887282540967
 21
189.2016419582394
 31
0.0
  0
LINE
  5
708C
330
703E
100
AcDbEntity
  8
0
 62
     0
100
AcDbLine
 10
171.9975922234198
 20
186.8590992287529
 30
0.0
 11
167.887282540967
 21
190.9694089112058
 31
0.0
  0
LINE
  5
708D
330
703E
100
AcDbEntity
  8
0
 62
     0
100
AcDbLine
 10
170.9859814676607
 20
189.6384769374784
 30
0.0
 11
167.887282540967
 21
192.7371758641721
 31
0.0
  0
LINE
  5
708E
330
703E
100
AcDbEntity
  8
0
 62
     0
100
AcDbLine
 10
170.2737086085536
 20
192.118516749552
 30
0.0
 11
168.1087119867612
 21
194.2835133713443
 31
0.0
  0
LINE
  5
708F
330
703E
100
AcDbEntity
  8
0
 62
     0
100
AcDbLine
 10
171.5028648817234
 20
192.6571274293485
 30
0.0
 11
168.4822851001646
 21
195.6777072109073
 31
0.0
  0
LINE
  5
7090
330
703E
100
AcDbEntity
  8
0
 62
     0
100
AcDbLine
 10
173.2706318346898
 20
192.6571274293485
 30
0.0
 11
168.8558582135679
 21
197.0719010504703
 31
0.0
  0
LINE
  5
7091
330
703E
100
AcDbEntity
  8
0
 62
     0
100
AcDbLine
 10
175.0383987876562
 20
192.6571274293485
 30
0.0
 11
169.2294313269713
 21
198.4660948900333
 31
0.0
  0
LINE
  5
7092
330
703E
100
AcDbEntity
  8
0
 62
     0
100
AcDbLine
 10
174.3678995087855
 20
195.0953936611855
 30
0.0
 11
169.9864924734684
 21
199.4768006965026
 31
0.0
  0
ENDBLK
  5
7093
330
703E
100
AcDbEntity
  8
0
100
AcDbBlockEnd
  0
BLOCK
  5
754E
330
754D
100
AcDbEntity
  8
0
100
AcDbBlockBegin
  2
*X3
 70
     1
 10
0.0
 20
0.0
 30
0.0
  3
*X3
  1

  0
LINE
  5
754F
330
754D
100
AcDbEntity
  8
0
 62
     0
100
AcDbLine
 10
93.70021274941839
 20
61.88040759602376
 30
0.0
 11
95.07112620335011
 21
63.25132104995546
 31
0.0
  0
LINE
  5
7550
330
754D
100
AcDbEntity
  8
0
 62
     0
100
AcDbLine
 10
91.97683926464383
 20
61.92480106421558
 30
0.0
 11
93.64125828771827
 21
63.58922008729001
 31
0.0
  0
LINE
  5
7551
330
754D
100
AcDbEntity
  8
0
 62
     0
100
AcDbLine
 10
90.65402199992767
 20
62.36975075246578
 30
0.0
 11
92.42332018360089
 21
64.13904893613899
 31
0.0
  0
LINE
  5
7552
330
754D
100
AcDbEntity
  8
0
 62
     0
100
AcDbLine
 10
89.65693356126196
 20
63.14042926676644
 30
0.0
 11
91.44955836059216
 21
64.93305406609661
 31
0.0
  0
LINE
  5
7553
330
754D
100
AcDbEntity
  8
0
 62
     0
100
AcDbLine
 10
88.94360076156543
 20
64.19486342003627
 30
0.0
 11
90.70055071479295
 21
65.95181337326379
 31
0.0
  0
LINE
  5
7554
330
754D
100
AcDbEntity
  8
0
 62
     0
100
AcDbLine
 10
88.57967200237885
 20
65.59870161381605
 30
0.0
 11
90.2063613919087
 21
67.2253910033459
 31
0.0
  0
LINE
  5
7555
330
754D
100
AcDbEntity
  8
0
 62
     0
100
AcDbLine
 10
85.59361103162018
 20
64.38040759602376
 30
0.0
 11
86.63097382413278
 21
65.41777038853635
 31
0.0
  0
LINE
  5
7556
330
754D
100
AcDbEntity
  8
0
 62
     0
100
AcDbLine
 10
87.5881082353735
 20
66.37490479977708
 30
0.0
 11
90.07112620335011
 21
68.85792276775368
 31
0.0
  0
LINE
  5
7557
330
754D
100
AcDbEntity
  8
0
 62
     0
100
AcDbLine
 10
84.87356672499798
 20
65.42813024236792
 30
0.0
 11
90.07112620335011
 21
70.62568972072004
 31
0.0
  0
LINE
  5
7558
330
754D
100
AcDbEntity
  8
0
 62
     0
100
AcDbLine
 10
86.57112620335007
 20
68.89345667368639
 30
0.0
 11
90.07112620335011
 21
72.39345667368642
 31
0.0
  0
LINE
  5
7559
330
754D
100
AcDbEntity
  8
0
 62
     0
100
AcDbLine
 10
85.73071818803558
 20
69.82081561133826
 30
0.0
 11
90.07112620335011
 21
74.16122362665278
 31
0.0
  0
LINE
  5
755A
330
754D
100
AcDbEntity
  8
0
 62
     0
100
AcDbLine
 10
85.1711262033501
 20
71.02899057961915
 30
0.0
 11
90.07112620335011
 21
75.92899057961915
 31
0.0
  0
LINE
  5
755B
330
754D
100
AcDbEntity
  8
0
 62
     0
100
AcDbLine
 10
86.7492714383072
 20
74.37490276754262
 30
0.0
 11
90.07112620335011
 21
77.69675753258552
 31
0.0
  0
LINE
  5
755C
330
754D
100
AcDbEntity
  8
0
 62
     0
100
AcDbLine
 10
87.76088219406627
 20
77.15428047626805
 30
0.0
 11
89.90862116776007
 21
79.30201944996186
 31
0.0
  0
LINE
  5
755D
330
754D
100
AcDbEntity
  8
0
 62
     0
100
AcDbLine
 10
88.13492114341713
 20
79.29608637858528
 30
0.0
 11
89.64363956440942
 21
80.80480479957758
 31
0.0
  0
LINE
  5
755E
330
754D
100
AcDbEntity
  8
0
 62
     0
100
AcDbLine
 10
86.45147540788924
 20
79.38040759602377
 30
0.0
 11
89.37865796105878
 21
82.3075901491933
 31
0.0
  0
LINE
  5
755F
330
754D
100
AcDbEntity
  8
0
 62
     0
100
AcDbLine
 10
84.88409069335453
 20
79.58078983445543
 30
0.0
 11
89.08848175613028
 21
83.78518089723119
 31
0.0
  0
LINE
  5
7560
330
754D
100
AcDbEntity
  8
0
 62
     0
100
AcDbLine
 10
87.16846538706764
 20
83.6329314811349
 30
0.0
 11
87.86792957609936
 21
84.33239567016663
 31
0.0
  0
LINE
  5
7561
330
754D
100
AcDbEntity
  8
0
 62
     0
100
AcDbLine
 10
165.0223618914125
 20
83.7050820549596
 30
0.0
 11
165.6435132598423
 21
84.32623342338933
 31
0.0
  0
LINE
  5
7562
330
754D
100
AcDbEntity
  8
0
 62
     0
100
AcDbLine
 10
164.6289328008806
 20
81.54388601146125
 30
0.0
 11
166.8815655210309
 21
83.79651873161156
 31
0.0
  0
LINE
  5
7563
330
754D
100
AcDbEntity
  8
0
 62
     0
100
AcDbLine
 10
164.250499852232
 20
79.39768610984632
 30
0.0
 11
167.5188624007054
 21
82.6660486583197
 31
0.0
  0
LINE
  5
7564
330
754D
100
AcDbEntity
  8
0
 62
     0
100
AcDbLine
 10
164.0711262033501
 20
77.45054550799804
 30
0.0
 11
168.1561592803799
 21
81.53557858502784
 31
0.0
  0
LINE
  5
7565
330
754D
100
AcDbEntity
  8
0
 62
     0
100
AcDbLine
 10
164.0711262033501
 20
75.68277855503168
 30
0.0
 11
166.1575550980469
 21
77.76920744972851
 31
0.0
  0
LINE
  5
7566
330
754D
100
AcDbEntity
  8
0
 62
     0
100
AcDbLine
 10
167.7687552443422
 20
79.38040759602377
 30
0.0
 11
168.7934561600544
 21
80.40510851173598
 31
0.0
  0
LINE
  5
7567
330
754D
100
AcDbEntity
  8
0
 62
     0
100
AcDbLine
 10
164.0711262033501
 20
73.9150116020653
 30
0.0
 11
166.6292769405293
 21
76.47316233924456
 31
0.0
  0
LINE
  5
7568
330
754D
100
AcDbEntity
  8
0
 62
     0
100
AcDbLine
 10
164.0711262033501
 20
72.14724464909894
 30
0.0
 11
167.1009987830118
 21
75.17711722876061
 31
0.0
  0
LINE
  5
7569
330
754D
100
AcDbEntity
  8
0
 62
     0
100
AcDbLine
 10
164.0711262033501
 20
70.37947769613257
 30
0.0
 11
167.5711262033501
 21
73.87947769613258
 31
0.0
  0
LINE
  5
756A
330
754D
100
AcDbEntity
  8
0
 62
     0
100
AcDbLine
 10
164.0711262033501
 20
68.6117107431662
 30
0.0
 11
167.9054746297789
 21
72.44605916959499
 31
0.0
  0
LINE
  5
756B
330
754D
100
AcDbEntity
  8
0
 62
     0
100
AcDbLine
 10
159.107590009174
 20
61.88040759602376
 30
0.0
 11
160.9907809936025
 21
63.76359858045224
 31
0.0
  0
LINE
  5
756C
330
754D
100
AcDbEntity
  8
0
 62
     0
100
AcDbLine
 10
163.6879352189216
 20
66.46075280577135
 30
0.0
 11
168.7893581062621
 21
71.5621756931118
 31
0.0
  0
LINE
  5
756D
330
754D
100
AcDbEntity
  8
0
 62
     0
100
AcDbLine
 10
160.8753569621404
 20
61.88040759602376
 30
0.0
 11
167.5711262033501
 21
68.57617683723351
 31
0.0
  0
LINE
  5
756E
330
754D
100
AcDbEntity
  8
0
 62
     0
100
AcDbLine
 10
162.8546436010886
 20
62.09192728200563
 30
0.0
 11
165.3596065173682
 21
64.59689019828522
 31
0.0
  0
LINE
  5
756F
330
754D
100
AcDbEntity
  8
0
 62
     0
100
AcDbLine
 10
166.9764839895293
 20
66.21376767044634
 30
0.0
 11
168.1450301298644
 21
67.38231381078145
 31
0.0
  0
LINE
  5
7570
330
754D
100
AcDbEntity
  8
0
 62
     0
100
AcDbLine
 10
167.6644452885527
 20
65.13396201650334
 30
0.0
 11
168.7904053666617
 21
66.25992209461232
 31
0.0
  0
LINE
  5
7571
330
754D
100
AcDbEntity
  8
0
 62
     0
100
AcDbLine
 10
168.6786578210395
 20
64.38040759602376
 30
0.0
 11
169.4357806034589
 21
65.1375303784432
 31
0.0
  0
LINE
  5
7572
330
754D
100
AcDbEntity
  8
0
 62
     0
100
AcDbLine
 10
89.42422439886616
 20
82.04917003887159
 30
0.0
 11
87.42758200238787
 21
84.04581243534988
 31
0.0
  0
LINE
  5
7573
330
754D
100
AcDbEntity
  8
0
 62
     0
100
AcDbLine
 10
89.80265734751471
 20
79.9029701372567
 30
0.0
 11
86.77343005295206
 21
82.93219743181932
 31
0.0
  0
LINE
  5
7574
330
754D
100
AcDbEntity
  8
0
 62
     0
100
AcDbLine
 10
90.07112620335011
 20
77.86673432845493
 30
0.0
 11
86.13613317327757
 21
81.80172735852746
 31
0.0
  0
LINE
  5
7575
330
754D
100
AcDbEntity
  8
0
 62
     0
100
AcDbLine
 10
90.07112620335011
 20
76.09896737548855
 30
0.0
 11
88.09575570177294
 21
78.07433787706571
 31
0.0
  0
LINE
  5
7576
330
754D
100
AcDbEntity
  8
0
 62
     0
100
AcDbLine
 10
86.78968598281489
 20
79.38040759602379
 30
0.0
 11
85.49883629360307
 21
80.67125728523558
 31
0.0
  0
LINE
  5
7577
330
754D
100
AcDbEntity
  8
0
 62
     0
100
AcDbLine
 10
90.07112620335011
 20
74.33120042252219
 30
0.0
 11
87.62403385929053
 21
76.77829276658176
 31
0.0
  0
LINE
  5
7578
330
754D
100
AcDbEntity
  8
0
 62
     0
100
AcDbLine
 10
85.02191902984852
 20
79.38040759602377
 30
0.0
 11
84.86153941392855
 21
79.54078721194372
 31
0.0
  0
LINE
  5
7579
330
754D
100
AcDbEntity
  8
0
 62
     0
100
AcDbLine
 10
90.07112620335011
 20
72.56343346955581
 30
0.0
 11
87.15231201680811
 21
75.48224765609781
 31
0.0
  0
LINE
  5
757A
330
754D
100
AcDbEntity
  8
0
 62
     0
100
AcDbLine
 10
90.07112620335011
 20
70.79566651658945
 30
0.0
 11
86.6805901743257
 21
74.18620254561385
 31
0.0
  0
LINE
  5
757B
330
754D
100
AcDbEntity
  8
0
 62
     0
100
AcDbLine
 10
90.07112620335011
 20
69.02789956362308
 30
0.0
 11
86.44487218714976
 21
72.65415357982343
 31
0.0
  0
LINE
  5
757C
330
754D
100
AcDbEntity
  8
0
 62
     0
100
AcDbLine
 10
95.07112620335011
 20
62.26013261065671
 30
0.0
 11
93.78173954742269
 21
63.54951926658413
 31
0.0
  0
LINE
  5
757D
330
754D
100
AcDbEntity
  8
0
 62
     0
100
AcDbLine
 10
90.24023787391049
 20
67.09102094009634
 30
0.0
 11
85.56098871066657
 21
71.77027010334024
 31
0.0
  0
LINE
  5
757E
330
754D
100
AcDbEntity
  8
0
 62
     0
100
AcDbLine
 10
93.68308426501668
 20
61.88040759602376
 30
0.0
 11
85.1711262033501
 21
70.39236565769036
 31
0.0
  0
LINE
  5
757F
330
754D
100
AcDbEntity
  8
0
 62
     0
100
AcDbLine
 10
91.84972755972014
 20
61.94599734835395
 30
0.0
 11
88.63671595568028
 21
65.1590089523938
 31
0.0
  0
LINE
  5
7580
330
754D
100
AcDbEntity
  8
0
 62
     0
100
AcDbLine
 10
87.44781481276103
 20
66.34791009531305
 30
0.0
 11
86.14916422716127
 21
67.6465606809128
 31
0.0
  0
LINE
  5
7581
330
754D
100
AcDbEntity
  8
0
 62
     0
100
AcDbLine
 10
86.62368791067775
 20
65.40427004442995
 30
0.0
 11
85.50378899036402
 21
66.52416896474367
 31
0.0
  0
LINE
  5
7582
330
754D
100
AcDbEntity
  8
0
 62
     0
100
AcDbLine
 10
85.87978340611758
 20
64.38040759602376
 30
0.0
 11
84.85841375356679
 21
65.40177724857454
 31
0.0
  0
LINE
  5
7583
330
754D
100
AcDbEntity
  8
0
 62
     0
100
AcDbLine
 10
159.0904615247723
 20
61.88040759602376
 30
0.0
 11
159.0711262033501
 21
61.89974291744597
 31
0.0
  0
LINE
  5
7584
330
754D
100
AcDbEntity
  8
0
 62
     0
100
AcDbLine
 10
160.8582284777387
 20
61.88040759602376
 30
0.0
 11
159.3504217813016
 21
63.38821429246086
 31
0.0
  0
LINE
  5
7585
330
754D
100
AcDbEntity
  8
0
 62
     0
100
AcDbLine
 10
162.5134213063737
 20
61.99298172035511
 30
0.0
 11
160.8128338581685
 21
63.69356916856028
 31
0.0
  0
LINE
  5
7586
330
754D
100
AcDbEntity
  8
0
 62
     0
100
AcDbLine
 10
163.7489318877407
 20
62.52523809195449
 30
0.0
 11
161.9686246687967
 21
64.30554531089851
 31
0.0
  0
LINE
  5
7587
330
754D
100
AcDbEntity
  8
0
 62
     0
100
AcDbLine
 10
164.6793076908343
 20
63.36262924182721
 30
0.0
 11
162.889516103741
 21
65.1524208289205
 31
0.0
  0
LINE
  5
7588
330
754D
100
AcDbEntity
  8
0
 62
     0
100
AcDbLine
 10
165.3211562986076
 20
64.48854758702029
 30
0.0
 11
163.5833416761295
 21
66.22636220949837
 31
0.0
  0
LINE
  5
7589
330
754D
100
AcDbEntity
  8
0
 62
     0
100
AcDbLine
 10
165.6651715124601
 20
65.91229932613416
 30
0.0
 11
164.0053594072237
 21
67.57211143137062
 31
0.0
  0
LINE
  5
758A
330
754D
100
AcDbEntity
  8
0
 62
     0
100
AcDbLine
 10
168.9648301955369
 20
64.38040759602376
 30
0.0
 11
164.0711262033501
 21
69.27411158821056
 31
0.0
  0
LINE
  5
758B
330
754D
100
AcDbEntity
  8
0
 62
     0
100
AcDbLine
 10
168.7056066893194
 20
66.40739805520762
 30
0.0
 11
164.0711262033501
 21
71.04187854117693
 31
0.0
  0
LINE
  5
758C
330
754D
100
AcDbEntity
  8
0
 62
     0
100
AcDbLine
 10
167.7357451524099
 20
69.14502654508352
 30
0.0
 11
164.0711262033501
 21
72.8096454941433
 31
0.0
  0
LINE
  5
758D
330
754D
100
AcDbEntity
  8
0
 62
     0
100
AcDbLine
 10
168.6196286288931
 20
70.0289100215667
 30
0.0
 11
164.0711262033501
 21
74.57741244710966
 31
0.0
  0
LINE
  5
758E
330
754D
100
AcDbEntity
  8
0
 62
     0
100
AcDbLine
 10
167.5711262033501
 20
72.84517940007603
 30
0.0
 11
164.0711262033501
 21
76.34517940007603
 31
0.0
  0
LINE
  5
758F
330
754D
100
AcDbEntity
  8
0
 62
     0
100
AcDbLine
 10
167.1548154757672
 20
75.0292570806253
 30
0.0
 11
164.0711262033501
 21
78.1129463530424
 31
0.0
  0
LINE
  5
7590
330
754D
100
AcDbEntity
  8
0
 62
     0
100
AcDbLine
 10
166.1432047200081
 20
77.80863478935073
 30
0.0
 11
164.2960163744673
 21
79.65582313489156
 31
0.0
  0
LINE
  5
7591
330
754D
100
AcDbEntity
  8
0
 62
     0
100
AcDbLine
 10
166.3391988663015
 20
79.3804075960238
 30
0.0
 11
164.5609979778179
 21
81.15860848450727
 31
0.0
  0
LINE
  5
7592
330
754D
100
AcDbEntity
  8
0
 62
     0
100
AcDbLine
 10
168.1069658192678
 20
79.38040759602379
 30
0.0
 11
164.8259795811686
 21
82.661393834123
 31
0.0
  0
LINE
  5
7593
330
754D
100
AcDbEntity
  8
0
 62
     0
100
AcDbLine
 10
168.7203469252241
 20
80.53479344303392
 30
0.0
 11
165.2158990906513
 21
84.03924127760667
 31
0.0
  0
ENDBLK
  5
7594
330
754D
100
AcDbEntity
  8
0
100
AcDbBlockEnd
  0
ENDSEC
  0
SECTION
  2
ENTITIES
  0
LINE
  5
58
330
1E
100
AcDbEntity
  8
STEMPEL
100
AcDbLine
 10
484.0
 20
830.0000000000002
 30
0.0
 11
484.0
 21
470.0000000000001
 31
0.0
  0
LINE
  5
59
330
1E
100
AcDbEntity
  8
STEMPEL
100
AcDbLine
 10
484.0
 20
470.0000000000001
 30
0.0
 11
584.0
 21
470.0000000000001
 31
0.0
  0
LINE
  5
5A
330
1E
100
AcDbEntity
  8
STEMPEL
100
AcDbLine
 10
484.0000000000001
 20
566.0000000000002
 30
0.0
 11
584.0000000000001
 21
566.0
 31
0.0
  0
LINE
  5
5B
330
1E
100
AcDbEntity
  8
STEMPEL
100
AcDbLine
 10
484.0
 20
650.0
 30
0.0
 11
584.0
 21
650.0
 31
0.0
  0
LINE
  5
5C
330
1E
100
AcDbEntity
  8
STEMPEL
100
AcDbLine
 10
484.0000000000003
 20
752.0000000000002
 30
0.0
 11
554.0
 21
752.0000000000002
 31
0.0
  0
LINE
  5
5D
330
1E
100
AcDbEntity
  8
STEMPEL
100
AcDbLine
 10
564.0
 20
566.0
 30
0.0
 11
564.0
 21
470.0000000000001
 31
0.0
  0
LINE
  5
5E
330
1E
100
AcDbEntity
  8
STEMPEL
100
AcDbLine
 10
554.0
 20
830.0000000000002
 30
0.0
 11
554.0
 21
566.0
 31
0.0
  0
LINE
  5
5F
330
1E
100
AcDbEntity
  8
STEMPEL
100
AcDbLine
 10
514.0
 20
830.0000000000002
 30
0.0
 11
514.0
 21
566.0000000000002
 31
0.0
  0
LINE
  5
60
330
1E
100
AcDbEntity
  8
VOLL
100
AcDbLine
 10
484.0
 20
484.0000000000001
 30
0.0
 11
584.0
 21
484.0
 31
0.0
  0
LINE
  5
61
330
1E
100
AcDbEntity
  8
VOLL
100
AcDbLine
 10
484.0000000000001
 20
524.0000000000001
 30
0.0
 11
584.0000000000001
 21
524.0
 31
0.0
  0
LINE
  5
62
330
1E
100
AcDbEntity
  8
VOLL
100
AcDbLine
 10
484.0000000000001
 20
544.0000000000002
 30
0.0
 11
584.0000000000001
 21
544.0
 31
0.0
  0
LINE
  5
63
330
1E
100
AcDbEntity
  8
VOLL
100
AcDbLine
 10
514.0
 20
584.0000000000002
 30
0.0
 11
554.0
 21
584.0000000000002
 31
0.0
  0
LINE
  5
64
330
1E
100
AcDbEntity
  8
VOLL
100
AcDbLine
 10
484.0000000000002
 20
610.0000000000002
 30
0.0
 11
554.0
 21
610.0
 31
0.0
  0
LINE
  5
65
330
1E
100
AcDbEntity
  8
HILF
100
AcDbLine
 10
494.0
 20
470.0000000000001
 30
0.0
 11
494.0
 21
566.0000000000002
 31
0.0
  0
LINE
  5
66
330
1E
100
AcDbEntity
  8
HILF
100
AcDbLine
 10
504.0
 20
470.0000000000001
 30
0.0
 11
504.0
 21
566.0000000000002
 31
0.0
  0
LINE
  5
67
330
1E
100
AcDbEntity
  8
HILF
100
AcDbLine
 10
514.0
 20
470.0000000000001
 30
0.0
 11
514.0
 21
566.0000000000002
 31
0.0
  0
LINE
  5
68
330
1E
100
AcDbEntity
  8
HILF
100
AcDbLine
 10
524.0
 20
470.0000000000001
 30
0.0
 11
524.0
 21
566.0000000000002
 31
0.0
  0
LINE
  5
69
330
1E
100
AcDbEntity
  8
HILF
100
AcDbLine
 10
534.0
 20
470.0000000000001
 30
0.0
 11
534.0
 21
566.0000000000002
 31
0.0
  0
LINE
  5
6A
330
1E
100
AcDbEntity
  8
HILF
100
AcDbLine
 10
544.0
 20
470.0000000000001
 30
0.0
 11
544.0
 21
566.0000000000002
 31
0.0
  0
LINE
  5
6B
330
1E
100
AcDbEntity
  8
HILF
100
AcDbLine
 10
554.0
 20
470.0000000000001
 30
0.0
 11
554.0
 21
566.0000000000002
 31
0.0
  0
LINE
  5
6C
330
1E
100
AcDbEntity
  8
HILF
100
AcDbLine
 10
524.0
 20
566.0000000000002
 30
0.0
 11
524.0
 21
650.0
 31
0.0
  0
LINE
  5
6D
330
1E
100
AcDbEntity
  8
HILF
100
AcDbLine
 10
534.0
 20
566.0000000000002
 30
0.0
 11
534.0
 21
650.0
 31
0.0
  0
LINE
  5
6E
330
1E
100
AcDbEntity
  8
HILF
100
AcDbLine
 10
544.0
 20
566.0000000000002
 30
0.0
 11
544.0
 21
650.0
 31
0.0
  0
LINE
  5
6F
330
1E
100
AcDbEntity
  8
HILF
100
AcDbLine
 10
509.9624175243587
 20
654.7736801096948
 30
0.0
 11
509.9624175243587
 21
746.6297842514811
 31
0.0
  0
LINE
  5
70
330
1E
100
AcDbEntity
  8
HILF
100
AcDbLine
 10
524.0
 20
654.7736801096948
 30
0.0
 11
524.0
 21
746.6297842514811
 31
0.0
  0
LINE
  5
71
330
1E
100
AcDbEntity
  8
HILF
100
AcDbLine
 10
534.0
 20
654.7736801096948
 30
0.0
 11
534.0
 21
746.6297842514811
 31
0.0
  0
LINE
  5
72
330
1E
100
AcDbEntity
  8
HILF
100
AcDbLine
 10
544.0
 20
654.7736801096948
 30
0.0
 11
544.0
 21
746.6297842514811
 31
0.0
  0
LINE
  5
73
330
1E
100
AcDbEntity
  8
VOLL
100
AcDbLine
 10
534.0
 20
752.0000000000002
 30
0.0
 11
534.0
 21
830.0000000000002
 31
0.0
  0
LINE
  5
74
330
1E
100
AcDbEntity
  8
HILF
100
AcDbLine
 10
510.2201636304418
 20
756.7238616296995
 30
0.0
 11
510.2201636304418
 21
824.858883932673
 31
0.0
  0
LINE
  5
75
330
1E
100
AcDbEntity
  8
HILF
100
AcDbLine
 10
579.1060174197169
 20
654.7736801096948
 30
0.0
 11
579.1060174197169
 21
824.858883932673
 31
0.0
  0
TEXT
  5
76
330
1E
100
AcDbEntity
  8
TEXT
100
AcDbText
 10
575.3261810501587
 20
492.3998239263297
 30
0.0
 40
4.0
  1
Änderung
 50
90.0
 41
0.8
  7
GREEKS
 72
     1
 11
575.3261810501587
 21
503.1426810691868
 31
0.0
100
AcDbText
  0
TEXT
  5
78
330
1E
100
AcDbEntity
  8
TEXT
100
AcDbText
 10
491.5379104912911
 20
573.5163572150376
 30
0.0
 40
5.0
  1
Maßstab
 50
90.0
 41
0.8
  7
GREEKS
100
AcDbText
  0
TEXT
  5
79
330
1E
100
AcDbEntity
  8
TEXT
100
AcDbText
 10
491.4510671988221
 20
654.8779403809009
 30
0.0
 40
5.0
  1
Benennung
 50
90.0
 41
0.8
  7
GREEKS
100
AcDbText
  0
TEXT
  5
7A
330
1E
100
AcDbEntity
  8
TEXT
100
AcDbText
 10
491.6867965462863
 20
756.1787549576343
 30
0.0
 40
5.0
  1
Zeichnungs Nr.
 50
90.0
 41
0.8
  7
GREEKS
100
AcDbText
  0
TEXT
  5
7B
330
1E
100
AcDbEntity
  8
TEXT
100
AcDbText
 10
563.1543942980694
 20
654.7422383911359
 30
0.0
 40
5.0
  1
Bauvorhaben
 50
90.0
 41
0.8
  7
GREEKS
100
AcDbText
  0
TEXT
  5
7C
330
1E
100
AcDbEntity
  8
TEXT
100
AcDbText
 10
520.8188176290003
 20
756.7238616296995
 30
0.0
 40
5.0
  1
Ersatz für:
 50
90.0
 41
0.8
  7
GREEKS
100
AcDbText
  0
TEXT
  5
7D
330
1E
100
AcDbEntity
  8
TEXT
100
AcDbText
 10
580.3453415397281
 20
478.2664110704577
 30
0.0
 40
4.0
  1
Index
 50
180.0
 41
0.8
  7
GREEKS
100
AcDbText
  0
TEXT
  5
7E
330
1E
100
AcDbEntity
  8
TEXT
100
AcDbText
 10
575.3284373066019
 20
529.8990113186978
 30
0.0
 40
4.0
  1
Tag
 50
90.0
 41
0.8
  7
GREEKS
 72
     1
 11
575.3284373066019
 21
533.6323446520311
 31
0.0
100
AcDbText
  0
TEXT
  5
7F
330
1E
100
AcDbEntity
  8
TEXT
100
AcDbText
 10
575.4067578303359
 20
548.9795678138292
 30
0.0
 40
4.0
  1
Name
 50
90.0
 41
0.8
  7
GREEKS
 72
     1
 11
575.4067578303359
 21
555.3033773376387
 31
0.0
100
AcDbText
  0
TEXT
  5
80
330
1E
100
AcDbEntity
  8
TEXT
100
AcDbText
 10
520.6811949877008
 20
592.3311673153651
 30
0.0
 40
4.0
  1
Tag
 50
90.0
 41
0.8
  7
GREEKS
100
AcDbText
  0
TEXT
  5
81
330
1E
100
AcDbEntity
  8
TEXT
100
AcDbText
 10
520.6903890808478
 20
622.4626584226296
 30
0.0
 40
4.0
  1
Name
 50
90.0
 41
0.8
  7
GREEKS
100
AcDbText
  0
TEXT
  5
82
330
1E
100
AcDbEntity
  8
TEXT
100
AcDbText
 10
530.3700963038204
 20
567.5836127167615
 30
0.0
 40
4.0
  1
Gez.
 50
90.0
 41
0.8
  7
GREEKS
100
AcDbText
  0
TEXT
  5
83
330
1E
100
AcDbEntity
  8
TEXT
100
AcDbText
 10
540.3107370857163
 20
567.5515086571672
 30
0.0
 40
4.0
  1
Gepr.
 50
90.0
 41
0.8
  7
GREEKS
100
AcDbText
  0
TEXT
  5
84
330
1E
100
AcDbEntity
  8
TEXT
100
AcDbText
 10
550.470536103502
 20
567.6006777387303
 30
0.0
 40
4.0
  1
Norm.
 50
90.0
 41
0.8
  7
GREEKS
100
AcDbText
  0
TEXT
  5
85
330
1E
100
AcDbEntity
  8
TEXT
100
AcDbText
 10
541.925838221214
 20
757.2400861497007
 30
0.0
 40
5.0
  1
ersetzt durch:
 50
90.0
 41
0.8
  7
GREEKS
100
AcDbText
  0
TEXT
  5
86
330
1E
100
AcDbEntity
  8
TEXT
100
AcDbText
 10
521.0331740347627
 20
568.8693027807324
 30
0.0
 40
4.0
  1
2012
 50
90.0
 41
0.8
  7
GREEKS
100
AcDbText
  0
LINE
  5
87
330
1E
100
AcDbEntity
  8
HILF
100
AcDbLine
 10
594.0
 20
-0.0000000000000568
 30
0.0
 11
594.0
 21
840.0
 31
0.0
  0
LINE
  5
88
330
1E
100
AcDbEntity
  8
HILF
100
AcDbLine
 10
594.0
 20
840.0
 30
0.0
 11
0.0
 21
840.0
 31
0.0
  0
LINE
  5
89
330
1E
100
AcDbEntity
  8
HILF
100
AcDbLine
 10
0.0
 20
840.0
 30
0.0
 11
0.0
 21
0.0
 31
0.0
  0
LINE
  5
8B
330
1E
100
AcDbEntity
  8
STEMPEL
100
AcDbLine
 10
10.0
 20
830.0
 30
0.0
 11
10.0
 21
39.99999999999995
 31
0.0
  0
LINE
  5
8D
330
1E
100
AcDbEntity
  8
STEMPEL
100
AcDbLine
 10
584.0
 20
39.99999999999995
 30
0.0
 11
584.0
 21
830.0
 31
0.0
  0
LINE
  5
8E
330
1E
100
AcDbEntity
  8
STEMPEL
100
AcDbLine
 10
584.0
 20
830.0
 30
0.0
 11
10.0
 21
830.0
 31
0.0
  0
TEXT
  5
8F
330
1E
100
AcDbEntity
  8
TEXT
 62
     1
100
AcDbText
 10
506.6265692434746
 20
655.0390572473189
 30
0.0
 40
7.0
  1
Grundeinheit
 50
90.0
 41
0.8
  7
GREEKS
100
AcDbText
  0
TEXT
  5
90
330
1E
100
AcDbEntity
  8
TEXT
 62
     1
100
AcDbText
 10
506.6265692434746
 20
767.1961422184136
 30
0.0
 40
7.0
  1
21415070W
 50
90.0
 41
0.8
  7
GREEKS
 72
     1
 11
506.6265692434746
 21
790.1294755517469
 31
0.0
100
AcDbText
  0
TEXT
  5
91
330
1E
100
AcDbEntity
  8
TEXT
100
AcDbText
 10
491.16010388621
 20
618.5090226415829
 30
0.0
 40
5.0
  1
Zul.Abw.
 50
90.0
 41
0.8
  7
GREEKS
100
AcDbText
  0
TEXT
  5
93
330
1E
100
AcDbEntity
  8
TEXT
100
AcDbText
 10
530.8491412387978
 20
590.7660475607107
 30
0.0
 40
4.0
  1
22.11.
 50
90.0
 41
0.8
  7
GREEKS
 72
     1
 11
530.8491412387978
 21
597.1660475607107
 31
0.0
100
AcDbText
  0
TEXT
  5
94
330
1E
100
AcDbEntity
  8
TEXT
100
AcDbText
 10
531.0570234483452
 20
624.0231753226609
 30
0.0
 40
4.0
  1
Koeh
 50
90.0
 41
0.8
  7
GREEKS
 72
     1
 11
531.0570234483452
 21
629.2803181798038
 31
0.0
100
AcDbText
  0
TEXT
  5
95
330
1E
100
AcDbEntity
  8
TEXT
100
AcDbText
 10
521.8997861689246
 20
654.3410940884991
 30
0.0
 40
5.0
  1
Serie V-OF, Ausführung B
 50
90.0
 41
0.8
  7
GREEKS
100
AcDbText
  0
TEXT
  5
96
330
1E
100
AcDbEntity
  8
TEXT
100
AcDbText
 10
531.6544091479096
 20
654.3410940884991
 30
0.0
 40
5.0
  1

 50
90.0
 41
0.8
  7
GREEKS
100
AcDbText
  0
TEXT
  5
97
330
1E
100
AcDbEntity
  8
TEXT
100
AcDbText
 10
541.4090266215394
 20
654.3410940884991
 30
0.0
 40
5.0
  1
EDV-Art.Nr. 21415.070X
 50
90.0
 41
0.8
  7
GREEKS
100
AcDbText
  0
TEXT
  5
98
330
1E
100
AcDbEntity
  8
TEXT
100
AcDbText
 10
550.6887237520849
 20
654.1676050109347
 30
0.0
 40
4.0
  1
21415070X.DWG
 50
90.0
 41
0.8
  7
GREEKS
100
AcDbText
  0
TEXT
  5
99
330
1E
100
AcDbEntity
  8
TEXT
 62
     1
100
AcDbText
 10
506.5292291158502
 20
582.703491203422
 30
0.0
 40
7.0
  1
1:2
 50
90.0
 41
0.8
  7
GREEKS
100
AcDbText
  0
TEXT
  5
9A
330
1E
100
AcDbEntity
  8
TEXT
100
AcDbText
 10
479.8856414948956
 20
470.0441139350127
 30
0.0
 40
5.0
  1
Erstellt mit AUTOCAD 2004
 50
90.0
 41
0.8
  7
GREEKS
100
AcDbText
  0
INSERT
  5
9B
330
1E
100
AcDbEntity
  8
HILF
100
AcDbBlockReference
  2
LORO
 10
557.0194069970104
 20
573.0624985962354
 30
0.0
 41
2.0
 42
2.0
 43
2.0
 50
90.0
  0
LINE
  5
9C
330
1E
100
AcDbEntity
  8
BEM
100
AcDbLine
 10
594.0
 20
455.9999999999999
 30
0.0
 11
584.0
 21
455.9999999999999
 31
0.0
  0
LINE
  5
13E
330
1E
100
AcDbEntity
  8
HILF
100
AcDbLine
 10
594.0
 20
-0.0000000000000568
 30
0.0
 11
0.0
 21
0.0
 31
0.0
  0
LINE
  5
13F
330
1E
100
AcDbEntity
  8
STEMPEL
100
AcDbLine
 10
584.0
 20
39.99999999999995
 30
0.0
 11
10.0
 21
39.99999999999995
 31
0.0
  0
LINE
  5
14A
330
1E
100
AcDbEntity
  8
HILF
100
AcDbLine
 10
297.0
 20
-0.0000000000000568
 30
0.0
 11
297.0
 21
39.99999999999995
 31
0.0
  0
TEXT
  5
15B
330
1E
100
AcDbEntity
  8
BEM
100
AcDbText
 10
583.8320989200114
 20
837.3022923857165
 30
0.0
 40
4.0
  1
Diese Zeichnung ist urheberrechtlich geschützt und bleibt unser Eigentum. Sie darf weder ganz noch teilweise verfielfältigt und nicht an Dritte weitergegeben werden.
 50
180.0
 41
0.8
  7
GREEKS
100
AcDbText
  0
LINE
  5
19C
330
1E
100
AcDbEntity
  8
BEM
100
AcDbLine
 10
0.0
 20
455.9999999999999
 30
0.0
 11
10.0
 21
455.9999999999999
 31
0.0
  0
TEXT
  5
6FCC
330
1E
100
AcDbEntity
  8
TEXT
 62
     1
100
AcDbText
 10
50.26766494769725
 20
196.1490805601157
 30
0.0
 40
7.0
  1
Aufsatzelement
 41
0.8
  7
GREEKS
100
AcDbText
  0
LINE
  5
6FCD
330
1E
100
AcDbEntity
  8
TEXT
 62
     2
100
AcDbLine
 10
50.00228781007331
 20
192.8132322792317
 30
0.0
 11
152.8427263803455
 21
192.8132322792317
 31
0.0
  0
LINE
  5
6FCF
330
1E
100
AcDbEntity
  8
TEXT
 62
     2
100
AcDbLine
 10
152.8427263803455
 20
192.8132322792317
 30
0.0
 11
213.8445776445205
 21
206.2386744303978
 31
0.0
  0
LINE
  5
6FD0
330
1E
100
AcDbEntity
  8
TEXT
 62
     2
100
AcDbLine
 10
152.8427263803455
 20
398.610808584816
 30
0.0
 11
214.7948072495351
 21
417.4941898005758
 31
0.0
  0
LINE
  5
6FD2
330
1E
100
AcDbEntity
  8
TEXT
 62
     2
100
AcDbLine
 10
50.00228781007331
 20
398.610808584816
 30
0.0
 11
152.8427263803455
 21
398.610808584816
 31
0.0
  0
TEXT
  5
6FD3
330
1E
100
AcDbEntity
  8
TEXT
 62
     1
100
AcDbText
 10
50.26766494769725
 20
401.9466568657001
 30
0.0
 40
7.0
  1
Siebaufnahme quadr.
 41
0.8
  7
GREEKS
100
AcDbText
  0
LINE
  5
6FD4
330
1E
100
AcDbEntity
  8
TEXT
 62
     2
100
AcDbLine
 10
152.8427263803455
 20
139.0195809167392
 30
0.0
 11
209.4322646085266
 21
120.5537606931884
 31
0.0
  0
LINE
  5
6FD6
330
1E
100
AcDbEntity
  8
TEXT
 62
     2
100
AcDbLine
 10
50.00228781007331
 20
139.0195809167392
 30
0.0
 11
152.8427263803455
 21
139.0195809167392
 31
0.0
  0
TEXT
  5
6FD7
330
1E
100
AcDbEntity
  8
TEXT
 62
     1
100
AcDbText
 10
50.26766494769725
 20
142.3554291976232
 30
0.0
 40
7.0
  1
Dichtelement DN100
 41
0.8
  7
GREEKS
100
AcDbText
  0
HATCH
  5
7019
330
1E
100
AcDbEntity
  8
SCHRAFF
100
AcDbHatch
 10
0.0
 20
0.0
 30
0.0
210
0.0
220
0.0
230
1.0
  2
_USER
 70
     0
 71
     0
 91
        2
 92
        7
 72
     1
 73
     1
 93
       14
 10
316.1199172372367
 20
228.5322233716464
 42
-0.1316524975873946
 10
316.32087913156
 20
229.2822233716464
 42
0.0
 10
324.7179934485901
 20
243.8264520057064
 42
0.1316524975873977
 10
325.1199172372368
 20
245.3264520057063
 42
0.0
 10
325.1199172372368
 20
254.9245282170597
 42
0.0
 10
323.6199172372368
 20
254.9245282170597
 42
0.0
 10
323.6199172372368
 20
245.3264520057063
 42
-0.1316524975873942
 10
323.4189553429134
 20
244.5764520057064
 42
0.0
 10
315.0218410258834
 20
230.0322233716463
 42
0.1316524975874043
 10
314.6199172372368
 20
228.5322233716462
 42
0.0
 10
314.6199172372368
 20
191.9900196314241
 42
0.0
 10
314.0017668362401
 20
184.9245282170597
 42
0.0
 10
315.5074965925552
 20
184.9245282170597
 42
0.0
 10
316.1199172372368
 20
191.92452821706
 42
0.0
 97
        0
 92
        7
 72
     1
 73
     1
 93
       14
 10
214.6199172372368
 20
228.5322233716463
 42
0.1316524975873924
 10
214.2179934485901
 20
230.0322233716463
 42
0.0
 10
205.82087913156
 20
244.5764520057062
 42
-0.1316524975873951
 10
205.6199172372367
 20
245.3264520057063
 42
0.0
 10
205.6199172372367
 20
254.9245282170596
 42
0.0
 10
204.1199172372367
 20
254.9245282170596
 42
0.0
 10
204.1199172372367
 20
245.3264520057063
 42
0.131652497587395
 10
204.5218410258834
 20
243.8264520057062
 42
0.0
 10
212.9189553429135
 20
229.2822233716463
 42
-0.131652497587385
 10
213.1199172372368
 20
228.5322233716463
 42
0.0
 10
213.1199172372368
 20
191.9245282170597
 42
0.0
 10
213.7323378819183
 20
184.9245282170596
 42
0.0
 10
215.2380676382332
 20
184.9245282170596
 42
0.0
 10
214.6199172372368
 20
191.9900196314227
 42
0.0
 97
        0
 75
     0
 76
     0
 52
45.0
 41
2.0
 77
     0
 78
     1
 53
45.0
 43
152.1199172372368
 44
38.14309622003469
 45
-1.414213562373094
 46
1.414213562373095
 79
     0
 47
0.2225009700579708
 98
        2
 10
315.4007155951319
 20
218.0644048344732
 10
213.4586651507893
 20
212.9468827839707
  0
LINE
  5
701A
330
1E
100
AcDbEntity
  8
STEMPEL
100
AcDbLine
 10
316.1199172372368
 20
191.9245282170597
 30
0.0
 11
315.5074965925552
 21
184.9245282170597
 31
0.0
  0
LINE
  5
701B
330
1E
100
AcDbEntity
  8
STEMPEL
100
AcDbLine
 10
314.6199172372368
 20
191.9900196314242
 30
0.0
 11
314.0017668362402
 21
184.9245282170597
 31
0.0
  0
LINE
  5
701C
330
1E
100
AcDbEntity
  8
STEMPEL
100
AcDbLine
 10
214.6199172372368
 20
191.9900196314228
 30
0.0
 11
215.2380676382332
 21
184.9245282170596
 31
0.0
  0
LINE
  5
701D
330
1E
100
AcDbEntity
  8
STEMPEL
100
AcDbLine
 10
213.1199172372368
 20
191.9245282170596
 30
0.0
 11
213.7323378819183
 21
184.9245282170596
 31
0.0
  0
LINE
  5
701E
330
1E
100
AcDbEntity
  8
HILF
100
AcDbLine
 10
313.1084577246066
 20
191.9245282170597
 30
0.0
 11
216.1313767498667
 21
191.9245282170597
 31
0.0
  0
LINE
  5
701F
330
1E
100
AcDbEntity
  8
HILF
100
AcDbLine
 10
322.0650668032403
 20
244.9245282170598
 30
0.0
 11
207.1747676712332
 21
244.9245282170597
 31
0.0
  0
LINE
  5
7020
330
1E
100
AcDbEntity
  8
STEMPEL
100
AcDbLine
 10
325.1199172372368
 20
254.9245282170597
 30
0.0
 11
325.1199172372368
 21
245.3264520057063
 31
0.0
  0
LINE
  5
7021
330
1E
100
AcDbEntity
  8
STEMPEL
100
AcDbLine
 10
323.6199172372368
 20
254.9245282170597
 30
0.0
 11
323.6199172372368
 21
245.3264520057063
 31
0.0
  0
LINE
  5
7022
330
1E
100
AcDbEntity
  8
STEMPEL
100
AcDbLine
 10
314.6199172372368
 20
228.5322233716464
 30
0.0
 11
314.6199172372368
 21
191.9900196314242
 31
0.0
  0
LINE
  5
7023
330
1E
100
AcDbEntity
  8
STEMPEL
100
AcDbLine
 10
316.1199172372367
 20
228.5322233716464
 30
0.0
 11
316.1199172372368
 21
191.9245282170598
 31
0.0
  0
LINE
  5
7024
330
1E
100
AcDbEntity
  8
STEMPEL
100
AcDbLine
 10
323.4189553429134
 20
244.5764520057064
 30
0.0
 11
315.0218410258834
 21
230.0322233716463
 31
0.0
  0
LINE
  5
7025
330
1E
100
AcDbEntity
  8
STEMPEL
100
AcDbLine
 10
324.7179934485901
 20
243.8264520057064
 30
0.0
 11
316.32087913156
 21
229.2822233716464
 31
0.0
  0
ARC
  5
7026
330
1E
100
AcDbEntity
  8
STEMPEL
100
AcDbCircle
 10
322.1199172372368
 20
245.3264520057063
 30
0.0
 40
1.5
100
AcDbArc
 50
329.9999999999995
 51
0.0
  0
ARC
  5
7027
330
1E
100
AcDbEntity
  8
STEMPEL
100
AcDbCircle
 10
322.1199172372368
 20
245.3264520057063
 30
0.0
 40
3.0
100
AcDbArc
 50
329.9999999999995
 51
0.0
  0
LINE
  5
7028
330
1E
100
AcDbEntity
  8
STEMPEL
100
AcDbLine
 10
325.0650668032402
 20
244.9245282170598
 30
0.0
 11
325.1199172372368
 21
244.9245282170597
 31
0.0
  0
ARC
  5
7029
330
1E
100
AcDbEntity
  8
STEMPEL
100
AcDbCircle
 10
317.6199172372367
 20
228.5322233716464
 30
0.0
 40
1.5
100
AcDbArc
 50
149.9999999999994
 51
180.0
  0
ARC
  5
702A
330
1E
100
AcDbEntity
  8
STEMPEL
100
AcDbCircle
 10
317.6199172372367
 20
228.5322233716464
 30
0.0
 40
3.0
100
AcDbArc
 50
149.9999999999994
 51
180.0
  0
LINE
  5
702B
330
1E
100
AcDbEntity
  8
HILF
100
AcDbLine
 10
216.103139134406
 20
228.9204519393001
 30
0.0
 11
313.1366953400674
 21
228.9204519393
 31
0.0
  0
ARC
  5
702C
330
1E
100
AcDbEntity
  8
STEMPEL
100
AcDbCircle
 10
211.6199172372368
 20
228.5322233716463
 30
0.0
 40
3.0
100
AcDbArc
 50
0.0
 51
30.00000000000055
  0
ARC
  5
702D
330
1E
100
AcDbEntity
  8
STEMPEL
100
AcDbCircle
 10
211.6199172372368
 20
228.5322233716463
 30
0.0
 40
1.5
100
AcDbArc
 50
0.0
 51
30.00000000000055
  0
LINE
  5
702E
330
1E
100
AcDbEntity
  8
STEMPEL
100
AcDbLine
 10
204.1747676712332
 20
244.9245282170597
 30
0.0
 11
204.1199172372367
 21
244.9245282170596
 31
0.0
  0
ARC
  5
702F
330
1E
100
AcDbEntity
  8
STEMPEL
100
AcDbCircle
 10
207.1199172372367
 20
245.3264520057063
 30
0.0
 40
3.0
100
AcDbArc
 50
180.0
 51
210.0000000000005
  0
ARC
  5
7030
330
1E
100
AcDbEntity
  8
STEMPEL
100
AcDbCircle
 10
207.1199172372367
 20
245.3264520057063
 30
0.0
 40
1.5
100
AcDbArc
 50
180.0
 51
210.0000000000005
  0
LINE
  5
7031
330
1E
100
AcDbEntity
  8
STEMPEL
100
AcDbLine
 10
204.5218410258834
 20
243.8264520057062
 30
0.0
 11
212.9189553429135
 21
229.2822233716463
 31
0.0
  0
LINE
  5
7032
330
1E
100
AcDbEntity
  8
STEMPEL
100
AcDbLine
 10
205.82087913156
 20
244.5764520057062
 30
0.0
 11
214.2179934485901
 21
230.0322233716463
 31
0.0
  0
LINE
  5
7033
330
1E
100
AcDbEntity
  8
STEMPEL
100
AcDbLine
 10
213.1199172372368
 20
228.5322233716463
 30
0.0
 11
213.1199172372368
 21
191.9245282170596
 31
0.0
  0
LINE
  5
7034
330
1E
100
AcDbEntity
  8
STEMPEL
100
AcDbLine
 10
214.6199172372368
 20
228.5322233716463
 30
0.0
 11
214.6199172372368
 21
191.9900196314228
 31
0.0
  0
LINE
  5
7035
330
1E
100
AcDbEntity
  8
STEMPEL
100
AcDbLine
 10
315.5074965925552
 20
184.9245282170597
 30
0.0
 11
213.7323378819183
 21
184.9245282170596
 31
0.0
  0
LINE
  5
7036
330
1E
100
AcDbEntity
  8
STEMPEL
100
AcDbLine
 10
205.6199172372367
 20
254.9245282170596
 30
0.0
 11
205.6199172372367
 21
245.3264520057063
 31
0.0
  0
LINE
  5
7037
330
1E
100
AcDbEntity
  8
STEMPEL
100
AcDbLine
 10
204.1199172372367
 20
254.9245282170596
 30
0.0
 11
204.1199172372367
 21
245.3264520057063
 31
0.0
  0
LINE
  5
7038
330
1E
100
AcDbEntity
  8
STEMPEL
100
AcDbLine
 10
325.1199172372367
 20
254.9245282170597
 30
0.0
 11
204.1199172372367
 21
254.9245282170596
 31
0.0
  0
LINE
  5
7039
330
1E
100
AcDbEntity
  8
STEMPEL
100
AcDbLine
 10
325.1199172372367
 20
244.9245282170597
 30
0.0
 11
325.0650668032402
 21
244.9245282170598
 31
0.0
  0
TEXT
  5
703A
330
1E
100
AcDbEntity
  8
TEXT
 62
     1
100
AcDbText
 10
260.1195990232737
 20
197.3886835716605
 30
0.0
 40
7.0
  1
DN100
 50
90.0
 41
0.8
  7
GREEKS
100
AcDbText
  0
LINE
  5
703B
330
1E
100
AcDbEntity
  8
MITTEL
100
AcDbLine
 10
264.6199172372368
 20
259.9245282170596
 30
0.0
 11
264.6199172372368
 21
179.9245282170598
 31
0.0
  0
POINT
  5
70CA
330
1E
100
AcDbEntity
  8
DEFPOINTS
  6
ByBlock
 62
     0
100
AcDbPoint
 10
324.3699172372367
 20
117.9247609890381
 30
0.0
  0
LINE
  5
70CB
330
1E
100
AcDbEntity
  8
STEMPEL
100
AcDbLine
 10
324.3699172372367
 20
117.9832817325788
 30
0.0
 11
324.3699172372367
 21
117.9247609890381
 31
0.0
  0
LINE
  5
70CC
330
1E
100
AcDbEntity
  8
STEMPEL
100
AcDbLine
 10
320.2624356426305
 20
117.9247609890381
 30
0.0
 11
324.3699172372367
 21
117.9247609890381
 31
0.0
  0
ARC
  5
70CD
330
1E
100
AcDbEntity
  8
STEMPEL
100
AcDbCircle
 10
320.3699172372367
 20
117.9832817325788
 30
0.0
 40
4.0
100
AcDbArc
 50
0.0
 51
31.85429407935252
  0
LINE
  5
70CE
330
1E
100
AcDbEntity
  8
STEMPEL
100
AcDbLine
 10
323.7674890878626
 20
120.0943254364929
 30
0.0
 11
321.2062821562629
 21
124.216402378006
 31
0.0
  0
LINE
  5
70CF
330
1E
100
AcDbEntity
  8
STEMPEL
100
AcDbLine
 10
324.3699172372367
 20
107.4247609890382
 30
0.0
 11
324.3699172372367
 21
106.4247609890382
 31
0.0
  0
LINE
  5
70D0
330
1E
100
AcDbEntity
  8
STEMPEL
100
AcDbLine
 10
324.3699172372367
 20
107.4247609890382
 30
0.0
 11
322.1242479035743
 21
109.6704303227006
 31
0.0
  0
LINE
  5
70D1
330
1E
100
AcDbEntity
  8
STEMPEL
100
AcDbLine
 10
322.3699172372367
 20
104.4247609890382
 30
0.0
 11
322.3699172372367
 21
103.8218753060681
 31
0.0
  0
LINE
  5
70D2
330
1E
100
AcDbEntity
  8
STEMPEL
100
AcDbLine
 10
322.6199172372367
 20
99.9247609890382
 30
0.0
 11
321.2195021608173
 21
101.9247609890382
 31
0.0
  0
LINE
  5
70D3
330
1E
100
AcDbEntity
  8
STEMPEL
100
AcDbLine
 10
324.6199172372367
 20
99.9247609890382
 30
0.0
 11
322.3699172372367
 21
103.8218753060681
 31
0.0
  0
LINE
  5
70D4
330
1E
100
AcDbEntity
  8
STEMPEL
100
AcDbLine
 10
324.3699172372367
 20
106.4247609890382
 30
0.0
 11
322.3699172372367
 21
104.4247609890382
 31
0.0
  0
POINT
  5
70D5
330
1E
100
AcDbEntity
  8
DEFPOINTS
  6
ByBlock
 62
     0
100
AcDbPoint
 10
317.1199172372368
 20
118.7247609890381
 30
0.0
  0
LINE
  5
70D6
330
1E
100
AcDbEntity
  8
STEMPEL
100
AcDbLine
 10
317.1199172372368
 20
118.7247609890381
 30
0.0
 11
318.4833039728446
 21
123.8129895566919
 31
0.0
  0
LINE
  5
70D7
330
1E
100
AcDbEntity
  8
STEMPEL
100
AcDbLine
 10
312.1199172372367
 20
99.42476098903819
 30
0.0
 11
312.1199172372367
 21
97.92476098903819
 31
0.0
  0
ARC
  5
70D8
330
1E
100
AcDbEntity
  8
STEMPEL
100
AcDbCircle
 10
312.1199172372367
 20
104.4247609890382
 30
0.0
 40
5.0
100
AcDbArc
 50
270.0
 51
0.0
  0
ARC
  5
70D9
330
1E
100
AcDbEntity
  8
STEMPEL
100
AcDbCircle
 10
314.1199172372367
 20
102.9247609890382
 30
0.0
 40
5.0
100
AcDbArc
 50
270.0
 51
348.4630409671834
  0
LINE
  5
70DA
330
1E
100
AcDbEntity
  8
STEMPEL
100
AcDbLine
 10
317.1199172372368
 20
118.7247609890381
 30
0.0
 11
317.1199172372368
 21
104.4247609890382
 31
0.0
  0
LINE
  5
70DB
330
1E
100
AcDbEntity
  8
STEMPEL
100
AcDbLine
 10
319.0188967228028
 20
101.9247609890382
 30
0.0
 11
321.2195021608173
 21
101.9247609890382
 31
0.0
  0
LINE
  5
70DC
330
1E
100
AcDbEntity
  8
STEMPEL
100
AcDbLine
 10
318.1199172372368
 20
99.9247609890382
 30
0.0
 11
324.6199172372367
 21
99.9247609890382
 31
0.0
  0
ARC
  5
70DD
330
1E
100
AcDbEntity
  8
STEMPEL
100
AcDbCircle
 10
320.2624356426305
 20
117.1247609890381
 30
0.0
 40
0.8
100
AcDbArc
 50
90.0
 51
199.9999999999995
  0
LINE
  5
70DE
330
1E
100
AcDbEntity
  8
STEMPEL
100
AcDbLine
 10
319.5106815460017
 20
116.8511448743776
 30
0.0
 11
322.1242479035743
 21
109.6704303227006
 31
0.0
  0
ARC
  5
70DF
330
1E
100
AcDbEntity
  8
STEMPEL
100
AcDbCircle
 10
319.9321927122782
 20
123.4247609890382
 30
0.0
 40
1.5
100
AcDbArc
 50
31.85429407935252
 51
165.0000000000008
  0
LINE
  5
70E0
330
1E
100
AcDbEntity
  8
STEMPEL
100
AcDbLine
 10
217.1199172372368
 20
99.42476098903819
 30
0.0
 11
312.1199172372367
 21
99.42476098903819
 31
0.0
  0
LINE
  5
70E1
330
1E
100
AcDbEntity
  8
STEMPEL
100
AcDbLine
 10
215.1199172372368
 20
97.92476098903819
 30
0.0
 11
314.1199172372367
 21
97.92476098903819
 31
0.0
  0
LINE
  5
70E2
330
1E
100
AcDbEntity
  8
STEMPEL
100
AcDbLine
 10
212.1199172372367
 20
118.7247609890382
 30
0.0
 11
317.1199172372368
 21
118.7247609890381
 31
0.0
  0
LINE
  5
70E3
330
1E
100
AcDbEntity
  8
STEMPEL
100
AcDbLine
 10
209.3076417621954
 20
124.9247609890382
 30
0.0
 11
319.9321927122782
 21
124.9247609890382
 31
0.0
  0
LINE
  5
70E4
330
1E
100
AcDbEntity
  8
MITTEL
100
AcDbLine
 10
264.6199172372367
 20
129.9247609890382
 30
0.0
 11
264.6199172372367
 21
92.92476098903819
 31
0.0
  0
ARC
  5
70E5
330
1E
100
AcDbEntity
  8
STEMPEL
100
AcDbCircle
 10
209.3076417621954
 20
123.4247609890382
 30
0.0
 40
1.5
100
AcDbArc
 50
14.99999999999917
 51
148.1457059206474
  0
POINT
  5
70E6
330
1E
100
AcDbEntity
  8
DEFPOINTS
  6
ByBlock
 62
     0
100
AcDbPoint
 10
212.1199172372367
 20
118.7247609890381
 30
0.0
  0
LINE
  5
70E7
330
1E
100
AcDbEntity
  8
STEMPEL
100
AcDbLine
 10
212.1199172372367
 20
118.7247609890381
 30
0.0
 11
210.756530501629
 21
123.8129895566919
 31
0.0
  0
LINE
  5
70E8
330
1E
100
AcDbEntity
  8
STEMPEL
100
AcDbLine
 10
205.472345386611
 20
120.0943254364929
 30
0.0
 11
208.0335523182107
 21
124.216402378006
 31
0.0
  0
LINE
  5
70E9
330
1E
100
AcDbEntity
  8
STEMPEL
100
AcDbLine
 10
209.7291529284718
 20
116.8511448743776
 30
0.0
 11
207.1155865708992
 21
109.6704303227006
 31
0.0
  0
ARC
  5
70EA
330
1E
100
AcDbEntity
  8
STEMPEL
100
AcDbCircle
 10
208.9773988318431
 20
117.1247609890381
 30
0.0
 40
0.8
100
AcDbArc
 50
340.0000000000005
 51
90.0
  0
POINT
  5
70EB
330
1E
100
AcDbEntity
  8
DEFPOINTS
  6
ByBlock
 62
     0
100
AcDbPoint
 10
204.8699172372367
 20
117.9247609890381
 30
0.0
  0
LINE
  5
70EC
330
1E
100
AcDbEntity
  8
STEMPEL
100
AcDbLine
 10
204.8699172372367
 20
117.9832817325788
 30
0.0
 11
204.8699172372367
 21
117.9247609890381
 31
0.0
  0
LINE
  5
70ED
330
1E
100
AcDbEntity
  8
STEMPEL
100
AcDbLine
 10
204.8699172372367
 20
107.4247609890382
 30
0.0
 11
204.8699172372367
 21
106.4247609890382
 31
0.0
  0
LINE
  5
70EE
330
1E
100
AcDbEntity
  8
STEMPEL
100
AcDbLine
 10
204.8699172372367
 20
107.4247609890382
 30
0.0
 11
207.1155865708992
 21
109.6704303227006
 31
0.0
  0
ARC
  5
70EF
330
1E
100
AcDbEntity
  8
STEMPEL
100
AcDbCircle
 10
208.8699172372368
 20
117.9832817325788
 30
0.0
 40
4.0
100
AcDbArc
 50
148.1457059206474
 51
180.0
  0
LINE
  5
70F0
330
1E
100
AcDbEntity
  8
STEMPEL
100
AcDbLine
 10
208.9773988318431
 20
117.9247609890381
 30
0.0
 11
204.8699172372367
 21
117.9247609890381
 31
0.0
  0
LINE
  5
70F1
330
1E
100
AcDbEntity
  8
STEMPEL
100
AcDbLine
 10
217.1199172372368
 20
99.42476098903819
 30
0.0
 11
217.1199172372368
 21
97.92476098903819
 31
0.0
  0
LINE
  5
70F2
330
1E
100
AcDbEntity
  8
STEMPEL
100
AcDbLine
 10
206.8699172372368
 20
104.4247609890382
 30
0.0
 11
206.8699172372368
 21
103.8218753060681
 31
0.0
  0
LINE
  5
70F3
330
1E
100
AcDbEntity
  8
STEMPEL
100
AcDbLine
 10
206.6199172372367
 20
99.9247609890382
 30
0.0
 11
208.0203323136562
 21
101.9247609890382
 31
0.0
  0
LINE
  5
70F4
330
1E
100
AcDbEntity
  8
STEMPEL
100
AcDbLine
 10
210.2209377516707
 20
101.9247609890382
 30
0.0
 11
208.0203323136562
 21
101.9247609890382
 31
0.0
  0
ARC
  5
70F5
330
1E
100
AcDbEntity
  8
STEMPEL
100
AcDbCircle
 10
217.1199172372368
 20
104.4247609890382
 30
0.0
 40
5.0
100
AcDbArc
 50
180.0
 51
270.0
  0
ARC
  5
70F6
330
1E
100
AcDbEntity
  8
STEMPEL
100
AcDbCircle
 10
215.1199172372368
 20
102.9247609890382
 30
0.0
 40
5.0
100
AcDbArc
 50
191.5369590328165
 51
270.0
  0
LINE
  5
70F7
330
1E
100
AcDbEntity
  8
STEMPEL
100
AcDbLine
 10
211.1199172372367
 20
99.9247609890382
 30
0.0
 11
204.6199172372368
 21
99.9247609890382
 31
0.0
  0
LINE
  5
70F8
330
1E
100
AcDbEntity
  8
STEMPEL
100
AcDbLine
 10
204.6199172372368
 20
99.9247609890382
 30
0.0
 11
206.8699172372368
 21
103.8218753060681
 31
0.0
  0
LINE
  5
70F9
330
1E
100
AcDbEntity
  8
STEMPEL
100
AcDbLine
 10
204.8699172372367
 20
106.4247609890382
 30
0.0
 11
206.8699172372368
 21
104.4247609890382
 31
0.0
  0
LINE
  5
70FA
330
1E
100
AcDbEntity
  8
STEMPEL
100
AcDbLine
 10
212.1199172372367
 20
118.7247609890381
 30
0.0
 11
212.1199172372367
 21
104.4247609890382
 31
0.0
  0
INSERT
  5
70FB
330
1E
100
AcDbEntity
  8
SCHRAFF
100
AcDbBlockReference
  2
*X2
 10
149.2326346962697
 20
-74.73236644031032
 30
0.0
1001
ACAD
1000
HATCH
1002
{
1070
    16
1000
NET,I
1040
10.0
1040
0.7853981633974483
1002
}
  0
LINE
  5
7134
330
1E
100
AcDbEntity
  8
TEXT
 62
     2
100
AcDbLine
 10
152.8427263803455
 20
305.4906956586201
 30
0.0
 11
213.8445776445205
 21
318.9161378097863
 31
0.0
  0
LINE
  5
7136
330
1E
100
AcDbEntity
  8
TEXT
 62
     2
100
AcDbLine
 10
50.00228781007331
 20
305.4906956586201
 30
0.0
 11
152.8427263803455
 21
305.4906956586201
 31
0.0
  0
TEXT
  5
7137
330
1E
100
AcDbEntity
  8
TEXT
 62
     1
100
AcDbText
 10
50.26766494769725
 20
308.8265439395042
 30
0.0
 40
7.0
  1
Aufnahmering
 41
0.8
  7
GREEKS
100
AcDbText
  0
TEXT
  5
71E0
330
1E
100
AcDbEntity
  8
TEXT
100
AcDbText
 10
531.8997861689247
 20
654.3410940884991
 30
0.0
 40
5.0
  1
weiterführender Ablauf
 50
90.0
 41
0.8
  7
GREEKS
100
AcDbText
  0
LINE
  5
7212
330
1E
100
AcDbEntity
  8
STEMPEL
100
AcDbLine
 10
223.991063443576
 20
323.9245282170596
 30
0.0
 11
223.991063443576
 21
333.9245282170596
 31
0.0
  0
LINE
  5
7213
330
1E
100
AcDbEntity
  8
STEMPEL
100
AcDbLine
 10
222.1864400051978
 20
333.9245282170595
 30
0.0
 11
222.1864400051978
 21
343.9245282170596
 31
0.0
  0
LINE
  5
7214
330
1E
100
AcDbEntity
  8
STEMPEL
100
AcDbLine
 10
236.3285756289287
 20
333.9245282170596
 30
0.0
 11
236.3285756289287
 21
343.9245282170596
 31
0.0
  0
LINE
  5
7215
330
1E
100
AcDbEntity
  8
STEMPEL
100
AcDbLine
 10
238.133199067307
 20
323.9245282170596
 30
0.0
 11
238.133199067307
 21
333.9245282170595
 31
0.0
  0
LINE
  5
7216
330
1E
100
AcDbEntity
  8
STEMPEL
100
AcDbLine
 10
217.1508296719233
 20
323.9245282170596
 30
0.0
 11
217.1508296719234
 21
343.9245282170596
 31
0.0
  0
LINE
  5
7217
330
1E
100
AcDbEntity
  8
STEMPEL
100
AcDbLine
 10
236.3285756289287
 20
343.9245282170596
 30
0.0
 11
217.1508296719234
 21
343.9245282170596
 31
0.0
  0
LINE
  5
7218
330
1E
100
AcDbEntity
  8
STEMPEL
100
AcDbLine
 10
238.133199067307
 20
333.9245282170595
 30
0.0
 11
222.1864400051978
 21
333.9245282170596
 31
0.0
  0
HATCH
  5
7219
330
1E
100
AcDbEntity
  8
SCHRAFF
100
AcDbHatch
 10
0.0
 20
0.0
 30
0.0
210
0.0
220
0.0
230
1.0
  2
NET
 70
     0
 71
     1
 91
        2
 92
        7
 72
     0
 73
     1
 93
       11
 10
322.6199172372372
 20
323.9245282170596
 10
322.6199172372373
 20
343.9245282170596
 10
315.6199172372372
 20
343.9245282170595
 10
315.6199172372372
 20
333.9245282170596
 10
313.1199172372372
 20
333.9245282170596
 10
313.1199172372372
 20
323.9245282170595
 10
312.1199172372372
 20
323.9245282170595
 10
312.1199172372371
 20
317.9245282170596
 10
320.6975830678484
 20
317.9245282170596
 10
323.6199172372372
 20
322.4245282170596
 10
323.6199172372372
 20
323.9245282170596
 97
       11
330
721F
330
721D
330
721E
330
7220
330
721A
330
722A
330
722D
330
7233
330
7236
330
7237
330
7221
 92
        7
 72
     1
 73
     1
 93
       11
 10
231.6199172372371
 20
317.9245282170597
 42
0.0
 10
232.619917237237
 20
317.9245282170597
 42
0.0
 10
232.619917237237
 20
323.9245282170596
 42
0.0
 10
205.6199172372372
 20
323.9245282170597
 42
0.0
 10
205.6199172372372
 20
322.4245282170596
 42
0.0
 10
208.5422514066259
 20
317.9245282170597
 42
0.0
 10
209.5399172372371
 20
317.9245282170596
 42
-0.4142135623730841
 10
211.0399172372372
 20
316.4245282170597
 42
0.4142135623730951
 10
212.5399172372371
 20
314.9245282170597
 42
0.0
 10
228.6199172372371
 20
314.9245282170597
 42
0.4142135623730951
 10
230.1199172372371
 20
316.4245282170597
 42
-0.4142135623730951
 97
       11
330
721A
330
7235
330
7234
330
7222
330
7225
330
7226
330
7228
330
7227
330
7223
330
722D
330
7229
 75
     0
 76
     1
 52
45.0
 41
20.0
 77
     0
 78
     2
 53
45.0
 43
136.3172826725246
 44
104.9161726914155
 45
-1.767766952966368
 46
1.767766952966368
 79
     0
 53
135.0
 43
136.3172826725246
 44
104.9161726914155
 45
-1.767766952966368
 46
-1.767766952966368
 79
     0
 47
0.2207576964306375
 98
        2
 10
319.3250407756031
 20
324.3490017571533
 10
227.4568487450753
 20
319.7130902242971
  0
LINE
  5
721A
102
{ACAD_REACTORS
330
7219
102
}
330
1E
100
AcDbEntity
  8
STEMPEL
100
AcDbLine
 10
313.1199172372372
 20
323.9245282170596
 30
0.0
 11
205.6199172372372
 21
323.9245282170596
 31
0.0
  0
LINE
  5
721B
330
1E
100
AcDbEntity
  8
STEMPEL
100
AcDbLine
 10
314.6299162374371
 20
333.9245282170596
 30
0.0
 11
314.6299162374372
 21
343.9245282170596
 31
0.0
  0
LINE
  5
721C
330
1E
100
AcDbEntity
  8
STEMPEL
100
AcDbLine
 10
312.0777932959063
 20
323.9245282170596
 30
0.0
 11
312.0777932959063
 21
333.9245282170596
 31
0.0
  0
LINE
  5
721D
102
{ACAD_REACTORS
330
7219
102
}
330
1E
100
AcDbEntity
  8
STEMPEL
100
AcDbLine
 10
315.6199172372372
 20
333.9245282170596
 30
0.0
 11
315.6199172372372
 21
343.9245282170596
 31
0.0
  0
LINE
  5
721E
102
{ACAD_REACTORS
330
7219
102
}
330
1E
100
AcDbEntity
  8
STEMPEL
100
AcDbLine
 10
315.6199172372372
 20
333.9245282170596
 30
0.0
 11
312.0777932959063
 21
333.9245282170596
 31
0.0
  0
LINE
  5
721F
102
{ACAD_REACTORS
330
7219
102
}
330
1E
100
AcDbEntity
  8
STEMPEL
100
AcDbLine
 10
322.6199172372373
 20
343.9245282170596
 30
0.0
 11
314.6299162374372
 21
343.9245282170596
 31
0.0
  0
LINE
  5
7220
102
{ACAD_REACTORS
330
7219
102
}
330
1E
100
AcDbEntity
  8
STEMPEL
100
AcDbLine
 10
313.1199172372371
 20
323.9245282170596
 30
0.0
 11
313.1199172372372
 21
333.9245282170596
 31
0.0
  0
LINE
  5
7221
102
{ACAD_REACTORS
330
7219
102
}
330
1E
100
AcDbEntity
  8
STEMPEL
100
AcDbLine
 10
322.6199172372372
 20
323.9245282170596
 30
0.0
 11
322.6199172372373
 21
343.9245282170596
 31
0.0
  0
LINE
  5
7222
102
{ACAD_REACTORS
330
7219
102
}
330
1E
100
AcDbEntity
  8
STEMPEL
100
AcDbLine
 10
209.5399172372371
 20
317.9245282170596
 30
0.0
 11
208.5422514066259
 21
317.9245282170597
 31
0.0
  0
ARC
  5
7223
102
{ACAD_REACTORS
330
7219
102
}
330
1E
100
AcDbEntity
  8
STEMPEL
100
AcDbCircle
 10
231.6199172372371
 20
316.4245282170596
 30
0.0
 40
1.5
100
AcDbArc
 50
90.0
 51
180.0
  0
LINE
  5
7224
330
1E
100
AcDbEntity
  8
STEMPEL
100
AcDbLine
 10
211.0399172372372
 20
316.4245282170597
 30
0.0
 11
211.0399172372372
 21
316.4245282170597
 31
0.0
  0
ARC
  5
7225
102
{ACAD_REACTORS
330
7219
102
}
330
1E
100
AcDbEntity
  8
STEMPEL
100
AcDbCircle
 10
209.5399172372371
 20
316.4245282170597
 30
0.0
 40
1.5
100
AcDbArc
 50
0.0
 51
90.0
  0
ARC
  5
7226
102
{ACAD_REACTORS
330
7219
102
}
330
1E
100
AcDbEntity
  8
STEMPEL
100
AcDbCircle
 10
212.5399172372371
 20
316.4245282170597
 30
0.0
 40
1.5
100
AcDbArc
 50
180.0
 51
270.0
  0
ARC
  5
7227
102
{ACAD_REACTORS
330
7219
102
}
330
1E
100
AcDbEntity
  8
STEMPEL
100
AcDbCircle
 10
228.6199172372371
 20
316.4245282170597
 30
0.0
 40
1.5
100
AcDbArc
 50
270.0
 51
0.0
  0
LINE
  5
7228
102
{ACAD_REACTORS
330
7219
102
}
330
1E
100
AcDbEntity
  8
STEMPEL
100
AcDbLine
 10
228.6199172372371
 20
314.9245282170597
 30
0.0
 11
212.5399172372371
 21
314.9245282170597
 31
0.0
  0
LINE
  5
7229
102
{ACAD_REACTORS
330
7219
102
}
330
1E
100
AcDbEntity
  8
STEMPEL
100
AcDbLine
 10
232.619917237237
 20
317.9245282170596
 30
0.0
 11
232.619917237237
 21
323.9245282170596
 31
0.0
  0
LINE
  5
722A
102
{ACAD_REACTORS
330
7219
102
}
330
1E
100
AcDbEntity
  8
STEMPEL
100
AcDbLine
 10
312.1199172372371
 20
317.9245282170596
 30
0.0
 11
312.1199172372372
 21
323.9245282170596
 31
0.0
  0
ARC
  5
722B
330
1E
100
AcDbEntity
  8
STEMPEL
100
AcDbCircle
 10
271.1199172372372
 20
316.4245282170595
 30
0.0
 40
1.5
100
AcDbArc
 50
90.0
 51
180.0
  0
ARC
  5
722C
330
1E
100
AcDbEntity
  8
STEMPEL
100
AcDbCircle
 10
258.1199172372372
 20
316.4245282170596
 30
0.0
 40
1.5
100
AcDbArc
 50
0.0
 51
90.0
  0
LINE
  5
722D
102
{ACAD_REACTORS
330
7219
102
}
330
1E
100
AcDbEntity
  8
STEMPEL
100
AcDbLine
 10
320.6975830678483
 20
317.9245282170596
 30
0.0
 11
231.6199172372371
 21
317.9245282170597
 31
0.0
  0
ARC
  5
722E
330
1E
100
AcDbEntity
  8
STEMPEL
100
AcDbCircle
 10
261.1199172372372
 20
316.4245282170597
 30
0.0
 40
1.5
100
AcDbArc
 50
180.0
 51
270.0
  0
ARC
  5
722F
330
1E
100
AcDbEntity
  8
STEMPEL
100
AcDbCircle
 10
268.1199172372372
 20
316.4245282170597
 30
0.0
 40
1.5
100
AcDbArc
 50
270.0
 51
0.0
  0
LINE
  5
7230
330
1E
100
AcDbEntity
  8
STEMPEL
100
AcDbLine
 10
259.6199172372372
 20
316.4245282170597
 30
0.0
 11
259.6199172372372
 21
316.4245282170597
 31
0.0
  0
LINE
  5
7231
330
1E
100
AcDbEntity
  8
STEMPEL
100
AcDbLine
 10
269.6199172372372
 20
316.4245282170595
 30
0.0
 11
269.6199172372372
 21
316.4245282170597
 31
0.0
  0
LINE
  5
7232
330
1E
100
AcDbEntity
  8
STEMPEL
100
AcDbLine
 10
268.1199172372372
 20
314.9245282170597
 30
0.0
 11
261.1199172372372
 21
314.9245282170597
 31
0.0
  0
LINE
  5
7233
102
{ACAD_REACTORS
330
7219
102
}
330
1E
100
AcDbEntity
  8
STEMPEL
100
AcDbLine
 10
323.6199172372372
 20
322.4245282170596
 30
0.0
 11
320.6975830678484
 21
317.9245282170596
 31
0.0
  0
LINE
  5
7234
102
{ACAD_REACTORS
330
7219
102
}
330
1E
100
AcDbEntity
  8
STEMPEL
100
AcDbLine
 10
205.6199172372372
 20
322.4245282170596
 30
0.0
 11
208.5422514066259
 21
317.9245282170597
 31
0.0
  0
LINE
  5
7235
102
{ACAD_REACTORS
330
7219
102
}
330
1E
100
AcDbEntity
  8
STEMPEL
100
AcDbLine
 10
205.6199172372372
 20
322.4245282170596
 30
0.0
 11
205.6199172372372
 21
323.9245282170596
 31
0.0
  0
LINE
  5
7236
102
{ACAD_REACTORS
330
7219
102
}
330
1E
100
AcDbEntity
  8
STEMPEL
100
AcDbLine
 10
323.6199172372372
 20
322.4245282170596
 30
0.0
 11
323.6199172372372
 21
323.9245282170596
 31
0.0
  0
LINE
  5
7237
102
{ACAD_REACTORS
330
7219
102
}
330
1E
100
AcDbEntity
  8
STEMPEL
100
AcDbLine
 10
323.6199172372372
 20
323.9245282170596
 30
0.0
 11
322.6199172372372
 21
323.9245282170596
 31
0.0
  0
LINE
  5
7238
330
1E
100
AcDbEntity
  8
MITTEL
100
AcDbLine
 10
264.6199172372372
 20
309.9245282170596
 30
0.0
 11
264.6199172372372
 21
328.9245282170596
 31
0.0
  0
LINE
  5
72A4
330
1E
100
AcDbEntity
  8
STEMPEL
100
AcDbLine
 10
217.7199172372369
 20
532.8245282170593
 30
0.0
 11
311.5199172372369
 21
532.8245282170594
 31
0.0
  0
LINE
  5
72A5
330
1E
100
AcDbEntity
  8
STEMPEL
100
AcDbLine
 10
193.1199172372369
 20
545.9245282170595
 30
0.0
 11
336.6199172372369
 21
545.9245282170595
 31
0.0
  0
LINE
  5
72A6
330
1E
100
AcDbEntity
  8
STEMPEL
100
AcDbLine
 10
213.6199172372369
 20
403.9245282170593
 30
0.0
 11
315.6199172372368
 21
403.9245282170594
 31
0.0
  0
LINE
  5
72A7
330
1E
100
AcDbEntity
  8
STEMPEL
100
AcDbLine
 10
189.6199172372367
 20
553.9245282170594
 30
0.0
 11
339.619917237237
 21
553.9245282170595
 31
0.0
  0
LINE
  5
72D8
330
1E
100
AcDbEntity
  8
STEMPEL
100
AcDbLine
 10
315.6199172372369
 20
522.9245282170594
 30
0.0
 11
315.6199172372369
 21
510.9245282170593
 31
0.0
  0
LINE
  5
72D9
330
1E
100
AcDbEntity
  8
MITTEL
100
AcDbLine
 10
264.6199172372369
 20
558.9245282170593
 30
0.0
 11
264.6199172372369
 21
398.9245282170594
 31
0.0
  0
LINE
  5
72DA
330
1E
100
AcDbEntity
  8
STEMPEL
100
AcDbLine
 10
311.5199172372369
 20
532.8245282170594
 30
0.0
 11
313.7698751064842
 21
403.9245282170595
 31
0.0
  0
LINE
  5
72DB
330
1E
100
AcDbEntity
  8
STEMPEL
100
AcDbLine
 10
315.1199172372368
 20
420.9245282170594
 30
0.0
 11
315.1199172372368
 21
417.9245282170594
 31
0.0
  0
LINE
  5
72DC
330
1E
100
AcDbEntity
  8
STEMPEL
100
AcDbLine
 10
315.6199172372368
 20
417.9245282170594
 30
0.0
 11
315.6199172372368
 21
403.9245282170594
 31
0.0
  0
POINT
  5
72DD
330
1E
100
AcDbEntity
  8
DEFPOINTS
  6
ByBlock
 62
     0
100
AcDbPoint
 10
313.7698751064842
 20
403.9245282170595
 30
0.0
  0
LINE
  5
72DE
330
1E
100
AcDbEntity
  8
STEMPEL
100
AcDbLine
 10
315.1199172372368
 20
417.9245282170594
 30
0.0
 11
315.6199172372368
 21
417.9245282170594
 31
0.0
  0
LINE
  5
72DF
330
1E
100
AcDbEntity
  8
STEMPEL
100
AcDbLine
 10
315.1199172372368
 20
465.9245282170594
 30
0.0
 11
315.1199172372368
 21
462.9245282170594
 31
0.0
  0
LINE
  5
72E0
330
1E
100
AcDbEntity
  8
STEMPEL
100
AcDbLine
 10
315.6199172372369
 20
447.9245282170594
 30
0.0
 11
315.6199172372368
 21
435.9245282170594
 31
0.0
  0
LINE
  5
72E1
330
1E
100
AcDbEntity
  8
STEMPEL
100
AcDbLine
 10
315.6199172372368
 20
432.9245282170594
 30
0.0
 11
315.6199172372368
 21
420.9245282170594
 31
0.0
  0
LINE
  5
72E2
330
1E
100
AcDbEntity
  8
STEMPEL
100
AcDbLine
 10
315.1199172372368
 20
420.9245282170594
 30
0.0
 11
315.6199172372368
 21
420.9245282170594
 31
0.0
  0
LINE
  5
72E3
330
1E
100
AcDbEntity
  8
STEMPEL
100
AcDbLine
 10
315.1199172372368
 20
432.9245282170594
 30
0.0
 11
315.6199172372368
 21
432.9245282170594
 31
0.0
  0
LINE
  5
72E4
330
1E
100
AcDbEntity
  8
STEMPEL
100
AcDbLine
 10
315.1199172372368
 20
435.9245282170594
 30
0.0
 11
315.6199172372368
 21
435.9245282170594
 31
0.0
  0
LINE
  5
72E5
330
1E
100
AcDbEntity
  8
STEMPEL
100
AcDbLine
 10
315.1199172372368
 20
435.9245282170594
 30
0.0
 11
315.1199172372368
 21
432.9245282170594
 31
0.0
  0
LINE
  5
72E6
330
1E
100
AcDbEntity
  8
STEMPEL
100
AcDbLine
 10
315.6199172372369
 20
462.9245282170595
 30
0.0
 11
315.6199172372369
 21
450.9245282170594
 31
0.0
  0
LINE
  5
72E7
330
1E
100
AcDbEntity
  8
STEMPEL
100
AcDbLine
 10
315.1199172372368
 20
450.9245282170594
 30
0.0
 11
315.6199172372368
 21
450.9245282170594
 31
0.0
  0
LINE
  5
72E8
330
1E
100
AcDbEntity
  8
STEMPEL
100
AcDbLine
 10
315.1199172372368
 20
447.9245282170594
 30
0.0
 11
315.6199172372368
 21
447.9245282170594
 31
0.0
  0
LINE
  5
72E9
330
1E
100
AcDbEntity
  8
STEMPEL
100
AcDbLine
 10
315.1199172372368
 20
450.9245282170594
 30
0.0
 11
315.1199172372368
 21
447.9245282170594
 31
0.0
  0
LINE
  5
72EA
330
1E
100
AcDbEntity
  8
STEMPEL
100
AcDbLine
 10
315.1199172372368
 20
462.9245282170594
 30
0.0
 11
315.6199172372368
 21
462.9245282170594
 31
0.0
  0
LINE
  5
72EB
330
1E
100
AcDbEntity
  8
STEMPEL
100
AcDbLine
 10
315.6199172372369
 20
492.9245282170596
 30
0.0
 11
315.6199172372369
 21
480.9245282170594
 31
0.0
  0
LINE
  5
72EC
330
1E
100
AcDbEntity
  8
STEMPEL
100
AcDbLine
 10
315.6199172372369
 20
477.9245282170594
 30
0.0
 11
315.6199172372369
 21
465.9245282170594
 31
0.0
  0
LINE
  5
72ED
330
1E
100
AcDbEntity
  8
STEMPEL
100
AcDbLine
 10
315.1199172372368
 20
465.9245282170594
 30
0.0
 11
315.6199172372368
 21
465.9245282170594
 31
0.0
  0
LINE
  5
72EE
330
1E
100
AcDbEntity
  8
STEMPEL
100
AcDbLine
 10
315.1199172372368
 20
477.9245282170593
 30
0.0
 11
315.6199172372368
 21
477.9245282170594
 31
0.0
  0
LINE
  5
72EF
330
1E
100
AcDbEntity
  8
STEMPEL
100
AcDbLine
 10
315.1199172372369
 20
480.9245282170594
 30
0.0
 11
315.6199172372368
 21
480.9245282170594
 31
0.0
  0
LINE
  5
72F0
330
1E
100
AcDbEntity
  8
STEMPEL
100
AcDbLine
 10
315.1199172372369
 20
480.9245282170595
 30
0.0
 11
315.1199172372368
 21
477.9245282170593
 31
0.0
  0
LINE
  5
72F1
330
1E
100
AcDbEntity
  8
STEMPEL
100
AcDbLine
 10
315.6199172372369
 20
507.9245282170594
 30
0.0
 11
315.6199172372369
 21
495.9245282170594
 31
0.0
  0
LINE
  5
72F2
330
1E
100
AcDbEntity
  8
STEMPEL
100
AcDbLine
 10
315.1199172372368
 20
495.9245282170594
 30
0.0
 11
315.6199172372368
 21
495.9245282170594
 31
0.0
  0
LINE
  5
72F3
330
1E
100
AcDbEntity
  8
STEMPEL
100
AcDbLine
 10
315.1199172372368
 20
492.9245282170596
 30
0.0
 11
315.6199172372368
 21
492.9245282170594
 31
0.0
  0
LINE
  5
72F4
330
1E
100
AcDbEntity
  8
STEMPEL
100
AcDbLine
 10
315.1199172372368
 20
495.9245282170594
 30
0.0
 11
315.1199172372368
 21
492.9245282170594
 31
0.0
  0
LINE
  5
72F5
330
1E
100
AcDbEntity
  8
STEMPEL
100
AcDbLine
 10
315.1199172372368
 20
510.9245282170594
 30
0.0
 11
315.6199172372368
 21
510.9245282170594
 31
0.0
  0
LINE
  5
72F6
330
1E
100
AcDbEntity
  8
STEMPEL
100
AcDbLine
 10
315.1199172372368
 20
507.9245282170594
 30
0.0
 11
315.6199172372368
 21
507.9245282170594
 31
0.0
  0
LINE
  5
72F7
330
1E
100
AcDbEntity
  8
STEMPEL
100
AcDbLine
 10
315.1199172372368
 20
510.9245282170594
 30
0.0
 11
315.1199172372368
 21
507.9245282170594
 31
0.0
  0
LINE
  5
72F8
330
1E
100
AcDbEntity
  8
STEMPEL
100
AcDbLine
 10
325.1199172372368
 20
542.9245282170596
 30
0.0
 11
339.6199172372369
 21
542.9245282170596
 31
0.0
  0
LINE
  5
72F9
330
1E
100
AcDbEntity
  8
STEMPEL
100
AcDbLine
 10
324.6199172372369
 20
545.9245282170595
 30
0.0
 11
311.5199172372369
 21
532.8245282170594
 31
0.0
  0
LINE
  5
72FA
330
1E
100
AcDbEntity
  8
STEMPEL
100
AcDbLine
 10
325.1199172372369
 20
542.9245282170596
 30
0.0
 11
315.6199172372369
 21
533.4245282170594
 31
0.0
  0
LINE
  5
72FB
330
1E
100
AcDbEntity
  8
STEMPEL
100
AcDbLine
 10
315.1199172372368
 20
525.9245282170594
 30
0.0
 11
315.1199172372368
 21
522.9245282170594
 31
0.0
  0
LINE
  5
72FC
330
1E
100
AcDbEntity
  8
STEMPEL
100
AcDbLine
 10
315.1199172372368
 20
522.9245282170594
 30
0.0
 11
315.6199172372368
 21
522.9245282170594
 31
0.0
  0
LINE
  5
72FD
330
1E
100
AcDbEntity
  8
STEMPEL
100
AcDbLine
 10
315.1199172372368
 20
525.9245282170594
 30
0.0
 11
315.6199172372368
 21
525.9245282170594
 31
0.0
  0
LINE
  5
72FE
330
1E
100
AcDbEntity
  8
STEMPEL
100
AcDbLine
 10
315.6199172372369
 20
533.4245282170594
 30
0.0
 11
315.6199172372369
 21
525.9245282170594
 31
0.0
  0
LINE
  5
72FF
330
1E
100
AcDbEntity
  8
STEMPEL
100
AcDbLine
 10
313.9332559121178
 20
549.9245282170595
 30
0.0
 11
322.4332559121178
 21
549.9245282170595
 31
0.0
  0
LINE
  5
7300
330
1E
100
AcDbEntity
  8
MITTEL
100
AcDbLine
 10
318.1832559121177
 20
537.9245282170595
 30
0.0
 11
318.1832559121178
 21
554.9245282170595
 31
0.0
  0
LINE
  5
7301
330
1E
100
AcDbEntity
  8
STEMPEL
100
AcDbLine
 10
313.9332559121178
 20
545.9245282170595
 30
0.0
 11
313.9332559121178
 21
549.9245282170595
 31
0.0
  0
LINE
  5
7302
330
1E
100
AcDbEntity
  8
STEMPEL
100
AcDbLine
 10
322.4332559121177
 20
545.9245282170595
 30
0.0
 11
322.4332559121178
 21
549.9245282170595
 31
0.0
  0
LINE
  5
7303
330
1E
100
AcDbEntity
  8
STEMPEL
100
AcDbLine
 10
336.619917237237
 20
553.9245282170595
 30
0.0
 11
336.6199172372369
 21
545.9245282170595
 31
0.0
  0
LINE
  5
7304
330
1E
100
AcDbEntity
  8
STEMPEL
100
AcDbLine
 10
339.619917237237
 20
553.9245282170595
 30
0.0
 11
339.6199172372369
 21
542.9245282170596
 31
0.0
  0
LINE
  5
7305
330
1E
100
AcDbEntity
  8
STEMPEL
100
AcDbLine
 10
189.6199172372367
 20
553.9245282170595
 30
0.0
 11
189.6199172372368
 21
542.9245282170596
 31
0.0
  0
LINE
  5
7306
330
1E
100
AcDbEntity
  8
STEMPEL
100
AcDbLine
 10
192.6199172372367
 20
553.9245282170595
 30
0.0
 11
192.6199172372368
 21
545.9245282170595
 31
0.0
  0
LINE
  5
7307
330
1E
100
AcDbEntity
  8
STEMPEL
100
AcDbLine
 10
206.806578562356
 20
545.9245282170595
 30
0.0
 11
206.8065785623559
 21
549.9245282170595
 31
0.0
  0
LINE
  5
7308
330
1E
100
AcDbEntity
  8
STEMPEL
100
AcDbLine
 10
215.306578562356
 20
545.9245282170595
 30
0.0
 11
215.306578562356
 21
549.9245282170595
 31
0.0
  0
LINE
  5
7309
330
1E
100
AcDbEntity
  8
MITTEL
100
AcDbLine
 10
211.0565785623561
 20
537.9245282170595
 30
0.0
 11
211.056578562356
 21
554.9245282170595
 31
0.0
  0
LINE
  5
730A
330
1E
100
AcDbEntity
  8
STEMPEL
100
AcDbLine
 10
215.306578562356
 20
549.9245282170595
 30
0.0
 11
206.8065785623559
 21
549.9245282170595
 31
0.0
  0
LINE
  5
730B
330
1E
100
AcDbEntity
  8
STEMPEL
100
AcDbLine
 10
213.6199172372369
 20
533.4245282170594
 30
0.0
 11
213.6199172372369
 21
525.9245282170594
 31
0.0
  0
LINE
  5
730C
330
1E
100
AcDbEntity
  8
STEMPEL
100
AcDbLine
 10
214.119917237237
 20
525.9245282170594
 30
0.0
 11
213.619917237237
 21
525.9245282170594
 31
0.0
  0
LINE
  5
730D
330
1E
100
AcDbEntity
  8
STEMPEL
100
AcDbLine
 10
214.119917237237
 20
522.9245282170594
 30
0.0
 11
213.619917237237
 21
522.9245282170594
 31
0.0
  0
LINE
  5
730E
330
1E
100
AcDbEntity
  8
STEMPEL
100
AcDbLine
 10
214.119917237237
 20
525.9245282170594
 30
0.0
 11
214.119917237237
 21
522.9245282170594
 31
0.0
  0
LINE
  5
730F
330
1E
100
AcDbEntity
  8
STEMPEL
100
AcDbLine
 10
204.1199172372369
 20
542.9245282170596
 30
0.0
 11
213.6199172372369
 21
533.4245282170594
 31
0.0
  0
LINE
  5
7310
330
1E
100
AcDbEntity
  8
STEMPEL
100
AcDbLine
 10
204.6199172372368
 20
545.9245282170595
 30
0.0
 11
217.7199172372369
 21
532.8245282170594
 31
0.0
  0
LINE
  5
7311
330
1E
100
AcDbEntity
  8
STEMPEL
100
AcDbLine
 10
204.1199172372369
 20
542.9245282170596
 30
0.0
 11
189.6199172372368
 21
542.9245282170596
 31
0.0
  0
LINE
  5
7312
330
1E
100
AcDbEntity
  8
STEMPEL
100
AcDbLine
 10
214.119917237237
 20
510.9245282170594
 30
0.0
 11
214.119917237237
 21
507.9245282170594
 31
0.0
  0
LINE
  5
7313
330
1E
100
AcDbEntity
  8
STEMPEL
100
AcDbLine
 10
214.119917237237
 20
507.9245282170594
 30
0.0
 11
213.619917237237
 21
507.9245282170594
 31
0.0
  0
LINE
  5
7314
330
1E
100
AcDbEntity
  8
STEMPEL
100
AcDbLine
 10
214.119917237237
 20
510.9245282170594
 30
0.0
 11
213.619917237237
 21
510.9245282170594
 31
0.0
  0
LINE
  5
7315
330
1E
100
AcDbEntity
  8
STEMPEL
100
AcDbLine
 10
214.119917237237
 20
495.9245282170594
 30
0.0
 11
214.119917237237
 21
492.9245282170594
 31
0.0
  0
LINE
  5
7316
330
1E
100
AcDbEntity
  8
STEMPEL
100
AcDbLine
 10
214.119917237237
 20
492.9245282170596
 30
0.0
 11
213.619917237237
 21
492.9245282170594
 31
0.0
  0
LINE
  5
7317
330
1E
100
AcDbEntity
  8
STEMPEL
100
AcDbLine
 10
214.119917237237
 20
495.9245282170594
 30
0.0
 11
213.619917237237
 21
495.9245282170594
 31
0.0
  0
LINE
  5
7318
330
1E
100
AcDbEntity
  8
STEMPEL
100
AcDbLine
 10
213.6199172372369
 20
507.9245282170594
 30
0.0
 11
213.6199172372369
 21
495.9245282170594
 31
0.0
  0
LINE
  5
7319
330
1E
100
AcDbEntity
  8
STEMPEL
100
AcDbLine
 10
214.1199172372369
 20
480.9245282170595
 30
0.0
 11
214.119917237237
 21
477.9245282170593
 31
0.0
  0
LINE
  5
731A
330
1E
100
AcDbEntity
  8
STEMPEL
100
AcDbLine
 10
214.1199172372369
 20
480.9245282170594
 30
0.0
 11
213.619917237237
 21
480.9245282170594
 31
0.0
  0
LINE
  5
731B
330
1E
100
AcDbEntity
  8
STEMPEL
100
AcDbLine
 10
214.119917237237
 20
477.9245282170593
 30
0.0
 11
213.619917237237
 21
477.9245282170594
 31
0.0
  0
LINE
  5
731C
330
1E
100
AcDbEntity
  8
STEMPEL
100
AcDbLine
 10
214.119917237237
 20
465.9245282170594
 30
0.0
 11
213.619917237237
 21
465.9245282170594
 31
0.0
  0
LINE
  5
731D
330
1E
100
AcDbEntity
  8
STEMPEL
100
AcDbLine
 10
213.6199172372369
 20
477.9245282170594
 30
0.0
 11
213.6199172372369
 21
465.9245282170594
 31
0.0
  0
LINE
  5
731E
330
1E
100
AcDbEntity
  8
STEMPEL
100
AcDbLine
 10
213.6199172372369
 20
492.9245282170596
 30
0.0
 11
213.6199172372369
 21
480.9245282170594
 31
0.0
  0
LINE
  5
731F
330
1E
100
AcDbEntity
  8
STEMPEL
100
AcDbLine
 10
214.119917237237
 20
462.9245282170594
 30
0.0
 11
213.619917237237
 21
462.9245282170594
 31
0.0
  0
LINE
  5
7320
330
1E
100
AcDbEntity
  8
STEMPEL
100
AcDbLine
 10
214.119917237237
 20
450.9245282170594
 30
0.0
 11
214.119917237237
 21
447.9245282170594
 31
0.0
  0
LINE
  5
7321
330
1E
100
AcDbEntity
  8
STEMPEL
100
AcDbLine
 10
214.119917237237
 20
447.9245282170594
 30
0.0
 11
213.619917237237
 21
447.9245282170594
 31
0.0
  0
LINE
  5
7322
330
1E
100
AcDbEntity
  8
STEMPEL
100
AcDbLine
 10
214.119917237237
 20
450.9245282170594
 30
0.0
 11
213.619917237237
 21
450.9245282170594
 31
0.0
  0
LINE
  5
7323
330
1E
100
AcDbEntity
  8
STEMPEL
100
AcDbLine
 10
213.6199172372369
 20
462.9245282170595
 30
0.0
 11
213.6199172372369
 21
450.9245282170594
 31
0.0
  0
LINE
  5
7324
330
1E
100
AcDbEntity
  8
STEMPEL
100
AcDbLine
 10
214.119917237237
 20
435.9245282170594
 30
0.0
 11
214.119917237237
 21
432.9245282170594
 31
0.0
  0
LINE
  5
7325
330
1E
100
AcDbEntity
  8
STEMPEL
100
AcDbLine
 10
214.119917237237
 20
435.9245282170594
 30
0.0
 11
213.619917237237
 21
435.9245282170594
 31
0.0
  0
LINE
  5
7326
330
1E
100
AcDbEntity
  8
STEMPEL
100
AcDbLine
 10
214.119917237237
 20
432.9245282170594
 30
0.0
 11
213.619917237237
 21
432.9245282170594
 31
0.0
  0
LINE
  5
7327
330
1E
100
AcDbEntity
  8
STEMPEL
100
AcDbLine
 10
214.119917237237
 20
420.9245282170594
 30
0.0
 11
213.619917237237
 21
420.9245282170594
 31
0.0
  0
LINE
  5
7328
330
1E
100
AcDbEntity
  8
STEMPEL
100
AcDbLine
 10
213.619917237237
 20
432.9245282170594
 30
0.0
 11
213.619917237237
 21
420.9245282170594
 31
0.0
  0
LINE
  5
7329
330
1E
100
AcDbEntity
  8
STEMPEL
100
AcDbLine
 10
213.6199172372369
 20
447.9245282170594
 30
0.0
 11
213.619917237237
 21
435.9245282170594
 31
0.0
  0
LINE
  5
732A
330
1E
100
AcDbEntity
  8
STEMPEL
100
AcDbLine
 10
214.119917237237
 20
465.9245282170594
 30
0.0
 11
214.119917237237
 21
462.9245282170594
 31
0.0
  0
LINE
  5
732B
330
1E
100
AcDbEntity
  8
STEMPEL
100
AcDbLine
 10
214.119917237237
 20
417.9245282170594
 30
0.0
 11
213.619917237237
 21
417.9245282170594
 31
0.0
  0
POINT
  5
732C
330
1E
100
AcDbEntity
  8
DEFPOINTS
  6
ByBlock
 62
     0
100
AcDbPoint
 10
215.4699593679897
 20
403.9245282170595
 30
0.0
  0
LINE
  5
732D
330
1E
100
AcDbEntity
  8
STEMPEL
100
AcDbLine
 10
213.619917237237
 20
417.9245282170594
 30
0.0
 11
213.619917237237
 21
403.9245282170594
 31
0.0
  0
LINE
  5
732E
330
1E
100
AcDbEntity
  8
STEMPEL
100
AcDbLine
 10
214.119917237237
 20
420.9245282170594
 30
0.0
 11
214.119917237237
 21
417.9245282170594
 31
0.0
  0
LINE
  5
732F
330
1E
100
AcDbEntity
  8
STEMPEL
100
AcDbLine
 10
217.7199172372369
 20
532.8245282170594
 30
0.0
 11
215.4699593679897
 21
403.9245282170595
 31
0.0
  0
LINE
  5
7330
330
1E
100
AcDbEntity
  8
STEMPEL
100
AcDbLine
 10
213.6199172372369
 20
522.9245282170594
 30
0.0
 11
213.6199172372369
 21
510.9245282170593
 31
0.0
  0
HATCH
  5
7408
330
1E
100
AcDbEntity
  8
SCHRAFF
100
AcDbHatch
 10
0.0
 20
0.0
 30
0.0
210
0.0
220
0.0
230
1.0
  2
NET
 70
     0
 71
     0
 91
        1
 92
        7
 72
     0
 73
     1
 93
       42
 10
315.1199172372368
 20
522.9245282170594
 10
315.1199172372368
 20
525.9245282170593
 10
315.6199172372369
 20
525.9245282170595
 10
315.6199172372369
 20
533.4245282170594
 10
325.1199172372369
 20
542.9245282170596
 10
339.6199172372369
 20
542.9245282170596
 10
339.619917237237
 20
553.9245282170595
 10
336.619917237237
 20
553.9245282170595
 10
336.6199172372369
 20
545.9245282170595
 10
324.6199172372369
 20
545.9245282170597
 10
311.5199172372367
 20
532.8245282170593
 10
313.7698751064841
 20
403.9245282170595
 10
315.6199172372368
 20
403.9245282170593
 10
315.6199172372367
 20
417.9245282170594
 10
315.1199172372368
 20
417.9245282170595
 10
315.1199172372368
 20
420.9245282170593
 10
315.6199172372368
 20
420.9245282170593
 10
315.6199172372368
 20
432.9245282170594
 10
315.1199172372368
 20
432.9245282170593
 10
315.1199172372368
 20
435.9245282170594
 10
315.6199172372368
 20
435.9245282170594
 10
315.6199172372369
 20
447.9245282170594
 10
315.1199172372368
 20
447.9245282170594
 10
315.1199172372368
 20
450.9245282170594
 10
315.6199172372369
 20
450.9245282170594
 10
315.6199172372369
 20
462.9245282170593
 10
315.1199172372368
 20
462.9245282170594
 10
315.1199172372368
 20
465.9245282170593
 10
315.6199172372369
 20
465.9245282170593
 10
315.6199172372369
 20
477.9245282170594
 10
315.1199172372368
 20
477.9245282170593
 10
315.1199172372369
 20
480.9245282170594
 10
315.6199172372369
 20
480.9245282170594
 10
315.6199172372369
 20
492.9245282170594
 10
315.1199172372368
 20
492.9245282170596
 10
315.1199172372368
 20
495.9245282170594
 10
315.6199172372369
 20
495.9245282170593
 10
315.6199172372369
 20
507.9245282170594
 10
315.1199172372368
 20
507.9245282170594
 10
315.1199172372368
 20
510.9245282170593
 10
315.6199172372369
 20
510.9245282170594
 10
315.6199172372369
 20
522.9245282170593
 97
        0
 75
     0
 76
     1
 52
45.0
 41
20.0
 77
     0
 78
     2
 53
45.0
 43
0.0
 44
-118.0
 45
-1.767766952966368
 46
1.767766952966368
 79
     0
 53
135.0
 43
0.0
 44
-118.0
 45
-1.767766952966368
 46
-1.767766952966368
 79
     0
 47
0.2942695504665604
 98
        1
 10
314.6554426761522
 20
523.1136323619728
  0
HATCH
  5
7409
330
1E
100
AcDbEntity
  8
SCHRAFF
100
AcDbHatch
 10
0.0
 20
0.0
 30
0.0
210
0.0
220
0.0
230
1.0
  2
NET
 70
     0
 71
     0
 91
        1
 92
        7
 72
     0
 73
     1
 93
       42
 10
214.1199172372371
 20
525.9245282170594
 10
213.619917237237
 20
525.9245282170594
 10
213.619917237237
 20
533.4245282170594
 10
204.1199172372369
 20
542.9245282170596
 10
189.619917237237
 20
542.9245282170596
 10
189.6199172372368
 20
553.9245282170596
 10
192.6199172372368
 20
553.9245282170596
 10
192.619917237237
 20
545.9245282170594
 10
204.6199172372371
 20
545.9245282170593
 10
217.7199172372369
 20
532.8245282170595
 10
215.4699593679897
 20
403.9245282170594
 10
213.6199172372371
 20
403.9245282170594
 10
213.6199172372371
 20
417.9245282170594
 10
214.1199172372371
 20
417.9245282170593
 10
214.1199172372371
 20
420.9245282170594
 10
213.6199172372371
 20
420.9245282170593
 10
213.6199172372371
 20
432.9245282170593
 10
214.1199172372371
 20
432.9245282170594
 10
214.1199172372371
 20
435.9245282170593
 10
213.6199172372371
 20
435.9245282170594
 10
213.619917237237
 20
447.9245282170593
 10
214.1199172372371
 20
447.9245282170594
 10
214.1199172372371
 20
450.9245282170593
 10
213.619917237237
 20
450.9245282170594
 10
213.619917237237
 20
462.9245282170594
 10
214.1199172372371
 20
462.9245282170594
 10
214.1199172372371
 20
465.9245282170593
 10
213.619917237237
 20
465.9245282170594
 10
213.619917237237
 20
477.9245282170594
 10
214.1199172372371
 20
477.9245282170593
 10
214.119917237237
 20
480.9245282170594
 10
213.619917237237
 20
480.9245282170594
 10
213.619917237237
 20
492.9245282170593
 10
214.1199172372371
 20
492.9245282170594
 10
214.1199172372371
 20
495.9245282170593
 10
213.619917237237
 20
495.9245282170594
 10
213.619917237237
 20
507.9245282170593
 10
214.1199172372371
 20
507.9245282170594
 10
214.1199172372371
 20
510.9245282170593
 10
213.619917237237
 20
510.9245282170594
 10
213.619917237237
 20
522.9245282170593
 10
214.1199172372371
 20
522.9245282170594
 97
        0
 75
     0
 76
     1
 52
45.0
 41
20.0
 77
     0
 78
     2
 53
135.0
 43
529.2398344744738
 44
-118.0
 45
1.767766952966368
 46
1.767766952966368
 79
     0
 53
45.0
 43
529.2398344744738
 44
-118.0
 45
1.767766952966368
 46
-1.767766952966368
 79
     0
 47
0.2942695504665604
 98
        1
 10
214.5843917983216
 20
523.1136323619728
  0
TEXT
  5
7488
330
1E
100
AcDbEntity
  8
TEXT
 62
     1
100
AcDbText
 10
50.26766494769725
 20
592.3520887272591
 30
0.0
 40
7.0
  1
Ringsieb quadr.
 41
0.8
  7
GREEKS
100
AcDbText
  0
LINE
  5
7489
330
1E
100
AcDbEntity
  8
TEXT
 62
     2
100
AcDbLine
 10
50.00228781007331
 20
589.016240446375
 30
0.0
 11
152.8427263803455
 21
589.016240446375
 31
0.0
  0
LINE
  5
748B
330
1E
100
AcDbEntity
  8
TEXT
 62
     2
100
AcDbLine
 10
152.8427263803455
 20
589.016240446375
 30
0.0
 11
194.2668826366011
 21
596.899757459012
 31
0.0
  0
HATCH
  5
74FB
330
1E
100
AcDbEntity
  8
SCHRAFF
100
AcDbHatch
 10
0.0
 20
0.0
 30
0.0
210
0.0
220
0.0
230
1.0
  2
_USER
 70
     0
 71
     0
 91
        4
 92
        7
 72
     1
 73
     1
 93
       12
 10
319.6199172372368
 20
601.9245282170595
 42
0.4142135623731007
 10
316.6199172372368
 20
598.9245282170595
 42
0.0
 10
316.6199172372368
 20
597.9245282170595
 42
0.0
 10
318.1199172372367
 20
597.9245282170595
 42
0.0
 10
318.1199172372368
 20
598.9245282170595
 42
-0.4142135623730951
 10
319.6199172372368
 20
600.4245282170595
 42
0.0
 10
333.1199172372368
 20
600.4245282170595
 42
-0.4142135623730951
 10
334.6199172372368
 20
598.9245282170595
 42
0.0
 10
334.6199172372367
 20
593.9245282170595
 42
0.0
 10
336.1199172372368
 20
593.9245282170595
 42
0.0
 10
336.1199172372368
 20
598.9245282170595
 42
0.4142135623730951
 10
333.1199172372368
 20
601.9245282170595
 42
0.0
 97
        0
 92
        7
 72
     1
 73
     1
 93
       12
 10
305.1199172372368
 20
601.9245282170595
 42
0.4142135623731007
 10
302.1199172372368
 20
598.9245282170595
 42
0.0
 10
302.1199172372368
 20
597.9245282170595
 42
0.0
 10
303.6199172372368
 20
597.9245282170595
 42
0.0
 10
303.6199172372368
 20
598.9245282170595
 42
-0.4142135623730951
 10
305.1199172372368
 20
600.4245282170595
 42
0.0
 10
305.6199172372368
 20
600.4245282170595
 42
-0.4142135623730951
 10
307.1199172372368
 20
598.9245282170595
 42
0.0
 10
307.1199172372368
 20
597.9245282170595
 42
0.0
 10
308.6199172372368
 20
597.9245282170595
 42
0.0
 10
308.6199172372368
 20
598.9245282170595
 42
0.4142135623730951
 10
305.6199172372368
 20
601.9245282170595
 42
0.0
 97
        0
 92
        7
 72
     1
 73
     1
 93
        8
 10
216.6199172372368
 20
601.9245282170595
 42
0.0
 10
216.6199172372368
 20
600.4245282170595
 42
0.0
 10
224.1199172372368
 20
600.4245282170595
 42
-0.4142135623730951
 10
225.6199172372368
 20
598.9245282170595
 42
0.0
 10
225.6199172372368
 20
597.9245282170595
 42
0.0
 10
227.1199172372368
 20
597.9245282170595
 42
0.0
 10
227.1199172372368
 20
598.9245282170595
 42
0.4142135623730951
 10
224.1199172372368
 20
601.9245282170595
 42
0.0
 97
        0
 92
        7
 72
     1
 73
     1
 93
        8
 10
196.1199172372367
 20
601.9245282170595
 42
0.4142135623730979
 10
193.1199172372367
 20
598.9245282170595
 42
0.0
 10
193.1199172372368
 20
593.9245282170595
 42
0.0
 10
194.6199172372368
 20
593.9245282170595
 42
0.0
 10
194.6199172372368
 20
598.9245282170595
 42
-0.4142135623730951
 10
196.1199172372367
 20
600.4245282170595
 42
0.0
 10
216.6199172372368
 20
600.4245282170595
 42
0.0
 10
216.6199172372368
 20
601.9245282170595
 42
0.0
 97
        0
 75
     0
 76
     0
 52
45.0
 41
2.0
 77
     0
 78
     1
 53
45.0
 43
39.61991723723685
 44
153.3543659038018
 45
-1.414213562373094
 46
1.414213562373095
 79
     0
 47
0.2196176843999825
 98
        4
 10
325.1209193936785
 20
601.4939144257421
 10
305.5611213291328
 20
601.2742970113115
 10
221.1682819394006
 20
601.4939144257421
 10
211.4982703207886
 20
601.2742970113115
  0
LINE
  5
74FC
330
1E
100
AcDbEntity
  8
STEMPEL
100
AcDbLine
 10
196.1199172372367
 20
600.4245282170595
 30
0.0
 11
224.1199172372368
 21
600.4245282170595
 31
0.0
  0
LINE
  5
74FD
330
1E
100
AcDbEntity
  8
STEMPEL
100
AcDbLine
 10
196.1199172372367
 20
601.9245282170595
 30
0.0
 11
333.1199172372368
 21
601.9245282170595
 31
0.0
  0
LINE
  5
74FE
330
1E
100
AcDbEntity
  8
STEMPEL
100
AcDbLine
 10
193.1199172372368
 20
593.9245282170595
 30
0.0
 11
336.1199172372368
 21
593.9245282170595
 31
0.0
  0
ARC
  5
74FF
330
1E
100
AcDbEntity
  8
STEMPEL
100
AcDbCircle
 10
196.1199172372367
 20
598.9245282170595
 30
0.0
 40
3.0
100
AcDbArc
 50
90.0
 51
180.0
  0
POINT
  5
7500
330
1E
100
AcDbEntity
  8
DEFPOINTS
  6
ByBlock
 62
     0
100
AcDbPoint
 10
193.805735919888
 20
600.8336025556944
 30
0.0
  0
ARC
  5
7501
330
1E
100
AcDbEntity
  8
STEMPEL
100
AcDbCircle
 10
196.1199172372367
 20
598.9245282170595
 30
0.0
 40
1.5
100
AcDbArc
 50
90.0
 51
180.0
  0
LINE
  5
7502
330
1E
100
AcDbEntity
  8
STEMPEL
100
AcDbLine
 10
194.6199172372368
 20
593.9245282170595
 30
0.0
 11
194.6199172372368
 21
598.9245282170595
 31
0.0
  0
LINE
  5
7503
330
1E
100
AcDbEntity
  8
STEMPEL
100
AcDbLine
 10
193.1199172372368
 20
593.9245282170595
 30
0.0
 11
193.1199172372367
 21
598.9245282170595
 31
0.0
  0
ARC
  5
7504
330
1E
100
AcDbEntity
  8
STEMPEL
100
AcDbCircle
 10
333.1199172372368
 20
598.9245282170595
 30
0.0
 40
1.5
100
AcDbArc
 50
0.0
 51
90.0
  0
ARC
  5
7505
330
1E
100
AcDbEntity
  8
STEMPEL
100
AcDbCircle
 10
333.1199172372368
 20
598.9245282170595
 30
0.0
 40
3.0
100
AcDbArc
 50
0.0
 51
90.0
  0
LINE
  5
7506
330
1E
100
AcDbEntity
  8
STEMPEL
100
AcDbLine
 10
211.4777019584533
 20
597.9245282170595
 30
0.0
 11
318.1199172372368
 21
597.9245282170595
 31
0.0
  0
LINE
  5
7507
330
1E
100
AcDbEntity
  8
MITTEL
100
AcDbLine
 10
216.6199172372368
 20
588.9245282170596
 30
0.0
 11
216.6199172372368
 21
606.9245282170595
 31
0.0
  0
LINE
  5
7508
330
1E
100
AcDbEntity
  8
MITTEL
100
AcDbLine
 10
264.6199172372368
 20
588.9245282170596
 30
0.0
 11
264.6199172372368
 21
606.9245282170595
 31
0.0
  0
ARC
  5
7509
330
1E
100
AcDbEntity
  8
STEMPEL
100
AcDbCircle
 10
209.9777019584533
 20
598.9245282170595
 30
0.0
 40
1.5
100
AcDbArc
 50
0.0
 51
90.0
  0
LINE
  5
750A
330
1E
100
AcDbEntity
  8
STEMPEL
100
AcDbLine
 10
211.4777019584533
 20
597.9245282170595
 30
0.0
 11
211.4777019584533
 21
598.9245282170595
 31
0.0
  0
ARC
  5
750B
330
1E
100
AcDbEntity
  8
STEMPEL
100
AcDbCircle
 10
224.1199172372368
 20
598.9245282170595
 30
0.0
 40
3.0
100
AcDbArc
 50
0.0
 51
90.0
  0
ARC
  5
750C
330
1E
100
AcDbEntity
  8
STEMPEL
100
AcDbCircle
 10
224.1199172372368
 20
598.9245282170595
 30
0.0
 40
1.5
100
AcDbArc
 50
0.0
 51
90.0
  0
LINE
  5
750D
330
1E
100
AcDbEntity
  8
STEMPEL
100
AcDbLine
 10
225.6199172372368
 20
597.9245282170595
 30
0.0
 11
225.6199172372368
 21
598.9245282170595
 31
0.0
  0
LINE
  5
750E
330
1E
100
AcDbEntity
  8
STEMPEL
100
AcDbLine
 10
227.1199172372368
 20
597.9245282170595
 30
0.0
 11
227.1199172372368
 21
598.9245282170595
 31
0.0
  0
POINT
  5
750F
330
1E
100
AcDbEntity
  8
DEFPOINTS
  6
ByBlock
 62
     0
100
AcDbPoint
 10
225.9665732133051
 20
601.2888170543321
 30
0.0
  0
LINE
  5
7510
330
1E
100
AcDbEntity
  8
MITTEL
100
AcDbLine
 10
312.6199172372368
 20
588.9245282170596
 30
0.0
 11
312.6199172372368
 21
606.9245282170595
 31
0.0
  0
ARC
  5
7511
330
1E
100
AcDbEntity
  8
STEMPEL
100
AcDbCircle
 10
319.6199172372368
 20
598.9245282170595
 30
0.0
 40
3.0
100
AcDbArc
 50
90.0
 51
180.0
  0
ARC
  5
7512
330
1E
100
AcDbEntity
  8
STEMPEL
100
AcDbCircle
 10
319.6199172372368
 20
598.9245282170595
 30
0.0
 40
1.5
100
AcDbArc
 50
90.0
 51
180.0
  0
ARC
  5
7513
330
1E
100
AcDbEntity
  8
STEMPEL
100
AcDbCircle
 10
305.6199172372368
 20
598.9245282170595
 30
0.0
 40
3.0
100
AcDbArc
 50
0.0
 51
90.0
  0
ARC
  5
7514
330
1E
100
AcDbEntity
  8
STEMPEL
100
AcDbCircle
 10
305.1199172372368
 20
598.9245282170595
 30
0.0
 40
3.0
100
AcDbArc
 50
90.0
 51
180.0
  0
ARC
  5
7515
330
1E
100
AcDbEntity
  8
STEMPEL
100
AcDbCircle
 10
305.6199172372368
 20
598.9245282170595
 30
0.0
 40
1.5
100
AcDbArc
 50
0.0
 51
90.0
  0
LINE
  5
7516
330
1E
100
AcDbEntity
  8
STEMPEL
100
AcDbLine
 10
307.1199172372368
 20
597.9245282170595
 30
0.0
 11
307.1199172372368
 21
598.9245282170595
 31
0.0
  0
LINE
  5
7517
330
1E
100
AcDbEntity
  8
STEMPEL
100
AcDbLine
 10
308.6199172372368
 20
597.9245282170595
 30
0.0
 11
308.6199172372368
 21
598.9245282170595
 31
0.0
  0
LINE
  5
7518
330
1E
100
AcDbEntity
  8
STEMPEL
100
AcDbLine
 10
305.1199172372368
 20
600.4245282170595
 30
0.0
 11
305.6199172372368
 21
600.4245282170595
 31
0.0
  0
ARC
  5
7519
330
1E
100
AcDbEntity
  8
STEMPEL
100
AcDbCircle
 10
305.1199172372368
 20
598.9245282170595
 30
0.0
 40
1.5
100
AcDbArc
 50
90.0
 51
180.0
  0
LINE
  5
751A
330
1E
100
AcDbEntity
  8
STEMPEL
100
AcDbLine
 10
303.6199172372368
 20
597.9245282170595
 30
0.0
 11
303.6199172372368
 21
598.9245282170595
 31
0.0
  0
LINE
  5
751B
330
1E
100
AcDbEntity
  8
STEMPEL
100
AcDbLine
 10
302.1199172372368
 20
597.9245282170595
 30
0.0
 11
302.1199172372368
 21
598.9245282170595
 31
0.0
  0
LINE
  5
751C
330
1E
100
AcDbEntity
  8
STEMPEL
100
AcDbLine
 10
316.6199172372368
 20
597.9245282170595
 30
0.0
 11
316.6199172372368
 21
598.9245282170595
 31
0.0
  0
LINE
  5
751D
330
1E
100
AcDbEntity
  8
STEMPEL
100
AcDbLine
 10
319.6199172372368
 20
600.4245282170595
 30
0.0
 11
333.1199172372368
 21
600.4245282170595
 31
0.0
  0
LINE
  5
751E
330
1E
100
AcDbEntity
  8
STEMPEL
100
AcDbLine
 10
318.1199172372368
 20
597.9245282170595
 30
0.0
 11
318.1199172372368
 21
598.9245282170595
 31
0.0
  0
LINE
  5
751F
330
1E
100
AcDbEntity
  8
STEMPEL
100
AcDbLine
 10
334.6199172372368
 20
593.9245282170595
 30
0.0
 11
334.6199172372368
 21
598.9245282170595
 31
0.0
  0
LINE
  5
7520
330
1E
100
AcDbEntity
  8
STEMPEL
100
AcDbLine
 10
336.1199172372368
 20
593.9245282170595
 30
0.0
 11
336.1199172372368
 21
598.9245282170595
 31
0.0
  0
TEXT
  5
7537
330
1E
100
AcDbEntity
  8
TEXT
 62
     1
100
AcDbText
 10
260.1195990232736
 20
678.8603806073467
 30
0.0
 40
7.0
  1
DN70
 50
90.0
 41
0.8
  7
GREEKS
100
AcDbText
  0
LINE
  5
7538
330
1E
100
AcDbEntity
  8
TEXT
 62
     2
100
AcDbLine
 10
152.8427263803454
 20
680.4254347605541
 30
0.0
 11
232.0592030923393
 21
687.7084724167813
 31
0.0
  0
LINE
  5
753A
330
1E
100
AcDbEntity
  8
TEXT
 62
     2
100
AcDbLine
 10
50.0022878100732
 20
680.4254347605541
 30
0.0
 11
152.8427263803454
 21
680.4254347605541
 31
0.0
  0
TEXT
  5
753B
330
1E
100
AcDbEntity
  8
TEXT
 62
     1
100
AcDbText
 10
50.26766494769714
 20
683.7612830414382
 30
0.0
 40
7.0
  1
Rohr DN70 2750mm
 41
0.8
  7
GREEKS
100
AcDbText
  0
SPLINE
  5
753C
330
1E
100
AcDbEntity
  8
HILF
100
AcDbSpline
210
0.0
220
0.0
230
1.0
 70
     8
 71
     3
 72
    11
 73
     7
 74
     5
 42
0.0000000001
 43
0.0000000001
 44
0.0000000001
 40
0.0
 40
0.0
 40
0.0
 40
0.0
 40
18.92253947016626
 40
37.84507894033252
 40
56.76761841049878
 40
75.69015788066504
 40
75.69015788066504
 40
75.69015788066504
 40
75.69015788066504
 10
228.1199172372368
 20
745.7143230361075
 30
0.0
 10
234.2032505705701
 20
748.2143230361075
 30
0.0
 10
246.3699172372368
 20
753.2143230361075
 30
0.0
 10
264.6199172372367
 20
745.7143230361073
 30
0.0
 10
282.8699172372368
 20
738.2143230361075
 30
0.0
 10
295.0365839039035
 20
743.2143230361075
 30
0.0
 10
301.1199172372368
 20
745.7143230361075
 30
0.0
 11
228.1199172372368
 21
745.7143230361075
 31
0.0
 11
246.3699172372368
 21
750.7143230361075
 31
0.0
 11
264.6199172372368
 21
745.7143230361075
 31
0.0
 11
282.8699172372368
 21
740.7143230361075
 31
0.0
 11
301.1199172372368
 21
745.7143230361075
 31
0.0
  0
LINE
  5
753D
330
1E
100
AcDbEntity
  8
STEMPEL
100
AcDbLine
 10
301.1199172372368
 20
648.9245282170595
 30
0.0
 11
301.1199172372368
 21
745.7143230361075
 31
0.0
  0
LINE
  5
753E
330
1E
100
AcDbEntity
  8
STEMPEL
100
AcDbLine
 10
228.1199172372368
 20
648.9245282170595
 30
0.0
 11
228.1199172372368
 21
745.7143230361074
 31
0.0
  0
LINE
  5
753F
330
1E
100
AcDbEntity
  8
HILF
100
AcDbLine
 10
299.6141874809218
 20
648.9245282170595
 30
0.0
 11
229.6256469935517
 21
648.9245282170595
 31
0.0
  0
LINE
  5
7540
330
1E
100
AcDbEntity
  8
STEMPEL
100
AcDbLine
 10
300.5074965925552
 20
641.9245282170595
 30
0.0
 11
301.1199172372368
 21
648.9245282170595
 31
0.0
  0
LINE
  5
7541
330
1E
100
AcDbEntity
  8
STEMPEL
100
AcDbLine
 10
228.7323378819183
 20
641.9245282170595
 30
0.0
 11
228.1199172372368
 21
648.9245282170595
 31
0.0
  0
LINE
  5
7542
330
1E
100
AcDbEntity
  8
STEMPEL
100
AcDbLine
 10
300.5074965925552
 20
641.9245282170595
 30
0.0
 11
228.7323378819183
 21
641.9245282170595
 31
0.0
  0
LINE
  5
7543
330
1E
100
AcDbEntity
  8
MITTEL
100
AcDbLine
 10
264.6199172372368
 20
636.9245282170595
 30
0.0
 11
264.6199172372368
 21
750.7143230361075
 31
0.0
  0
LINE
  5
75D4
330
1E
100
AcDbEntity
  8
TEXT
 62
     2
100
AcDbLine
 10
152.8427263803454
 20
789.4629488434804
 30
0.0
 11
226.6078072619838
 21
799.6119149318697
 31
0.0
  0
LINE
  5
75D6
330
1E
100
AcDbEntity
  8
TEXT
 62
     2
100
AcDbLine
 10
50.0022878100732
 20
789.4629488434804
 30
0.0
 11
152.8427263803454
 21
789.4629488434804
 31
0.0
  0
TEXT
  5
75D7
330
1E
100
AcDbEntity
  8
TEXT
 62
     1
100
AcDbText
 10
50.26766494769714
 20
792.7987971243646
 30
0.0
 40
7.0
  1
Dichtelement DN70
 41
0.8
  7
GREEKS
100
AcDbText
  0
LINE
  5
75D8
330
1E
100
AcDbEntity
  8
MITTEL
100
AcDbLine
 10
264.6199172372368
 20
810.2143230361075
 30
0.0
 11
264.6199172372368
 21
783.7143230361074
 31
0.0
  0
LINE
  5
75D9
330
1E
100
AcDbEntity
  8
STEMPEL
100
AcDbLine
 10
296.6199172372368
 20
787.2143230361074
 30
0.0
 11
264.6199172372368
 21
787.2143230361074
 31
0.0
  0
LINE
  5
75DA
330
1E
100
AcDbEntity
  8
STEMPEL
100
AcDbLine
 10
296.6199172372368
 20
785.7143230361074
 30
0.0
 11
264.6199172372368
 21
785.7143230361074
 31
0.0
  0
LINE
  5
75DB
330
1E
100
AcDbEntity
  8
STEMPEL
100
AcDbLine
 10
301.6199172372368
 20
802.2143230361074
 30
0.0
 11
264.6199172372368
 21
802.2143230361074
 31
0.0
  0
LINE
  5
75DC
330
1E
100
AcDbEntity
  8
STEMPEL
100
AcDbLine
 10
303.5169787526649
 20
808.2143230361074
 30
0.0
 11
264.6199172372368
 21
808.2143230361074
 31
0.0
  0
INSERT
  5
75DD
330
1E
100
AcDbEntity
  8
SCHRAFF
100
AcDbBlockReference
  2
*X3
 10
137.5487910338867
 20
723.8339154400837
 30
0.0
1001
ACAD
1000
HATCH
1002
{
1070
    16
1000
NET,I
1040
10.0
1040
0.7853981633974483
1002
}
  0
LINE
  5
75DE
330
1E
100
AcDbEntity
  8
STEMPEL
100
AcDbLine
 10
232.6199172372368
 20
787.2143230361074
 30
0.0
 11
264.6199172372368
 21
787.2143230361074
 31
0.0
  0
LINE
  5
75DF
330
1E
100
AcDbEntity
  8
STEMPEL
100
AcDbLine
 10
232.6199172372368
 20
785.7143230361074
 30
0.0
 11
264.6199172372368
 21
785.7143230361074
 31
0.0
  0
LINE
  5
75E0
330
1E
100
AcDbEntity
  8
STEMPEL
100
AcDbLine
 10
227.6199172372368
 20
802.2143230361074
 30
0.0
 11
264.6199172372368
 21
802.2143230361074
 31
0.0
  0
LINE
  5
75E1
330
1E
100
AcDbEntity
  8
STEMPEL
100
AcDbLine
 10
225.7228557218088
 20
808.2143230361074
 30
0.0
 11
264.6199172372368
 21
808.2143230361074
 31
0.0
  0
ARC
  5
75E2
330
1E
100
AcDbEntity
  8
STEMPEL
100
AcDbCircle
 10
230.1199172372368
 20
789.7143230361074
 30
0.0
 40
4.0
100
AcDbArc
 50
202.0243128370421
 51
270.0
  0
LINE
  5
75E3
330
1E
100
AcDbEntity
  8
STEMPEL
100
AcDbLine
 10
232.6199172372368
 20
787.2143230361074
 30
0.0
 11
232.6199172372368
 21
785.7143230361074
 31
0.0
  0
LINE
  5
75E4
330
1E
100
AcDbEntity
  8
STEMPEL
100
AcDbLine
 10
230.1199172372368
 20
785.7143230361074
 30
0.0
 11
232.6199172372368
 21
785.7143230361074
 31
0.0
  0
LINE
  5
75E5
330
1E
100
AcDbEntity
  8
STEMPEL
100
AcDbLine
 10
224.1199172372368
 20
797.7193681971982
 30
0.0
 11
224.1199172372368
 21
796.6143230361073
 31
0.0
  0
LINE
  5
75E6
330
1E
100
AcDbEntity
  8
STEMPEL
100
AcDbLine
 10
227.6199172372368
 20
802.2143230361074
 30
0.0
 11
227.6199172372368
 21
792.2143230361074
 31
0.0
  0
LINE
  5
75E7
330
1E
100
AcDbEntity
  8
STEMPEL
100
AcDbLine
 10
223.6199172372368
 20
788.2143230361074
 30
0.0
 11
226.411817993689
 21
788.2143230361074
 31
0.0
  0
ARC
  5
75E8
330
1E
100
AcDbEntity
  8
STEMPEL
100
AcDbCircle
 10
225.2362710584069
 20
789.3143230361074
 30
0.0
 40
0.9
100
AcDbArc
 50
4.682416862268558
 51
151.6449939715938
  0
LINE
  5
75E9
330
1E
100
AcDbEntity
  8
STEMPEL
100
AcDbLine
 10
221.8199172372368
 20
788.2143230361074
 30
0.0
 11
224.1199172372367
 21
792.2143230361074
 31
0.0
  0
LINE
  5
75EA
330
1E
100
AcDbEntity
  8
STEMPEL
100
AcDbLine
 10
221.8199172372368
 20
788.2143230361074
 30
0.0
 11
223.6199172372368
 21
788.2143230361074
 31
0.0
  0
LINE
  5
75EB
330
1E
100
AcDbEntity
  8
STEMPEL
100
AcDbLine
 10
223.6199172372368
 20
788.2143230361074
 30
0.0
 11
224.4442514330677
 21
789.7417629887062
 31
0.0
  0
LINE
  5
75EC
330
1E
100
AcDbEntity
  8
STEMPEL
100
AcDbLine
 10
222.7199172372368
 20
795.2143230361074
 30
0.0
 11
224.1199172372368
 21
796.6143230361073
 31
0.0
  0
LINE
  5
75ED
330
1E
100
AcDbEntity
  8
STEMPEL
100
AcDbLine
 10
222.7199172372368
 20
794.2143230361074
 30
0.0
 11
224.1199172372367
 21
792.8143230361074
 31
0.0
  0
LINE
  5
75EE
330
1E
100
AcDbEntity
  8
STEMPEL
100
AcDbLine
 10
222.7199172372368
 20
795.2143230361074
 30
0.0
 11
222.7199172372368
 21
794.2143230361074
 31
0.0
  0
LINE
  5
75EF
330
1E
100
AcDbEntity
  8
STEMPEL
100
AcDbLine
 10
224.1199172372367
 20
792.8143230361074
 30
0.0
 11
224.1199172372367
 21
792.2143230361074
 31
0.0
  0
ARC
  5
75F0
330
1E
100
AcDbEntity
  8
STEMPEL
100
AcDbCircle
 10
232.6199172372368
 20
792.2143230361074
 30
0.0
 40
5.0
100
AcDbArc
 50
180.0
 51
270.0
  0
ARC
  5
75F1
330
1E
100
AcDbEntity
  8
STEMPEL
100
AcDbCircle
 10
230.1199172372368
 20
789.7143230361074
 30
0.0
 40
4.0
100
AcDbArc
 50
184.6824168622685
 51
202.0243128370421
  0
ARC
  5
75F2
330
1E
100
AcDbEntity
  8
STEMPEL
100
AcDbCircle
 10
225.7228557218088
 20
807.2143230361074
 30
0.0
 40
1.0
100
AcDbArc
 50
9.999999999998609
 51
150.5880863344681
  0
LINE
  5
75F3
330
1E
100
AcDbEntity
  8
STEMPEL
100
AcDbLine
 10
225.8756895442587
 20
802.5433129644445
 30
0.0
 11
224.1199172372368
 21
797.7193681971982
 31
0.0
  0
ARC
  5
75F4
330
1E
100
AcDbEntity
  8
STEMPEL
100
AcDbCircle
 10
225.4058432338657
 20
802.7143230361074
 30
0.0
 40
0.5
100
AcDbArc
 50
340.0000000000035
 51
90.0
  0
LINE
  5
75F5
330
1E
100
AcDbEntity
  8
STEMPEL
100
AcDbLine
 10
222.3199172372368
 20
803.2143230361073
 30
0.0
 11
224.8517440044595
 21
807.7054079329398
 31
0.0
  0
LINE
  5
75F6
330
1E
100
AcDbEntity
  8
STEMPEL
100
AcDbLine
 10
222.3199172372368
 20
803.2143230361073
 30
0.0
 11
225.4058432338657
 21
803.2143230361075
 31
0.0
  0
LINE
  5
75F7
330
1E
100
AcDbEntity
  8
STEMPEL
100
AcDbLine
 10
227.6199172372368
 20
802.2143230361074
 30
0.0
 11
226.7076634748209
 21
807.3879712137744
 31
0.0
  0
ARC
  5
75F8
330
1E
100
AcDbEntity
  8
STEMPEL
100
AcDbCircle
 10
299.1199172372368
 20
789.7143230361074
 30
0.0
 40
4.0
100
AcDbArc
 50
270.0
 51
337.975687162958
  0
LINE
  5
75F9
330
1E
100
AcDbEntity
  8
STEMPEL
100
AcDbLine
 10
296.6199172372368
 20
787.2143230361074
 30
0.0
 11
296.6199172372368
 21
785.7143230361074
 31
0.0
  0
LINE
  5
75FA
330
1E
100
AcDbEntity
  8
STEMPEL
100
AcDbLine
 10
299.1199172372368
 20
785.7143230361074
 30
0.0
 11
296.6199172372368
 21
785.7143230361074
 31
0.0
  0
ARC
  5
75FB
330
1E
100
AcDbEntity
  8
STEMPEL
100
AcDbCircle
 10
296.6199172372368
 20
792.2143230361074
 30
0.0
 40
5.0
100
AcDbArc
 50
270.0
 51
0.0
  0
LINE
  5
75FC
330
1E
100
AcDbEntity
  8
STEMPEL
100
AcDbLine
 10
305.1199172372368
 20
797.7193681971982
 30
0.0
 11
305.1199172372368
 21
796.6143230361073
 31
0.0
  0
LINE
  5
75FD
330
1E
100
AcDbEntity
  8
STEMPEL
100
AcDbLine
 10
301.6199172372368
 20
802.2143230361074
 30
0.0
 11
301.6199172372368
 21
792.2143230361074
 31
0.0
  0
LINE
  5
75FE
330
1E
100
AcDbEntity
  8
STEMPEL
100
AcDbLine
 10
307.4199172372368
 20
788.2143230361074
 30
0.0
 11
305.1199172372368
 21
792.2143230361074
 31
0.0
  0
LINE
  5
75FF
330
1E
100
AcDbEntity
  8
STEMPEL
100
AcDbLine
 10
305.6199172372368
 20
788.2143230361074
 30
0.0
 11
302.8280164807846
 21
788.2143230361074
 31
0.0
  0
ARC
  5
7600
330
1E
100
AcDbEntity
  8
STEMPEL
100
AcDbCircle
 10
304.0035634160667
 20
789.3143230361074
 30
0.0
 40
0.9
100
AcDbArc
 50
28.35500602840614
 51
175.3175831377314
  0
ARC
  5
7601
330
1E
100
AcDbEntity
  8
STEMPEL
100
AcDbCircle
 10
299.1199172372368
 20
789.7143230361074
 30
0.0
 40
4.0
100
AcDbArc
 50
337.975687162958
 51
355.3175831377314
  0
LINE
  5
7602
330
1E
100
AcDbEntity
  8
STEMPEL
100
AcDbLine
 10
307.4199172372368
 20
788.2143230361074
 30
0.0
 11
305.6199172372368
 21
788.2143230361074
 31
0.0
  0
LINE
  5
7603
330
1E
100
AcDbEntity
  8
STEMPEL
100
AcDbLine
 10
305.6199172372368
 20
788.2143230361074
 30
0.0
 11
304.7955830414058
 21
789.7417629887062
 31
0.0
  0
LINE
  5
7604
330
1E
100
AcDbEntity
  8
STEMPEL
100
AcDbLine
 10
306.5199172372368
 20
794.2143230361074
 30
0.0
 11
305.1199172372368
 21
792.8143230361074
 31
0.0
  0
LINE
  5
7605
330
1E
100
AcDbEntity
  8
STEMPEL
100
AcDbLine
 10
306.5199172372368
 20
795.2143230361074
 30
0.0
 11
306.5199172372368
 21
794.2143230361074
 31
0.0
  0
LINE
  5
7606
330
1E
100
AcDbEntity
  8
STEMPEL
100
AcDbLine
 10
305.1199172372368
 20
792.8143230361074
 30
0.0
 11
305.1199172372368
 21
792.2143230361074
 31
0.0
  0
LINE
  5
7607
330
1E
100
AcDbEntity
  8
STEMPEL
100
AcDbLine
 10
306.5199172372368
 20
795.2143230361074
 30
0.0
 11
305.1199172372368
 21
796.6143230361073
 31
0.0
  0
LINE
  5
7608
330
1E
100
AcDbEntity
  8
STEMPEL
100
AcDbLine
 10
301.6199172372368
 20
802.2143230361074
 30
0.0
 11
302.5321709996526
 21
807.3879712137744
 31
0.0
  0
ARC
  5
7609
330
1E
100
AcDbEntity
  8
STEMPEL
100
AcDbCircle
 10
303.8339912406079
 20
802.7143230361074
 30
0.0
 40
0.5
100
AcDbArc
 50
90.0
 51
199.9999999999964
  0
LINE
  5
760A
330
1E
100
AcDbEntity
  8
STEMPEL
100
AcDbLine
 10
303.3641449302149
 20
802.5433129644445
 30
0.0
 11
305.1199172372368
 21
797.7193681971982
 31
0.0
  0
ARC
  5
760B
330
1E
100
AcDbEntity
  8
STEMPEL
100
AcDbCircle
 10
303.5169787526649
 20
807.2143230361074
 30
0.0
 40
1.0
100
AcDbArc
 50
29.41191366553184
 51
170.0000000000014
  0
LINE
  5
760C
330
1E
100
AcDbEntity
  8
STEMPEL
100
AcDbLine
 10
306.9199172372368
 20
803.2143230361073
 30
0.0
 11
304.3880904700141
 21
807.7054079329398
 31
0.0
  0
LINE
  5
760D
330
1E
100
AcDbEntity
  8
STEMPEL
100
AcDbLine
 10
306.9199172372368
 20
803.2143230361073
 30
0.0
 11
303.8339912406079
 21
803.2143230361075
 31
0.0
  0
ENDSEC
  0
SECTION
  2
OBJECTS
  0
DICTIONARY
  5
C
330
0
100
AcDbDictionary
281
     1
  3
ACAD_COLOR
350
11A
  3
ACAD_GROUP
350
D
  3
ACAD_LAYOUT
350
19
  3
ACAD_MATERIAL
350
119
  3
ACAD_MLINESTYLE
350
16
  3
ACAD_PLOTSETTINGS
350
18
  3
ACAD_PLOTSTYLENAME
350
E
  3
AcDbVariableDictionary
350
125
  0
DICTIONARY
  5
DB
330
1E
100
AcDbDictionary
280
     1
281
     1
  3
ACAD_LAYOUTSELFREF
360
10F
  0
DICTIONARY
  5
DD
330
1A
100
AcDbDictionary
280
     1
281
     1
  3
ACAD_LAYOUTSELFREF
360
10E
  0
DICTIONARY
  5
11A
102
{ACAD_REACTORS
330
C
102
}
330
C
100
AcDbDictionary
281
     1
  0
DICTIONARY
  5
D
102
{ACAD_REACTORS
330
C
102
}
330
C
100
AcDbDictionary
281
     1
  0
DICTIONARY
  5
19
102
{ACAD_REACTORS
330
C
102
}
330
C
100
AcDbDictionary
281
     1
  3
Layout1
350
1D
  3
Model
350
21
  0
DICTIONARY
  5
119
102
{ACAD_REACTORS
330
C
102
}
330
C
100
AcDbDictionary
281
     1
  0
DICTIONARY
  5
16
102
{ACAD_REACTORS
330
C
102
}
330
C
100
AcDbDictionary
281
     1
  3
Standard
350
17
  0
DICTIONARY
  5
18
102
{ACAD_REACTORS
330
C
102
}
330
C
100
AcDbDictionary
281
     1
  0
ACDBDICTIONARYWDFLT
  5
E
102
{ACAD_REACTORS
330
C
102
}
330
C
100
AcDbDictionary
281
     1
  3
Normal
350
F
100
AcDbDictionaryWithDefault
340
F
  0
DICTIONARY
  5
125
102
{ACAD_REACTORS
330
C
102
}
330
C
100
AcDbDictionary
281
     1
  3
DIMASSOC
350
126
  3
PROJECTNAME
350
127
  0
XRECORD
  5
10F
102
{ACAD_REACTORS
330
DB
102
}
330
DB
100
AcDbXrecord
280
     1
340
1E
  0
XRECORD
  5
10E
102
{ACAD_REACTORS
330
DD
102
}
330
DD
100
AcDbXrecord
280
     1
340
1A
  0
LAYOUT
  5
1D
102
{ACAD_REACTORS
330
19
102
}
330
19
100
AcDbPlotSettings
  1

  2
\\NT_WORK01\HP LaserJet 5000 PCL 6
  4

  6

 40
0.0
 41
0.0
 42
0.0
 43
0.0
 44
0.0
 45
0.0
 46
0.0
 47
0.0
 48
0.0
 49
0.0
140
0.0
141
0.0
142
1.0
143
1.0
 70
   688
 72
     0
 73
     0
 74
     5
  7

 75
    16
147
1.0
 76
     0
 77
     2
 78
   300
148
0.0
149
0.0
100
AcDbLayout
  1
Layout1
 70
     0
 71
     1
 10
0.0
 20
0.0
 11
12.0
 21
9.0
 12
0.0
 22
0.0
 32
0.0
 14
1.000000000000000E+20
 24
1.000000000000000E+20
 34
1.000000000000000E+20
 15
-1.000000000000000E+20
 25
-1.000000000000000E+20
 35
-1.000000000000000E+20
146
0.0
 13
0.0
 23
0.0
 33
0.0
 16
1.0
 26
0.0
 36
0.0
 17
0.0
 27
1.0
 37
0.0
 76
     0
330
1A
  0
LAYOUT
  5
21
102
{ACAD_REACTORS
330
19
102
}
330
19
100
AcDbPlotSettings
  1

  2
none_device
  4
Letter_(8.50_x_11.00_Inches)
  6

 40
6.349999904632568
 41
6.349999904632568
 42
6.350006103515625
 43
6.350006103515625
 44
215.8999938964844
 45
279.3999938964844
 46
0.0
 47
0.0
 48
0.0
 49
0.0
140
0.0
141
0.0
142
1.0
143
1.0
 70
 11952
 72
     0
 73
     1
 74
     0
  7

 75
     0
147
1.0
 76
     0
 77
     2
 78
   300
148
3124.2
149
0.0
100
AcDbLayout
  1
Model
 70
     1
 71
     0
 10
0.0
 20
0.0
 11
12.0
 21
9.0
 12
0.0
 22
0.0
 32
0.0
 14
0.0
 24
0.0
 34
0.0
 15
0.0
 25
0.0
 35
0.0
146
0.0
 13
0.0
 23
0.0
 33
0.0
 16
1.0
 26
0.0
 36
0.0
 17
0.0
 27
1.0
 37
0.0
 76
     0
330
1E
  0
MLINESTYLE
  5
17
102
{ACAD_REACTORS
330
16
102
}
330
16
100
AcDbMlineStyle
  2
STANDARD
 70
     0
  3

 62
   256
 51
90.0
 52
90.0
 71
     2
 49
0.5
 62
   256
  6
BYLAYER
 49
-0.5
 62
   256
  6
BYLAYER
  0
ACDBPLACEHOLDER
  5
F
102
{ACAD_REACTORS
330
E
102
}
330
E
  0
DICTIONARYVAR
  5
126
102
{ACAD_REACTORS
330
125
102
}
330
125
100
DictionaryVariables
280
     0
  1
1
  0
DICTIONARYVAR
  5
127
102
{ACAD_REACTORS
330
125
102
}
330
125
100
DictionaryVariables
280
     0
  1

  0
ENDSEC
  0
EOF
