  0
SECTION
  2
HEADER
  9
$ACADVER
  1
AC1009
  9
$INSBASE
 10
0.0
 20
0.0
 30
0.0
  9
$EXTMIN
 10
612.8405483269490333
 20
-61.5907312494303412
 30
-47.7025090047744129
  9
$EXTMAX
 10
812.8405483269490333
 20
382.5735262323939878
 30
-47.7025090047743632
  9
$LIMMIN
 10
0.0
 20
0.0
  9
$LIMMAX
 10
210.0
 20
297.0
  9
$ORTHOMODE
 70
     1
  9
$REGENMODE
 70
     1
  9
$FILLMODE
 70
     1
  9
$QTEXTMODE
 70
     0
  9
$MIRRTEXT
 70
     1
  9
$DRAGMODE
 70
     2
  9
$LTSCALE
 40
10.0
  9
$OSMODE
 70
  2495
  9
$ATTMODE
 70
     1
  9
$TEXTSIZE
 40
3.5
  9
$TRACEWID
 40
0.5
  9
$TEXTSTYLE
  7
STANDARD
  9
$CLAYER
  8
STEMPEL
  9
$CELTYPE
  6
BYLAYER
  9
$CECOLOR
 62
   256
  9
$DIMSCALE
 40
1.0
  9
$DIMASZ
 40
3.5
  9
$DIMEXO
 40
1.0
  9
$DIMDLI
 40
7.0
  9
$DIMRND
 40
0.0
  9
$DIMDLE
 40
0.0
  9
$DIMEXE
 40
1.0
  9
$DIMTP
 40
0.0
  9
$DIMTM
 40
0.0
  9
$DIMTXT
 40
3.5
  9
$DIMCEN
 40
1.5
  9
$DIMTSZ
 40
0.0
  9
$DIMTOL
 70
     0
  9
$DIMLIM
 70
     0
  9
$DIMTIH
 70
     0
  9
$DIMTOH
 70
     0
  9
$DIMSE1
 70
     0
  9
$DIMSE2
 70
     0
  9
$DIMTAD
 70
     1
  9
$DIMZIN
 70
     8
  9
$DIMBLK
  1

  9
$DIMASO
 70
     1
  9
$DIMSHO
 70
     0
  9
$DIMPOST
  1

  9
$DIMAPOST
  1

  9
$DIMALT
 70
     0
  9
$DIMALTD
 70
     2
  9
$DIMALTF
 40
25.3999999999999986
  9
$DIMLFAC
 40
2.0
  9
$DIMTOFL
 70
     1
  9
$DIMTVP
 40
0.0
  9
$DIMTIX
 70
     0
  9
$DIMSOXD
 70
     0
  9
$DIMSAH
 70
     0
  9
$DIMBLK1
  1

  9
$DIMBLK2
  1

  9
$DIMSTYLE
  2
STANDARD
  9
$DIMCLRD
 70
     0
  9
$DIMCLRE
 70
     0
  9
$DIMCLRT
 70
     1
  9
$DIMTFAC
 40
0.5
  9
$DIMGAP
 40
1.5
  9
$LUNITS
 70
     2
  9
$LUPREC
 70
     2
  9
$SKETCHINC
 40
1.0
  9
$FILLETRAD
 40
14.5
  9
$AUNITS
 70
     0
  9
$AUPREC
 70
     0
  9
$MENU
  1
ACAD
  9
$ELEVATION
 40
0.0
  9
$PELEVATION
 40
0.0
  9
$THICKNESS
 40
0.0
  9
$LIMCHECK
 70
     0
  9
$BLIPMODE
 70
     0
  9
$CHAMFERA
 40
0.0
  9
$CHAMFERB
 40
0.0
  9
$SKPOLY
 70
     0
  9
$TDCREATE
 40
2455397.8646990740671754
  9
$TDUPDATE
 40
2459627.6011689808219671
  9
$TDINDWG
 40
0.0891707407
  9
$TDUSRTIMER
 40
0.0891707407
  9
$USRTIMER
 70
     1
  9
$ANGBASE
 50
0.0
  9
$ANGDIR
 70
     0
  9
$PDMODE
 70
     0
  9
$PDSIZE
 40
0.0
  9
$PLINEWID
 40
0.0
  9
$COORDS
 70
     1
  9
$SPLFRAME
 70
     0
  9
$SPLINETYPE
 70
     6
  9
$SPLINESEGS
 70
     8
  9
$ATTDIA
 70
     1
  9
$ATTREQ
 70
     1
  9
$HANDLING
 70
     1
  9
$HANDSEED
  5
1477
  9
$SURFTAB1
 70
     6
  9
$SURFTAB2
 70
     6
  9
$SURFTYPE
 70
     6
  9
$SURFU
 70
     6
  9
$SURFV
 70
     6
  9
$UCSNAME
  2

  9
$UCSORG
 10
0.0
 20
0.0
 30
0.0
  9
$UCSXDIR
 10
1.0
 20
0.0
 30
0.0
  9
$UCSYDIR
 10
0.0
 20
1.0
 30
0.0
  9
$PUCSNAME
  2

  9
$PUCSORG
 10
0.0
 20
0.0
 30
0.0
  9
$PUCSXDIR
 10
1.0
 20
0.0
 30
0.0
  9
$PUCSYDIR
 10
0.0
 20
1.0
 30
0.0
  9
$USERI1
 70
     0
  9
$USERI2
 70
     0
  9
$USERI3
 70
     0
  9
$USERI4
 70
     0
  9
$USERI5
 70
     0
  9
$USERR1
 40
0.0
  9
$USERR2
 40
0.0
  9
$USERR3
 40
0.0
  9
$USERR4
 40
0.0
  9
$USERR5
 40
0.0
  9
$WORLDVIEW
 70
     1
  9
$SHADEDGE
 70
     3
  9
$SHADEDIF
 70
    70
  9
$TILEMODE
 70
     1
  9
$MAXACTVP
 70
    16
  9
$PLIMCHECK
 70
     0
  9
$PEXTMIN
 10
-36.2269961704998309
 20
-238.6956317716118008
 30
-1.634987963638195
  9
$PEXTMAX
 10
43.0829795133225204
 20
157.2330681950357132
 30
30.3849885600339
  9
$PLIMMIN
 10
-88.8663919185830764
 20
-124.944170079026506
  9
$PLIMMAX
 10
121.1336080814168952
 20
172.0558299209735083
  9
$UNITMODE
 70
     0
  9
$VISRETAIN
 70
     0
  9
$PLINEGEN
 70
     0
  9
$PSLTSCALE
 70
     0
  0
ENDSEC
  0
SECTION
  2
TABLES
  0
TABLE
  2
VPORT
 70
     1
  0
VPORT
  2
*ACTIVE
 70
     0
 10
0.0
 20
0.0
 11
1.0
 21
1.0
 12
121.0116803184292991
 22
-50.0466720084763423
 13
0.0
 23
0.0
 14
1.0
 24
1.0
 15
10.0
 25
10.0
 16
-0.0000000000003411
 26
0.0
 36
1397.9936025137569686
 17
591.8288680085197484
 27
210.5380694999581976
 37
-23.85125450238721
 40
447.3406407296084808
 41
1.7852028639618129
 42
50.0
 43
0.0
 44
0.0
 50
0.0
 51
0.0
 71
     0
 72
  1500
 73
     1
 74
     0
 75
     0
 76
     0
 77
     0
 78
     0
  0
ENDTAB
  0
TABLE
  2
LTYPE
 70
     6
  0
LTYPE
  2
CONTINUOUS
 70
     0
  3
Solid line
 72
    65
 73
     0
 40
0.0
  0
LTYPE
  2
PHANTOM2
 70
     0
  3
Phantom (.5x) ___ _ _ ___ _ _ ___ _ _ ___ _ _
 72
    65
 73
     6
 40
1.25
 49
0.625
 49
-0.125
 49
0.125
 49
-0.125
 49
0.125
 49
-0.125
  0
LTYPE
  2
STRICHPUNKT
 70
     0
  3
__ . __ . __ . __ . __ . __ . __ . __ . __ . __
 72
    65
 73
     4
 40
1.0
 49
0.5
 49
-0.25
 49
0.0
 49
-0.25
  0
LTYPE
  2
VERDECKT
 70
     0
  3
Verdeckt __ __ __ __ __ __ __ __ __ __ __ __ __
 72
    65
 73
     2
 40
0.375
 49
0.25
 49
-0.125
  0
ENDTAB
  0
TABLE
  2
LAYER
 70
    14
  0
LAYER
  2
0
 70
     0
 62
     7
  6
CONTINUOUS
  0
LAYER
  2
VOLL
 70
     0
 62
     1
  6
CONTINUOUS
  0
LAYER
  2
STEMPEL
 70
     0
 62
     3
  6
CONTINUOUS
  0
LAYER
  2
DEFPOINTS
 70
     0
 62
     7
  6
CONTINUOUS
  0
LAYER
  2
ADSK_ASSOC_ENTITY_BACKUPS
 70
     1
 62
    -7
  6
CONTINUOUS
  0
LAYER
  2
MITTEL
 70
     0
 62
     2
  6
STRICHPUNKT
  0
LAYER
  2
MD_SCHRAFFUR
 70
     0
 62
    -7
  6
CONTINUOUS
  0
ENDTAB
  0
TABLE
  2
STYLE
 70
     4
  0
STYLE
  2
STANDARD
 70
     0
 40
0.0
 41
0.8
 50
0.0
 71
     0
 42
3.5
  3
simplex.shx
  4

  0
STYLE
  2
GREEKS
 70
     0
 40
0.0
 41
0.8
 50
0.0
 71
     0
 42
2.5
  3
SIMPLEX.shx
  4

  0
ENDTAB
  0
TABLE
  2
VIEW
 70
     1
  0
ENDTAB
  0
TABLE
  2
UCS
 70
     0
  0
ENDTAB
  0
TABLE
  2
APPID
 70
    23
  0
APPID
  2
ACAD
 70
     0
  0
APPID
  2
ACAD_NAV_VCDISPLAY
 70
     0
  0
APPID
  2
ACAD_MLEADERVER
 70
     0
  0
APPID
  2
ACAD_EXEMPT_FROM_CAD_STANDARDS
 70
     0
  0
APPID
  2
ACAD_PSEXT
 70
     0
  0
APPID
  2
ACAECLAYERSTANDARD
 70
     0
  0
APPID
  2
ACAUTHENVIRON
 70
     0
  0
APPID
  2
ACCMTRANSPARENCY
 70
     0
  0
APPID
  2
ACSYNERGY
 70
     0
  0
APPID
  2
SYNERGY_BODY_TBR_ID
 70
     0
  0
APPID
  2
ACAD_VIEW_EDGE_ID
 70
     0
  0
APPID
  2
ACAD_MODELDOC_XFORM
 70
     0
  0
APPID
  2
GRADIENTCOLOR1ACI
 70
     0
  0
APPID
  2
GRADIENTCOLOR2ACI
 70
     0
  0
APPID
  2
ACAD_DSTYLE_DIMRADIAL_EXTENSION
 70
     0
  0
APPID
  2
ACAD_DIMASSOC_CALC_DIMLFAC
 70
     0
  0
APPID
  2
ACAD_DIMASSOC_DIMLFAC
 70
     0
  0
APPID
  2
ACAD_DIMASSOC_OVERRIDDEN_D
 70
     0
  0
APPID
  2
ACSYNERGYSKETCH
 70
     0
  0
APPID
  2
ACAD_DSTYLE_DIMJAG
 70
     0
  0
APPID
  2
ACAD_DSTYLE_DIMTALN
 70
     0
  0
APPID
  2
ACADANNOMONITORALERTICONDI
 70
     0
  0
APPID
  2
AcDbAttr
 70
     0
  0
ENDTAB
  0
TABLE
  2
DIMSTYLE
 70
     2
  0
DIMSTYLE
  2
STANDARD
 70
     0
  3

  4

  5

  6

  7

 40
1.0
 41
0.18
 42
0.0625
 43
0.38
 44
0.18
 45
0.0
 46
0.0
 47
0.0
 48
0.0
140
0.18
141
0.09
142
0.0
143
25.3999999999999986
144
1.0
145
0.0
146
1.0
147
0.09
 71
     0
 72
     0
 73
     1
 74
     1
 75
     0
 76
     0
 77
     0
 78
     0
170
     0
171
     2
172
     0
173
     0
174
     0
175
     0
176
     0
177
     0
178
     0
  0
ENDTAB
  0
ENDSEC
  0
SECTION
  2
BLOCKS
  0
BLOCK
  8
0
  2
$MODEL_SPACE
 70
     0
 10
0.0
 20
0.0
 30
0.0
  3
$MODEL_SPACE
  1

  0
ENDBLK
  5
36
  8
0
  0
BLOCK
 67
     1
  8
0
  2
$PAPER_SPACE
 70
     0
 10
0.0
 20
0.0
 30
0.0
  3
$PAPER_SPACE
  1

  0
ENDBLK
  5
34
 67
     1
  8
0
  0
BLOCK
  8
0
  2
*S4
 70
     1
 10
0.0
 20
0.0
 30
0.0
  3
*S4
  1

  0
ENDBLK
  5
9C6
  8
0
  0
BLOCK
  8
0
  2
A$CA3EFF45D
 70
     0
 10
0.0
 20
0.0
 30
0.0
  3
A$CA3EFF45D
  1

  0
CIRCLE
  5
139D
  8
0
 10
400.8101361394710125
 20
349.9193248247639758
 30
0.0
 40
5.5
  0
CIRCLE
  5
139E
  8
0
 10
499.1971271494618918
 20
317.9514535925283099
 30
0.0
 40
5.5
  0
CIRCLE
  5
139F
  8
0
 10
560.0036316444663953
 20
401.6444270265017167
 30
0.0
 40
5.5
  0
CIRCLE
  5
13A0
  8
0
 10
499.1971271494617213
 20
485.3374004604751804
 30
0.0
 40
5.5000000000000018
  0
CIRCLE
  5
13A1
  8
0
 10
400.8101361394710125
 20
453.3695292282394007
 30
0.0
 40
5.5000000000000009
  0
CIRCLE
  5
13A2
  8
0
 10
444.8101361394710125
 20
485.337400460475294
 30
0.0
 40
5.5000000000000027
  0
CIRCLE
  5
13A3
  8
0
 10
543.1971271494616076
 20
453.3695292282394007
 30
0.0
 40
5.5
  0
CIRCLE
  5
13A4
  8
0
 10
543.1971271494619486
 20
349.9193248247640895
 30
0.0
 40
5.5
  0
CIRCLE
  5
13A5
  8
0
 10
444.8101361394711262
 20
317.9514535925281962
 30
0.0
 40
5.4999999999999991
  0
CIRCLE
  5
13A6
  8
0
 10
384.0036316444663953
 20
401.6444270265017167
 30
0.0
 40
5.5000000000000009
  0
CIRCLE
  5
13A7
  8
0
 10
472.0036316444662816
 20
401.6444270265017167
 30
0.0
 40
100.0
  0
CIRCLE
  5
13A8
  8
0
 10
472.0036316444662248
 20
401.644427026501603
 30
0.0
 40
63.1346266195113799
  0
CIRCLE
  5
13A9
  8
0
 10
472.0036316444662248
 20
401.644427026501603
 30
0.0
 40
65.6251133647407414
  0
CIRCLE
  5
13AA
  8
0
 10
472.0036316444662248
 20
401.644427026501603
 30
0.0
 40
66.5
  0
CIRCLE
  5
13AB
  8
0
 10
472.0036316444662816
 20
401.6444270265017167
 30
0.0
 40
72.6413180959356168
  0
CIRCLE
  5
13AC
  8
0
  6
VERDECKT
 62
     1
 10
472.0036316444662816
 20
401.6444270265017167
 30
0.0
 40
70.5499999999999829
  0
CIRCLE
  5
13AD
  8
0
  6
VERDECKT
 62
     1
 10
472.0036316444662248
 20
401.644427026501603
 30
0.0
 40
64.0
  0
CIRCLE
  5
13AE
  8
0
  6
VERDECKT
 62
     1
 10
472.0036316444662816
 20
401.6444270265017167
 30
0.0
 40
70.550000000000054
  0
ENDBLK
  5
13B0
  8
0
  0
BLOCK
  8
0
  2
A$CC4FB2BE1
 70
     0
 10
0.0
 20
0.0
 30
0.0
  3
A$CC4FB2BE1
  1

  0
LINE
  5
13B4
  8
0
 10
572.0036316444662816
 20
-67.5000000000000711
 30
0.000000000000015
 11
372.0036316444663953
 21
-67.5000000000000711
 31
0.000000000000015
210
0.0
220
1.0
230
-0.0000000000000002
  0
LINE
  5
13B5
  8
0
 10
372.0036316444663953
 20
-87.5000000000000711
 30
0.0000000000000194
 11
572.0036316444662816
 21
-87.5000000000000711
 31
0.0000000000000194
210
0.0
220
1.0
230
-0.0000000000000002
  0
LINE
  5
13B6
  8
0
 10
572.0036316444662816
 20
-67.5000000000000711
 30
0.000000000000015
 11
572.0036316444662816
 21
-87.5000000000000711
 31
0.0000000000000194
210
0.0
220
1.0
230
-0.0000000000000002
  0
LINE
  5
13B7
  8
0
 10
372.0036316444663953
 20
-67.5000000000000711
 30
0.000000000000015
 11
372.0036316444663953
 21
-87.5000000000000711
 31
0.0000000000000194
210
0.0
220
1.0
230
-0.0000000000000002
  0
LINE
  5
13B8
  8
0
 10
406.3785182797254834
 20
112.5
 30
-0.000000000000025
 11
537.628745009207023
 21
112.5
 31
-0.000000000000025
210
0.0
220
1.0
230
-0.0000000000000002
  0
LINE
  5
13B9
  8
0
 10
399.3623135485307785
 20
-66.1301866471623185
 30
0.0000000000000147
 11
544.6449497404020121
 21
-66.1301866471623185
 31
0.0000000000000147
210
0.0
220
1.0
230
-0.0000000000000002
  0
LINE
  5
13BA
  8
0
 10
537.628745009207023
 20
112.5
 30
-0.000000000000025
 11
538.4484547667965444
 21
103.1306745976673938
 31
-0.0000000000000229
210
0.0
220
1.0
230
-0.0000000000000002
  0
LINE
  5
13BB
  8
0
 10
406.3785182797254834
 20
112.5
 30
-0.000000000000025
 11
405.5588085221359052
 21
103.1306745976673938
 31
-0.0000000000000229
210
0.0
220
1.0
230
-0.0000000000000002
  0
ARC
  5
13BC
  8
0
 10
-420.0036316444538897
 20
101.866916327827596
 30
0.0
 40
14.49999999998772
210
0.0
220
-0.0000000000000002
230
-1.0
 50
359.9999999999951115
 51
4.9999999999991287
  0
ARC
  5
13BD
  8
0
 10
-524.0036316444785598
 20
101.866916327827596
 30
0.0
 40
14.4999999999875993
210
0.0
220
-0.0000000000000002
230
-1.0
 50
175.0000000000007958
 51
180.0000000000048033
  0
LINE
  5
13BE
  8
0
 10
401.4536316444663271
 20
-67.5000000000000853
 30
0.000000000000015
 11
399.3623135485307785
 21
-66.1301866471623327
 31
0.0000000000000147
210
0.0
220
1.0
230
-0.0000000000000002
  0
LINE
  5
13BF
  8
0
 10
542.5536316444663498
 20
-67.5000000000000853
 30
0.000000000000015
 11
544.6449497404020121
 21
-66.1301866471623327
 31
0.0000000000000147
210
0.0
220
1.0
230
-0.0000000000000002
  0
LINE
  5
13C0
  8
0
 10
538.503631644466509
 20
101.8669163278264023
 30
-0.0000000000000226
 11
538.503631644466509
 21
-54.3673396388002317
 31
0.0000000000000121
210
0.0
220
1.0
230
-0.0000000000000002
  0
LINE
  5
13C1
  8
0
 10
405.5036316444662248
 20
101.8669163278264023
 30
-0.0000000000000226
 11
405.5036316444662248
 21
-54.3673396388002317
 31
0.0000000000000121
210
0.0
220
1.0
230
-0.0000000000000002
  0
ARC
  5
13C2
  8
0
 10
-397.5036316444659974
 20
-54.3673396388000825
 30
0.0
 40
8.0000000000001137
210
0.0
220
-0.0000000000000002
230
-1.0
 50
180.0000000000009948
 51
213.2247988012107101
  0
ARC
  5
13C3
  8
0
 10
-546.5036316444667364
 20
-54.3673396388000825
 30
0.0
 40
8.0000000000001084
210
0.0
220
-0.0000000000000002
230
-1.0
 50
326.7752011987893184
 51
359.9999999999989768
  0
LINE
  5
13C4
  8
0
 10
539.8114137374728898
 20
-58.7507423678808465
 30
0.000000000000013
 11
544.6449497404020121
 21
-66.1301866471623327
 31
0.0000000000000147
210
0.0
220
1.0
230
-0.0000000000000002
  0
LINE
  5
13C5
  8
0
 10
404.1958495514599008
 20
-58.7507423678808465
 30
0.000000000000013
 11
399.3623135485307785
 21
-66.1301866471623327
 31
0.0000000000000147
210
0.0
220
1.0
230
-0.0000000000000002
  0
LINE
  5
13C6
  8
0
  6
VERDECKT
 62
     1
 10
395.3101361394711262
 20
-87.5000000000000711
 30
0.0000000000000194
 11
395.3101361394711262
 21
-67.5000000000000711
 31
0.000000000000015
210
0.0
220
1.0
230
-0.0000000000000002
  0
LINE
  5
13C7
  8
0
  6
VERDECKT
 62
     1
 10
406.3101361394711262
 20
-87.5000000000000711
 30
0.0000000000000194
 11
406.3101361394711262
 21
-67.5000000000000711
 31
0.000000000000015
210
0.0
220
1.0
230
-0.0000000000000002
  0
LINE
  5
13C8
  8
0
  6
VERDECKT
 62
     1
 10
493.6971271494618918
 20
-87.5000000000000711
 30
0.0000000000000194
 11
493.6971271494618918
 21
-67.5000000000000711
 31
0.000000000000015
210
0.0
220
1.0
230
-0.0000000000000002
  0
LINE
  5
13C9
  8
0
  6
VERDECKT
 62
     1
 10
504.6971271494618918
 20
-87.5000000000000711
 30
0.0000000000000194
 11
504.6971271494618918
 21
-67.5000000000000711
 31
0.000000000000015
210
0.0
220
1.0
230
-0.0000000000000002
  0
LINE
  5
13CA
  8
0
  6
VERDECKT
 62
     1
 10
554.5036316444662816
 20
-87.5000000000000711
 30
0.0000000000000194
 11
554.5036316444662816
 21
-67.5000000000000711
 31
0.000000000000015
210
0.0
220
1.0
230
-0.0000000000000002
  0
LINE
  5
13CB
  8
0
  6
VERDECKT
 62
     1
 10
565.5036316444663953
 20
-87.5000000000000711
 30
0.0000000000000194
 11
565.5036316444663953
 21
-67.5000000000000711
 31
0.000000000000015
210
0.0
220
1.0
230
-0.0000000000000002
  0
LINE
  5
13CC
  8
0
  6
VERDECKT
 62
     1
 10
537.6971271494619486
 20
-87.5000000000000711
 30
0.0000000000000194
 11
537.6971271494619486
 21
-67.5000000000000711
 31
0.000000000000015
210
0.0
220
1.0
230
-0.0000000000000002
  0
LINE
  5
13CD
  8
0
  6
VERDECKT
 62
     1
 10
548.6971271494619486
 20
-87.5000000000000711
 30
0.0000000000000194
 11
548.6971271494619486
 21
-67.5000000000000711
 31
0.000000000000015
210
0.0
220
1.0
230
-0.0000000000000002
  0
LINE
  5
13CE
  8
0
  6
VERDECKT
 62
     1
 10
439.3101361394711262
 20
-87.5000000000000711
 30
0.0000000000000194
 11
439.3101361394711262
 21
-67.5000000000000711
 31
0.000000000000015
210
0.0
220
1.0
230
-0.0000000000000002
  0
LINE
  5
13CF
  8
0
  6
VERDECKT
 62
     1
 10
450.3101361394711262
 20
-87.5000000000000711
 30
0.0000000000000194
 11
450.3101361394711262
 21
-67.5000000000000711
 31
0.000000000000015
210
0.0
220
1.0
230
-0.0000000000000002
  0
LINE
  5
13D0
  8
0
  6
VERDECKT
 62
     1
 10
378.5036316444663953
 20
-87.5000000000000711
 30
0.0000000000000194
 11
378.5036316444663953
 21
-67.5000000000000711
 31
0.000000000000015
210
0.0
220
1.0
230
-0.0000000000000002
  0
LINE
  5
13D1
  8
0
  6
VERDECKT
 62
     1
 10
389.5036316444663953
 20
-87.5000000000000711
 30
0.0000000000000194
 11
389.5036316444663953
 21
-67.5000000000000711
 31
0.000000000000015
210
0.0
220
1.0
230
-0.0000000000000002
  0
LINE
  5
13D2
  8
0
  6
VERDECKT
 62
     1
 10
401.4536316444663271
 20
-87.5000000000000711
 30
0.0000000000000194
 11
401.4536316444663271
 21
-67.5000000000000711
 31
0.000000000000015
210
0.0
220
1.0
230
-0.0000000000000002
  0
LINE
  5
13D3
  8
0
  6
VERDECKT
 62
     1
 10
542.5536316444663498
 20
-87.5000000000000711
 30
0.0000000000000194
 11
542.5536316444663498
 21
-67.5000000000000711
 31
0.000000000000015
210
0.0
220
1.0
230
-0.0000000000000002
  0
LINE
  5
13D4
  8
0
  6
VERDECKT
 62
     1
 10
408.8690050249550154
 20
112.2821106431309062
 30
-0.0000000000000249
 11
535.1382582639776047
 21
112.2821106431309062
 31
-0.0000000000000249
210
0.0
220
1.0
230
-0.0000000000000002
  0
ARC
  5
13D5
  8
0
  6
VERDECKT
 62
     1
 10
-420.0036316444281965
 20
101.8669163278288039
 30
0.0
 40
11.99999999996197
210
0.0
220
-0.0000000000000002
230
-1.0
 50
359.9999999999885745
 51
5.0000000000041682
  0
ARC
  5
13D6
  8
0
  6
VERDECKT
 62
     1
 10
-524.0036316444743534
 20
101.8669163278268002
 30
0.0
 40
11.99999999999193
210
0.0
220
-0.0000000000000002
230
-1.0
 50
174.9999999999988916
 51
180.0000000000019895
  0
LINE
  5
13D7
  8
0
  6
VERDECKT
 62
     1
 10
535.1382582639776047
 20
112.2821106431309062
 30
-0.0000000000000249
 11
535.9579680215672397
 21
102.9127852407982004
 31
-0.0000000000000229
210
0.0
220
1.0
230
-0.0000000000000002
  0
LINE
  5
13D8
  8
0
  6
VERDECKT
 62
     1
 10
408.8690050249550154
 20
112.2821106431309062
 30
-0.0000000000000249
 11
408.0492952673653235
 21
102.9127852407982004
 31
-0.0000000000000229
210
0.0
220
1.0
230
-0.0000000000000002
  0
LINE
  5
13D9
  8
0
  6
VERDECKT
 62
     1
 10
408.8690050249550154
 20
112.2821106431308067
 30
-0.0000000000000249
 11
406.3785182797254834
 21
112.4999999999999005
 31
-0.000000000000025
210
0.0
220
1.0
230
-0.0000000000000002
  0
LINE
  5
13DA
  8
0
  6
VERDECKT
 62
     1
 10
535.1382582639776047
 20
112.2821106431308067
 30
-0.0000000000000249
 11
537.628745009207023
 21
112.4999999999999005
 31
-0.000000000000025
210
0.0
220
1.0
230
-0.0000000000000002
  0
LINE
  5
13DB
  8
0
  6
VERDECKT
 62
     1
 10
537.7200956415374549
 20
-60.1205557207191532
 30
0.0000000000000133
 11
542.5536316444663498
 21
-67.5000000000000568
 31
0.000000000000015
210
0.0
220
1.0
230
-0.0000000000000002
  0
LINE
  5
13DC
  8
0
  6
VERDECKT
 62
     1
 10
406.2871676473952789
 20
-60.1205557207191532
 30
0.0000000000000133
 11
401.4536316444663271
 21
-67.5000000000000568
 31
0.000000000000015
210
0.0
220
1.0
230
-0.0000000000000002
  0
ARC
  5
13DD
  8
0
  6
VERDECKT
 62
     1
 10
-397.5036316444659974
 20
-54.3673396388005088
 30
0.0
 40
10.5000000000001101
210
0.0
220
-0.0000000000000002
230
-1.0
 50
179.9999999999982094
 51
213.2247988012117901
  0
ARC
  5
13DE
  8
0
  6
VERDECKT
 62
     1
 10
-546.5036316444667364
 20
-54.367339638800523
 30
0.0
 40
10.5000000000001101
210
0.0
220
-0.0000000000000002
230
-1.0
 50
326.7752011987881247
 51
0.0000000000018638
  0
LINE
  5
13DF
  8
0
  6
VERDECKT
 62
     1
 10
536.003631644466509
 20
101.8669163278264023
 30
-0.0000000000000226
 11
536.003631644466509
 21
-54.3673396388001677
 31
0.0000000000000121
210
0.0
220
1.0
230
-0.0000000000000002
  0
LINE
  5
13E0
  8
0
  6
VERDECKT
 62
     1
 10
408.0036316444662816
 20
101.8669163278264023
 30
-0.0000000000000226
 11
408.0036316444662816
 21
-54.3673396388001677
 31
0.0000000000000121
210
0.0
220
1.0
230
-0.0000000000000002
  0
ENDBLK
  5
13E2
  8
0
  0
BLOCK
  8
0
  2
*X24
 70
     1
 10
0.0
 20
0.0
 30
0.0
  3
*X24
  1

  0
LINE
  5
1436
  8
0
 62
     0
 10
40.3112623338420306
 20
156.0889694390193085
 30
28.7500000000000213
 11
39.4007788110968988
 21
156.9994529617644901
 31
28.7500000000000213
  0
LINE
  5
1437
  8
0
 62
     0
 10
40.9947612897316986
 20
153.991256920756598
 30
28.7500000000000213
 11
38.9933898830528065
 21
155.9926283274355114
 31
28.7500000000000213
  0
LINE
  5
1438
  8
0
 62
     0
 10
41.3149405787183568
 20
152.2568640693968121
 30
28.7500000000000213
 11
39.7479701835026873
 21
153.8238344646125029
 31
28.7500000000000213
  0
LINE
  5
1439
  8
0
 62
     0
 10
41.4260674589119802
 20
150.7315236268300964
 30
28.7500000000000213
 11
40.0772452085533928
 21
152.0803458771887051
 31
28.7500000000000213
  0
LINE
  5
143A
  8
0
 62
     0
 10
41.4296067430406509
 20
149.3137707803284115
 30
28.7500000000000213
 11
40.1786874297283987
 21
150.5646900936405927
 31
28.7500000000000213
  0
LINE
  5
143B
  8
0
 62
     0
 10
41.4296067430406367
 20
147.8995572179551914
 30
28.7500000000000213
 11
40.179606743040658
 21
149.1495572179551914
 31
28.7500000000000213
  0
LINE
  5
143C
  8
0
 62
     0
 10
41.4296067430406083
 20
146.4853436555821986
 30
28.7500000000000213
 11
40.179606743040658
 21
147.7353436555821133
 31
28.7500000000000213
  0
LINE
  5
143D
  8
0
 62
     0
 10
41.4296067430406083
 20
145.0711300932090921
 30
28.7500000000000213
 11
40.1796067430406225
 21
146.3211300932090921
 31
28.7500000000000213
  0
LINE
  5
143E
  8
0
 62
     0
 10
41.4296067430406083
 20
143.6569165308360141
 30
28.7500000000000213
 11
40.179606743040658
 21
144.9069165308360141
 31
28.7500000000000213
  0
LINE
  5
143F
  8
0
 62
     0
 10
41.4296067430406225
 20
142.2427029684629076
 30
28.7500000000000213
 11
40.1796067430406509
 21
143.4927029684629076
 31
28.7500000000000213
  0
LINE
  5
1440
  8
0
 62
     0
 10
41.4295868029103005
 20
140.8285093462201019
 30
28.7500000000000213
 11
40.1796067430406225
 21
142.0784894060898012
 31
28.7500000000000213
  0
LINE
  5
1441
  8
0
 62
     0
 10
41.3664118644751611
 20
139.4774707222821917
 30
28.7500000000000213
 11
40.1783373160684292
 21
140.6655452706889093
 31
28.7500000000000213
  0
LINE
  5
1442
  8
0
 62
     0
 10
41.1986871753827018
 20
138.2309818490014948
 30
28.7500000000000213
 11
40.0955294240353908
 21
139.3341396003488057
 31
28.7500000000000213
  0
LINE
  5
1443
  8
0
 62
     0
 10
40.9449217016950513
 20
137.0705337603160956
 30
28.7500000000000213
 11
39.9037086948291133
 21
138.1117467671820123
 31
28.7500000000000213
  0
LINE
  5
1444
  8
0
 62
     0
 10
40.617403379060768
 20
135.9838385205773079
 30
28.7500000000000213
 11
39.6226460972627805
 21
136.9785958023753096
 31
28.7500000000000213
  0
LINE
  5
1445
  8
0
 62
     0
 10
40.2246681781100577
 20
134.9623601591549118
 30
28.7500000000000213
 11
39.2651914194058094
 21
135.9218369178591104
 31
28.7500000000000213
  0
LINE
  5
1446
  8
0
 62
     0
 10
39.7950273383667508
 20
133.9777874365250909
 30
28.7500000000000213
 11
38.8405002544306086
 21
134.9323145204612047
 31
28.7500000000000213
  0
LINE
  5
1447
  8
0
 62
     0
 10
39.4524524622894077
 20
132.9061487502293062
 30
28.7500000000000213
 11
38.439763695856918
 21
133.9188375166617959
 31
28.7500000000000213
  0
LINE
  5
1448
  8
0
 62
     0
 10
39.2355534151425829
 20
131.7088342350031098
 30
28.7500000000000213
 11
38.1390968400915469
 21
132.805290810054089
 31
28.7500000000000213
  0
LINE
  5
1449
  8
0
 62
     0
 10
39.1796067430406225
 20
130.3505673447320135
 30
28.7500000000000213
 11
37.9612361440527906
 21
131.5689379437197886
 31
28.7500000000000213
  0
LINE
  5
144A
  8
0
 62
     0
 10
39.1796067430406225
 20
128.936353782358907
 30
28.7500000000000213
 11
37.9294025672590109
 21
130.1865579581404972
 31
28.7500000000000213
  0
LINE
  5
144B
  8
0
 62
     0
 10
39.1796067430406296
 20
127.522140219985701
 30
28.7500000000000213
 11
37.9294488031173529
 21
128.7722981599090133
 31
28.7500000000000213
  0
LINE
  5
144C
  8
0
 62
     0
 10
39.1796067430406225
 20
126.107926657612694
 30
28.7500000000000213
 11
37.9294950389756735
 21
127.3580383616776004
 31
28.7500000000000213
  0
LINE
  5
144D
  8
0
 62
     0
 10
39.1796067430406367
 20
124.6937130952396018
 30
28.7500000000000213
 11
37.9295412748340084
 21
125.9437785634462017
 31
28.7500000000000213
  0
LINE
  5
144E
  8
0
 62
     0
 10
39.1568917135773518
 20
123.3022145623297945
 30
28.7500000000000213
 11
37.9295875106923503
 21
124.529518765214803
 31
28.7500000000000213
  0
LINE
  5
144F
  8
0
 62
     0
 10
38.98151692841531
 20
122.0633757851186942
 30
28.7500000000000213
 11
37.8896661004067994
 21
123.1552266131271978
 31
28.7500000000000213
  0
LINE
  5
1450
  8
0
 62
     0
 10
38.6712846001584722
 20
120.9593945510024042
 30
28.7500000000000213
 11
37.671819510010053
 21
121.958859641150795
 31
28.7500000000000213
  0
LINE
  5
1451
  8
0
 62
     0
 10
38.252901483011911
 20
119.9635641057759017
 30
28.7500000000000213
 11
37.3105246776668622
 21
120.9059409111208936
 31
28.7500000000000213
  0
LINE
  5
1452
  8
0
 62
     0
 10
37.7414437206371218
 20
119.0608083057775985
 30
28.7500000000000213
 11
36.8338659230432484
 21
119.9683861033715004
 31
28.7500000000000213
  0
LINE
  5
1453
  8
0
 62
     0
 10
37.2033500032090529
 20
118.1846884608326036
 30
28.7500000000000213
 11
36.2813375232600066
 21
119.1067009407815931
 31
28.7500000000000213
  0
LINE
  5
1454
  8
0
 62
     0
 10
36.8240026234989912
 20
117.1498222781694949
 30
28.7500000000000213
 11
35.8261285905071674
 21
118.1476963111612974
 31
28.7500000000000213
  0
LINE
  5
1455
  8
0
 62
     0
 10
36.6796067430397272
 20
115.8800045962557022
 30
28.7500000000000213
 11
35.5234702581677269
 21
117.0361410811276954
 31
28.7500000000000213
  0
LINE
  5
1456
  8
0
 62
     0
 10
36.679606743039777
 20
114.4657910338824962
 30
28.7500000000000213
 11
35.4296067430406296
 21
115.7157910338817004
 31
28.7500000000000213
  0
LINE
  5
1457
  8
0
 62
     0
 10
36.6796067430398693
 20
113.0515774715094039
 30
28.7500000000000213
 11
35.429606743040658
 21
114.3015774715085939
 31
28.7500000000000213
  0
LINE
  5
1458
  8
0
 62
     0
 10
36.6796067430399333
 20
111.637363909136198
 30
28.7500000000000213
 11
35.4296067430406509
 21
112.8873639091355017
 31
28.7500000000000213
  0
LINE
  5
1459
  8
0
 62
     0
 10
36.6796067430399901
 20
110.2231503467631057
 30
28.7500000000000213
 11
35.4296067430406367
 21
111.4731503467623952
 31
28.7500000000000213
  0
LINE
  5
145A
  8
0
 62
     0
 10
36.679606743040047
 20
108.8089367843898998
 30
28.7500000000000213
 11
35.4296067430406367
 21
110.0589367843893029
 31
28.7500000000000213
  0
LINE
  5
145B
  8
0
 62
     0
 10
36.679606743040118
 20
107.3947232220166939
 30
28.7500000000000213
 11
35.4296067430406296
 21
108.6447232220161965
 31
28.7500000000000213
  0
LINE
  5
145C
  8
0
 62
     0
 10
36.6796067430402104
 20
105.9805096596436016
 30
28.7500000000000213
 11
35.429606743040658
 21
107.2305096596431042
 31
28.7500000000000213
  0
LINE
  5
145D
  8
0
 62
     0
 10
36.6796067430402672
 20
104.5662960972703956
 30
28.7500000000000213
 11
35.4296067430406509
 21
105.8162960972699977
 31
28.7500000000000213
  0
LINE
  5
145E
  8
0
 62
     0
 10
36.6796067430403312
 20
103.1520825348972039
 30
28.7500000000000213
 11
35.4296067430406367
 21
104.4020825348969055
 31
28.7500000000000213
  0
LINE
  5
145F
  8
0
 62
     0
 10
36.6796067430404023
 20
101.7378689725240974
 30
28.7500000000000213
 11
35.4296067430406367
 21
102.987868972523799
 31
28.7500000000000213
  0
LINE
  5
1460
  8
0
 62
     0
 10
36.679606743040452
 20
100.3236554101509057
 30
28.7500000000000213
 11
35.4296067430406296
 21
101.5736554101507068
 31
28.7500000000000213
  0
LINE
  5
1461
  8
0
 62
     0
 10
36.6796067430405515
 20
98.909441847777785
 30
28.7500000000000213
 11
35.429606743040658
 21
100.1594418477776003
 31
28.7500000000000213
  0
LINE
  5
1462
  8
0
 62
     0
 10
36.6796067430406012
 20
97.4952282854046359
 30
28.7500000000000213
 11
35.4296067430406509
 21
98.7452282854045791
 31
28.7500000000000213
  0
LINE
  5
1463
  8
0
 62
     0
 10
36.6844634400394227
 20
96.0761580260327008
 30
28.7500000000000213
 11
35.4296067430406723
 21
97.3310147230314442
 31
28.7500000000000213
  0
LINE
  5
1464
  8
0
 62
     0
 10
37.4637380092918804
 20
93.8826698944071438
 30
28.7500000000000213
 11
35.4426203887430802
 21
95.9037875149559227
 31
28.7500000000000213
  0
LINE
  5
1465
  8
0
 62
     0
 10
39.6234626281083067
 20
90.3087317132175826
 30
28.7500000000000213
 11
35.9614204223676666
 21
93.9707739189582298
 31
28.7500000000000213
  0
LINE
  5
1466
  8
0
 62
     0
 10
38.7689529227470118
 20
89.7490278562058279
 30
28.7500000000000213
 11
38.5024245185285992
 21
90.0155562604242334
 31
28.7500000000000213
  0
ENDBLK
  5
1468
  8
0
  0
ENDSEC
  0
SECTION
  2
ENTITIES
  0
TEXT
  5
8F
  8
VOLL
 10
78.076754716981128
 20
31.025947764705851
 30
0.0
 40
1.8
  1

  7
GREEKS
  0
INSERT
  5
9C8
  8
ADSK_ASSOC_ENTITY_BACKUPS
  2
*S4
 10
0.0
 20
0.0
 30
0.0
  0
INSERT
  5
13B1
  8
STEMPEL
  2
A$CA3EFF45D
 10
240.8369166824826095
 20
-363.2351582759321218
 30
-47.7025090047743703
  0
INSERT
  5
13E3
  8
STEMPEL
  2
A$CC4FB2BE1
 10
240.8369166824826095
 20
270.0735262323939878
 30
-47.7025090047743774
  0
VIEWPORT
  5
9A9
 67
     1
  8
0
 10
3.4279916714113479
 20
-40.7312817882880722
 30
0.0
 40
711.8677312203104748
 41
398.7601328627141015
 68
     1
 69
     1
1001
ACAD
1000
MVIEW
1002
{
1070
    16
1010
0.0
1020
0.0
1030
0.0
1010
0.0
1020
0.0
1030
1.0
1040
0.0
1040
398.7601328627141015
1040
3.4279916714113479
1040
-40.7312817882880722
1040
50.0
1040
0.0
1040
0.0
1070
     0
1070
  1500
1070
     1
1070
     1
1070
     0
1070
     0
1070
     0
1070
     0
1040
0.0
1040
0.0
1040
0.0
1040
10.0
1040
10.0
1040
10.0
1040
10.0
1070
     0
1002
{
1002
}
1002
}
  0
INSERT
  5
AFB
 67
     1
  8
MD_SCHRAFFUR
  6
CONTINUOUS
  2
*X24
 10
0.0
 20
0.0
 30
0.0
1001
GRADIENTCOLOR1ACI
1070
     5
1001
GRADIENTCOLOR2ACI
1070
     2
1001
ACAD
1000
HATCH
1002
{
1070
    19
1000
_U
1040
1.0
1040
2.3561944901923439
1070
     0
1000
R14_HATCH_DATA
1000
AFB
1011
1.0
1021
0.0
1031
0.0
1021
0.0
1031
0.0
1011
0.0
1021
0.0
1031
0.0
1021
1.0
1031
0.0
1011
0.0
1021
0.0
1031
0.0
1021
0.0
1031
1.0
1040
28.7500000000000213
1010
0.0
1020
0.0
1030
1.0
1000
_U
1070
     0
1070
     0
1071
        1
1071
        1
1071
       24
1070
     1
1040
39.7502657910082817
1040
90.3917877849168292
1040
37.3334977895439479
1040
94.0815099245566273
1070
     2
1040
40.6796067430407788
1040
96.2732112890973042
1040
4.0000000000001448
1040
2.561710521195927
1040
3.141592653589949
1070
     0
1070
     1
1040
36.6796067430406367
1040
96.2732112890979295
1040
36.6796067430397272
1040
115.9568811084973987
1070
     2
1040
41.6796067430369774
1040
115.9568811084976971
1040
4.9999999999972431
1040
3.141592653589742
1040
3.7484775642668842
1070
     0
1070
     2
1040
30.1796067430505914
1040
123.9412408198306963
1040
8.9999999999900648
1040
5.6763003965024916
1040
6.2831853071799646
1070
     1
1070
     1
1040
39.1796067430406367
1040
123.9412408198341069
1040
39.1796067430406367
1040
130.7068811084957929
1070
     2
1040
48.1796067430593382
1040
130.7068811084957929
1040
9.0000000000187015
1040
3.1415926535897931
1040
3.578049903129628
1070
     0
1070
     2
1040
26.4283318095035114
1040
140.8529758136945134
1040
15.0012749453252603
1040
5.8467280576397522
1040
6.2831456635360308
1070
     1
1070
     1
1040
41.4296067430406367
1040
140.8523811084978945
1040
41.4296067430406367
1040
150.4056923862661108
1070
     2
1040
26.4296067430494794
1040
150.4056923862661108
1040
14.9999999999911608
1040
0.0
1040
0.4363323129988521
1070
     1
1070
     1
1040
40.0242235485895108
1040
156.7449663123765049
1040
39.8088291417436011
1040
157.2068811084978961
1070
     1
1040
39.8088291417436011
1040
157.2068811084978961
1040
38.6938939418516128
1040
156.6401153816451881
1070
     1
1040
38.6938939418516128
1040
156.6401153816451881
1040
38.891338814799532
1040
156.2166934851885003
1070
     2
1040
26.4296067430542294
1040
150.4056923862675035
1040
13.7499999999864198
1040
5.8468529941816358
1040
6.2831853071797141
1070
     0
1070
     1
1040
40.1796067430406367
1040
150.4056923862657982
1040
40.1796067430406367
1040
140.8523811084997988
1070
     2
1040
26.4296067430400505
1040
140.8523811084997988
1040
13.7500000000005898
1040
6.2831853071795862
1040
6.7225047118023511
1070
     0
1070
     2
1040
47.8762585222018799
1040
130.7735409421430006
1040
9.9468751449545572
1040
2.7022732489670269
1040
3.14159265359041
1070
     1
1070
     1
1040
37.9293833772473334
1040
130.77354094213689
1040
37.9296067430397272
1040
123.9412408198334958
1070
     2
1040
30.1804158504392994
1040
123.9409874784794994
1040
7.7491908967416343
1040
6.2831526145594836
1040
6.8901029104763314
1070
     0
1070
     2
1040
41.678954237069469
1040
115.9570854160435971
1040
6.2493474973685039
1040
2.5346750502930471
1040
3.1416253462102128
1070
     1
1070
     1
1040
35.4296067430406367
1040
115.9568811084979956
1040
35.4296067430406367
1040
96.2732112890980716
1070
     2
1040
40.6796067430423207
1040
96.2732112890980716
1040
5.250000000001676
1040
3.1415926535897931
1040
3.7214747859834731
1070
     1
1070
     1
1040
36.2878387415759533
1040
93.3966032481384332
1040
38.70460674304028
1040
89.7068811084979529
1070
     1
1040
38.70460674304028
1040
89.7068811084979529
1040
39.750265791008168
1040
90.3917877849170139
1071
        0
1070
     0
1070
     0
1040
2.3561944901923439
1040
1.0
1070
     0
1070
     1
1040
2.3561944901923439
1040
-106.4075352181278049
1040
-115.7994474714468964
1040
-0.7071067811865476
1040
-0.7071067811865475
1070
     0
1071
        1
1040
-106.4075352181278049
1040
-115.7994474714468964
1040
28.7500000000000213
1002
}
  0
LINE
  5
B03
 67
     1
  8
MITTEL
 10
-28.1220560375817783
 20
-215.0081293257142079
 30
1.633522727272726
 11
-36.2122259813311516
 21
-220.8859818486390907
 31
-1.633522727272726
  0
LINE
  5
B04
 67
     1
  8
MITTEL
 10
43.0714394674125529
 20
-220.8859818486390907
 30
30.3835227272726414
 11
34.9812695236632081
 21
-215.0081293257140942
 31
27.1164772727271988
  0
LINE
  5
B07
 67
     1
  8
MITTEL
 10
15.4812695236639009
 20
-229.1757086218179893
 30
1.6335227272727191
 11
18.5714394674134518
 21
-238.6862737847694973
 31
-1.6335227272727151
  0
LINE
  5
B09
 67
     1
  8
MITTEL
 10
-8.6220560375825173
 20
-229.1757086218179893
 30
1.6335227272727191
 11
-11.7122259813320397
 21
-238.6862737847694973
 31
-1.6335227272727151
  0
ENDSEC
  0
EOF
