  0
SECTION
  2
HEADER
  9
$ACADVER
  1
AC1009
  9
$INSBASE
 10
0.0
 20
0.0
 30
0.0
  9
$EXTMIN
 10
309.4308789410117129
 20
6.6575605500595421
 30
-28.7844108301019617
  9
$EXTMAX
 10
459.4308789410119971
 20
330.4542615340703833
 30
-28.784410830101919
  9
$LIMMIN
 10
0.0
 20
0.0
  9
$LIMMAX
 10
210.0
 20
297.0
  9
$ORTHOMODE
 70
     1
  9
$REGENMODE
 70
     1
  9
$FILLMODE
 70
     1
  9
$QTEXTMODE
 70
     0
  9
$MIRRTEXT
 70
     1
  9
$DRAGMODE
 70
     2
  9
$LTSCALE
 40
10.0
  9
$OSMODE
 70
  2495
  9
$ATTMODE
 70
     1
  9
$TEXTSIZE
 40
3.5
  9
$TRACEWID
 40
0.5
  9
$TEXTSTYLE
  7
STANDARD
  9
$CLAYER
  8
STEMPEL
  9
$CELTYPE
  6
BYLAYER
  9
$CECOLOR
 62
   256
  9
$DIMSCALE
 40
1.0
  9
$DIMASZ
 40
3.5
  9
$DIMEXO
 40
1.0
  9
$DIMDLI
 40
7.0
  9
$DIMRND
 40
0.0
  9
$DIMDLE
 40
0.0
  9
$DIMEXE
 40
1.0
  9
$DIMTP
 40
0.0
  9
$DIMTM
 40
0.0
  9
$DIMTXT
 40
3.5
  9
$DIMCEN
 40
1.5
  9
$DIMTSZ
 40
0.0
  9
$DIMTOL
 70
     0
  9
$DIMLIM
 70
     0
  9
$DIMTIH
 70
     0
  9
$DIMTOH
 70
     0
  9
$DIMSE1
 70
     0
  9
$DIMSE2
 70
     0
  9
$DIMTAD
 70
     1
  9
$DIMZIN
 70
     8
  9
$DIMBLK
  1

  9
$DIMASO
 70
     1
  9
$DIMSHO
 70
     0
  9
$DIMPOST
  1

  9
$DIMAPOST
  1

  9
$DIMALT
 70
     0
  9
$DIMALTD
 70
     2
  9
$DIMALTF
 40
25.3999999999999986
  9
$DIMLFAC
 40
2.0
  9
$DIMTOFL
 70
     1
  9
$DIMTVP
 40
0.0
  9
$DIMTIX
 70
     0
  9
$DIMSOXD
 70
     0
  9
$DIMSAH
 70
     0
  9
$DIMBLK1
  1

  9
$DIMBLK2
  1

  9
$DIMSTYLE
  2
STANDARD
  9
$DIMCLRD
 70
     0
  9
$DIMCLRE
 70
     0
  9
$DIMCLRT
 70
     1
  9
$DIMTFAC
 40
0.5
  9
$DIMGAP
 40
1.5
  9
$LUNITS
 70
     2
  9
$LUPREC
 70
     2
  9
$SKETCHINC
 40
1.0
  9
$FILLETRAD
 40
9.5999999999999996
  9
$AUNITS
 70
     0
  9
$AUPREC
 70
     0
  9
$MENU
  1
ACAD
  9
$ELEVATION
 40
0.0
  9
$PELEVATION
 40
0.0
  9
$THICKNESS
 40
0.0
  9
$LIMCHECK
 70
     0
  9
$BLIPMODE
 70
     0
  9
$CHAMFERA
 40
0.0
  9
$CHAMFERB
 40
0.0
  9
$SKPOLY
 70
     0
  9
$TDCREATE
 40
2455397.8646990740671754
  9
$TDUPDATE
 40
2459627.5964814820326865
  9
$TDINDWG
 40
0.2226892593
  9
$TDUSRTIMER
 40
0.2226892593
  9
$USRTIMER
 70
     1
  9
$ANGBASE
 50
0.0
  9
$ANGDIR
 70
     0
  9
$PDMODE
 70
     0
  9
$PDSIZE
 40
0.0
  9
$PLINEWID
 40
0.0
  9
$COORDS
 70
     1
  9
$SPLFRAME
 70
     0
  9
$SPLINETYPE
 70
     6
  9
$SPLINESEGS
 70
     8
  9
$ATTDIA
 70
     1
  9
$ATTREQ
 70
     1
  9
$HANDLING
 70
     1
  9
$HANDSEED
  5
1A7C
  9
$SURFTAB1
 70
     6
  9
$SURFTAB2
 70
     6
  9
$SURFTYPE
 70
     6
  9
$SURFU
 70
     6
  9
$SURFV
 70
     6
  9
$UCSNAME
  2

  9
$UCSORG
 10
0.0
 20
0.0
 30
0.0
  9
$UCSXDIR
 10
1.0
 20
0.0
 30
0.0
  9
$UCSYDIR
 10
0.0
 20
1.0
 30
0.0
  9
$PUCSNAME
  2

  9
$PUCSORG
 10
0.0
 20
0.0
 30
0.0
  9
$PUCSXDIR
 10
1.0
 20
0.0
 30
0.0
  9
$PUCSYDIR
 10
0.0
 20
1.0
 30
0.0
  9
$USERI1
 70
     0
  9
$USERI2
 70
     0
  9
$USERI3
 70
     0
  9
$USERI4
 70
     0
  9
$USERI5
 70
     0
  9
$USERR1
 40
0.0
  9
$USERR2
 40
0.0
  9
$USERR3
 40
0.0
  9
$USERR4
 40
0.0
  9
$USERR5
 40
0.0
  9
$WORLDVIEW
 70
     1
  9
$SHADEDGE
 70
     3
  9
$SHADEDIF
 70
    70
  9
$TILEMODE
 70
     1
  9
$MAXACTVP
 70
    16
  9
$PLIMCHECK
 70
     0
  9
$PEXTMIN
 10
-72.6015154677097598
 20
-32.8703891266393384
 30
-25.5658405259982011
  9
$PEXTMAX
 10
137.4113019688876989
 20
380.9104384990711765
 30
0.0007802432522936
  9
$PLIMMIN
 10
-72.595107265238795
 20
83.8978105286084315
  9
$PLIMMAX
 10
137.404892734761205
 20
380.8978105286084883
  9
$UNITMODE
 70
     0
  9
$VISRETAIN
 70
     0
  9
$PLINEGEN
 70
     0
  9
$PSLTSCALE
 70
     0
  0
ENDSEC
  0
SECTION
  2
TABLES
  0
TABLE
  2
VPORT
 70
     1
  0
VPORT
  2
*ACTIVE
 70
     0
 10
0.0
 20
0.0
 11
1.0
 21
1.0
 12
-1.121928689787296
 22
-112.0333814280410962
 13
0.0
 23
0.0
 14
1.0
 24
1.0
 15
10.0
 25
10.0
 16
-0.0000000000001137
 26
0.0
 36
572.4835711430389438
 17
385.5528076307991796
 27
280.589292470106102
 37
-14.3922054150509897
 40
326.112291217508016
 41
1.7852028639618129
 42
50.0
 43
0.0
 44
0.0
 50
0.0
 51
0.0
 71
     0
 72
  1500
 73
     1
 74
     0
 75
     0
 76
     0
 77
     0
 78
     0
  0
ENDTAB
  0
TABLE
  2
LTYPE
 70
     6
  0
LTYPE
  2
CONTINUOUS
 70
     0
  3
Solid line
 72
    65
 73
     0
 40
0.0
  0
LTYPE
  2
PHANTOM2
 70
     0
  3
Phantom (.5x) ___ _ _ ___ _ _ ___ _ _ ___ _ _
 72
    65
 73
     6
 40
1.25
 49
0.625
 49
-0.125
 49
0.125
 49
-0.125
 49
0.125
 49
-0.125
  0
LTYPE
  2
VERDECKT
 70
     0
  3
Verdeckt __ __ __ __ __ __ __ __ __ __ __ __ __
 72
    65
 73
     2
 40
0.375
 49
0.25
 49
-0.125
  0
ENDTAB
  0
TABLE
  2
LAYER
 70
    14
  0
LAYER
  2
0
 70
     0
 62
     7
  6
CONTINUOUS
  0
LAYER
  2
VOLL
 70
     0
 62
     1
  6
CONTINUOUS
  0
LAYER
  2
STEMPEL
 70
     0
 62
     3
  6
CONTINUOUS
  0
LAYER
  2
ADSK_ASSOC_ENTITY_BACKUPS
 70
     1
 62
    -7
  6
CONTINUOUS
  0
LAYER
  2
DEFPOINTS
 70
     0
 62
     7
  6
CONTINUOUS
  0
ENDTAB
  0
TABLE
  2
STYLE
 70
     4
  0
STYLE
  2
STANDARD
 70
     0
 40
0.0
 41
0.8
 50
0.0
 71
     0
 42
3.5
  3
simplex.shx
  4

  0
STYLE
  2
GREEKS
 70
     0
 40
0.0
 41
0.8
 50
0.0
 71
     0
 42
2.5
  3
SIMPLEX.shx
  4

  0
ENDTAB
  0
TABLE
  2
VIEW
 70
     1
  0
ENDTAB
  0
TABLE
  2
UCS
 70
     0
  0
ENDTAB
  0
TABLE
  2
APPID
 70
    23
  0
APPID
  2
ACAD
 70
     0
  0
APPID
  2
ACAD_NAV_VCDISPLAY
 70
     0
  0
APPID
  2
ACAD_MLEADERVER
 70
     0
  0
APPID
  2
ACAD_EXEMPT_FROM_CAD_STANDARDS
 70
     0
  0
APPID
  2
ACAD_PSEXT
 70
     0
  0
APPID
  2
ACAECLAYERSTANDARD
 70
     0
  0
APPID
  2
ACCMTRANSPARENCY
 70
     0
  0
APPID
  2
ACDBDYNAMICBLOCKGUID
 70
     0
  0
APPID
  2
ACADANNOPO
 70
     0
  0
APPID
  2
ACAUTHENVIRON
 70
     0
  0
APPID
  2
ACSYNERGY
 70
     0
  0
APPID
  2
SYNERGY_BODY_TBR_ID
 70
     0
  0
APPID
  2
ACAD_VIEW_EDGE_ID
 70
     0
  0
APPID
  2
ACSYNERGYSKETCH
 70
     0
  0
APPID
  2
ACAD_MODELDOC_XFORM
 70
     0
  0
APPID
  2
ACAD_DSTYLE_DIMJAG
 70
     0
  0
APPID
  2
ACAD_DSTYLE_DIMTALN
 70
     0
  0
APPID
  2
ACADANNOMONITORALERTICONDI
 70
     0
  0
APPID
  2
ACAD_DIMASSOC_CALC_DIMLFAC
 70
     0
  0
APPID
  2
ACAD_DIMASSOC_DIMLFAC
 70
     0
  0
APPID
  2
ACAD_DIMASSOC_OVERRIDDEN_D
 70
     0
  0
APPID
  2
ACAD_DSTYLE_DIMRADIAL_EXTENSION
 70
     0
  0
APPID
  2
AcDbAttr
 70
     0
  0
ENDTAB
  0
TABLE
  2
DIMSTYLE
 70
     2
  0
DIMSTYLE
  2
STANDARD
 70
     0
  3

  4

  5

  6

  7

 40
1.0
 41
0.18
 42
0.0625
 43
0.38
 44
0.18
 45
0.0
 46
0.0
 47
0.0
 48
0.0
140
0.18
141
0.09
142
0.0
143
25.3999999999999986
144
1.0
145
0.0
146
1.0
147
0.09
 71
     0
 72
     0
 73
     1
 74
     1
 75
     0
 76
     0
 77
     0
 78
     0
170
     0
171
     2
172
     0
173
     0
174
     0
175
     0
176
     0
177
     0
178
     0
  0
ENDTAB
  0
ENDSEC
  0
SECTION
  2
BLOCKS
  0
BLOCK
  8
0
  2
$MODEL_SPACE
 70
     0
 10
0.0
 20
0.0
 30
0.0
  3
$MODEL_SPACE
  1

  0
ENDBLK
  5
36
  8
0
  0
BLOCK
 67
     1
  8
0
  2
$PAPER_SPACE
 70
     0
 10
0.0
 20
0.0
 30
0.0
  3
$PAPER_SPACE
  1

  0
ENDBLK
  5
34
 67
     1
  8
0
  0
BLOCK
  8
0
  2
*S2
 70
     1
 10
0.0
 20
0.0
 30
0.0
  3
*S2
  1

  0
ENDBLK
  5
EC6
  8
0
  0
BLOCK
  8
0
  2
A$C03705D09
 70
     0
 10
0.0
 20
0.0
 30
0.0
  3
A$C03705D09
  1

  0
CIRCLE
  5
19E2
  8
0
 10
211.9874630238610109
 20
234.4444487410233933
 30
-0.0000000000000497
 40
46.7109756097560691
  0
CIRCLE
  5
19E3
  8
0
 10
211.9874630238610109
 20
234.444448741023507
 30
-0.0000000000000426
 40
42.2061791748458006
  0
CIRCLE
  5
19E4
  8
0
 10
211.9874630238610109
 20
234.444448741023507
 30
-0.0000000000000426
 40
43.8000906917925974
  0
CIRCLE
  5
19E5
  8
0
 10
211.9874630238610109
 20
234.444448741023507
 30
-0.0000000000000497
 40
44.5
  0
CIRCLE
  5
19E6
  8
0
 10
148.9874630238610109
 20
234.4444487410233933
 30
-0.0000000000000355
 40
5.5
  0
CIRCLE
  5
19E7
  8
0
 10
167.4397358091086119
 20
278.9921759557760197
 30
-0.0000000000000355
 40
5.5
  0
CIRCLE
  5
19E8
  8
0
 10
211.9874630238610109
 20
297.4444487410233933
 30
-0.0000000000000497
 40
5.5
  0
CIRCLE
  5
19E9
  8
0
 10
256.5351902386136089
 20
278.992175955775906
 30
-0.0000000000000568
 40
5.5
  0
CIRCLE
  5
19EA
  8
0
 10
274.9874630238609825
 20
234.4444487410233933
 30
-0.0000000000000639
 40
5.5
  0
CIRCLE
  5
19EB
  8
0
 10
256.5351902386134952
 20
189.8967215262707953
 30
-0.0000000000000568
 40
5.5
  0
CIRCLE
  5
19EC
  8
0
 10
211.9874630238610109
 20
171.4444487410233933
 30
-0.0000000000000497
 40
5.5
  0
CIRCLE
  5
19ED
  8
0
 10
167.4397358091084982
 20
189.896721526270909
 30
-0.0000000000000355
 40
5.5
  0
CIRCLE
  5
19EE
  8
0
 10
211.9874630238610109
 20
234.4444487410233933
 30
-0.0000000000000497
 40
75.0000000000001137
  0
CIRCLE
  5
19EF
  8
0
  6
VERDECKT
 62
     1
 10
211.9874630238610109
 20
234.4444487410233933
 30
-0.0000000000000497
 40
45.1499999999999702
  0
CIRCLE
  5
19F0
  8
0
  6
VERDECKT
 62
     1
 10
211.9874630238610109
 20
234.444448741023507
 30
-0.0000000000000497
 40
42.8999999999999986
  0
CIRCLE
  5
19F1
  8
0
  6
VERDECKT
 62
     1
 10
211.9874630238610109
 20
234.4444487410233933
 30
-0.0000000000000497
 40
45.1499999999999702
  0
ENDBLK
  5
19F3
  8
0
  0
BLOCK
  8
0
  2
A$C071D9496
 70
     0
 10
0.0
 20
0.0
 30
0.0
  3
A$C071D9496
  1

  0
LINE
  5
19F7
  8
0
 10
258.6984386336171156
 20
-50.7789012913899924
 30
0.0000000000000113
 11
165.2764874141049063
 21
-50.7789012913898929
 31
0.0000000000000113
210
0.0
220
1.0
230
-0.0000000000000002
  0
LINE
  5
19F8
  8
0
 10
168.1873723320684064
 20
67.8698791964150558
 30
-0.0000000000000151
 11
255.7875537156537007
 21
67.8698791964150558
 31
-0.0000000000000151
210
0.0
220
1.0
230
-0.0000000000000002
  0
ARC
  5
19F9
  8
0
 10
-266.4874630238597888
 20
-39.841231914696742
 30
0.0
 40
9.9999999999986358
210
0.0
220
-0.0000000000000002
230
-1.0
 50
347.3196165081791946
 51
0.0000000000005725
  0
ARC
  5
19FA
  8
0
 10
-157.4874630238622899
 20
-39.841231914696678
 30
0.0
 40
9.9999999999985505
210
0.0
220
-0.0000000000000002
230
-1.0
 50
179.9999999999994031
 51
192.6803834918208906
  0
LINE
  5
19FB
  8
0
 10
166.8374630238610052
 20
-51.1301208035849584
 30
0.0000000000000114
 11
165.2764874141049063
 21
-50.7789012913898716
 31
0.0000000000000113
210
0.0
220
1.0
230
-0.0000000000000002
  0
LINE
  5
19FC
  8
0
 10
257.1374630238610166
 20
-51.1301208035850294
 30
0.0000000000000114
 11
258.6984386336171156
 21
-50.7789012913899214
 31
0.0000000000000113
210
0.0
220
1.0
230
-0.0000000000000002
  0
LINE
  5
19FD
  8
0
 10
256.7313654628856057
 20
-42.0363538659161193
 30
0.0000000000000093
 11
258.6984386336171156
 21
-50.7789012913899427
 31
0.0000000000000113
210
0.0
220
1.0
230
-0.0000000000000002
  0
LINE
  5
19FE
  8
0
 10
167.2435605848363878
 20
-42.0363538659160625
 30
0.0000000000000093
 11
165.2764874141049063
 21
-50.7789012913898787
 31
0.0000000000000113
210
0.0
220
1.0
230
-0.0000000000000002
  0
LINE
  5
19FF
  8
0
 10
255.7875537156537007
 20
67.8698791964150558
 30
-0.0000000000000151
 11
256.4509321255417831
 21
60.2874292748708598
 31
-0.0000000000000134
210
0.0
220
1.0
230
-0.0000000000000002
  0
LINE
  5
1A00
  8
0
 10
168.1873723320684064
 20
67.8698791964150558
 30
-0.0000000000000151
 11
167.5239939221802956
 21
60.2874292748708598
 31
-0.0000000000000134
210
0.0
220
1.0
230
-0.0000000000000002
  0
ARC
  5
1A01
  8
0
 10
-177.0874630238731129
 20
59.4507341444926496
 30
0.0
 40
9.6000000000121304
210
0.0
220
-0.0000000000000002
230
-1.0
 50
0.0000000000041602
 51
4.999999999997768
  0
ARC
  5
1A02
  8
0
 10
-246.8874630238786949
 20
59.450734144493957
 30
0.0
 40
9.5999999999823444
210
0.0
220
-0.0000000000000002
230
-1.0
 50
174.9999999999944009
 51
180.0000000000034959
  0
LINE
  5
1A03
  8
0
 10
256.4874630238609825
 20
59.4507341444933601
 30
-0.0000000000000132
 11
256.4874630238609825
 21
-39.8412319146966425
 31
0.0000000000000088
210
0.0
220
1.0
230
-0.0000000000000002
  0
LINE
  5
1A04
  8
0
 10
167.4874630238610109
 20
59.4507341444933601
 30
-0.0000000000000132
 11
167.4874630238610109
 21
-39.8412319146965928
 31
0.0000000000000088
210
0.0
220
1.0
230
-0.0000000000000002
  0
LINE
  5
1A05
  8
0
 10
286.9874630238612099
 20
-51.1301208035850081
 30
0.0000000000000114
 11
136.9874630238608972
 21
-51.1301208035850081
 31
0.0000000000000114
210
0.0
220
1.0
230
-0.0000000000000002
  0
LINE
  5
1A06
  8
0
 10
286.9874630238612099
 20
-67.130120803585001
 30
0.0000000000000149
 11
136.9874630238608972
 21
-67.130120803585001
 31
0.0000000000000149
210
0.0
220
1.0
230
-0.0000000000000002
  0
LINE
  5
1A07
  8
0
 10
136.9874630238608972
 20
-67.130120803585001
 30
0.0000000000000149
 11
136.9874630238608972
 21
-51.130120803585001
 31
0.0000000000000114
210
0.0
220
1.0
230
-0.0000000000000002
  0
LINE
  5
1A08
  8
0
 10
286.9874630238612099
 20
-67.130120803585001
 30
0.0000000000000149
 11
286.9874630238612099
 21
-51.1301208035850081
 31
0.0000000000000114
210
0.0
220
1.0
230
-0.0000000000000002
  0
LINE
  5
1A09
  8
0
  6
VERDECKT
 62
     1
 10
169.7812838490152103
 20
67.7304300080187858
 30
-0.000000000000015
 11
254.1936421987068968
 21
67.7304300080187858
 31
-0.000000000000015
210
0.0
220
1.0
230
-0.0000000000000002
  0
ARC
  5
1A0A
  8
0
  6
VERDECKT
 62
     1
 10
-266.4874630238581972
 20
-39.841231914696273
 30
0.0
 40
11.5999999999972303
210
0.0
220
-0.0000000000000002
230
-1.0
 50
347.3196165081754998
 51
359.9999999999981242
  0
ARC
  5
1A0B
  8
0
  6
VERDECKT
 62
     1
 10
-157.4874630238637963
 20
-39.841231914696202
 30
0.0
 40
11.5999999999971504
210
0.0
220
-0.0000000000000002
230
-1.0
 50
180.0000000000017906
 51
192.6803834918245002
  0
LINE
  5
1A0C
  8
0
  6
VERDECKT
 62
     1
 10
255.170389853129393
 20
-42.3875733781112132
 30
0.0000000000000094
 11
257.1374630238610166
 21
-51.1301208035850294
 31
0.0000000000000114
210
0.0
220
1.0
230
-0.0000000000000002
  0
LINE
  5
1A0D
  8
0
  6
VERDECKT
 62
     1
 10
168.8045361945924867
 20
-42.3875733781111421
 30
0.0000000000000094
 11
166.8374630238610052
 21
-51.1301208035849726
 31
0.0000000000000114
210
0.0
220
1.0
230
-0.0000000000000002
  0
LINE
  5
1A0E
  8
0
  6
VERDECKT
 62
     1
 10
254.8874630238611019
 20
59.4507341444932891
 30
-0.0000000000000132
 11
254.8874630238611019
 21
-39.8412319146966425
 31
0.0000000000000088
210
0.0
220
1.0
230
-0.0000000000000002
  0
LINE
  5
1A0F
  8
0
  6
VERDECKT
 62
     1
 10
169.0874630238610052
 20
59.4507341444932891
 30
-0.0000000000000132
 11
169.0874630238610052
 21
-39.8412319146965928
 31
0.0000000000000088
210
0.0
220
1.0
230
-0.0000000000000002
  0
ARC
  5
1A10
  8
0
  6
VERDECKT
 62
     1
 10
-177.0874630238521945
 20
59.450734144493687
 30
0.0
 40
7.9999999999911324
210
0.0
220
-0.0000000000000002
230
-1.0
 50
0.0
 51
5.0000000000057492
  0
ARC
  5
1A11
  8
0
  6
VERDECKT
 62
     1
 10
-246.8874630238699126
 20
59.450734144493687
 30
0.0
 40
7.9999999999911324
210
0.0
220
-0.0000000000000002
230
-1.0
 50
174.999999999997101
 51
180.0000000000028137
  0
LINE
  5
1A12
  8
0
  6
VERDECKT
 62
     1
 10
254.1936421987068968
 20
67.7304300080187858
 30
-0.000000000000015
 11
254.8570206085950076
 21
60.1479800864745897
 31
-0.0000000000000134
210
0.0
220
1.0
230
-0.0000000000000002
  0
LINE
  5
1A13
  8
0
  6
VERDECKT
 62
     1
 10
169.7812838490152103
 20
67.7304300080187858
 30
-0.000000000000015
 11
169.1179054391270995
 21
60.1479800864745897
 31
-0.0000000000000134
210
0.0
220
1.0
230
-0.0000000000000002
  0
LINE
  5
1A14
  8
0
  6
VERDECKT
 62
     1
 10
169.7812838490152103
 20
67.7304300080187858
 30
-0.000000000000015
 11
168.1873723320684064
 21
67.8698791964150558
 31
-0.0000000000000151
210
0.0
220
1.0
230
-0.0000000000000002
  0
LINE
  5
1A15
  8
0
  6
VERDECKT
 62
     1
 10
254.1936421987068968
 20
67.7304300080187858
 30
-0.000000000000015
 11
255.7875537156537007
 21
67.8698791964150558
 31
-0.0000000000000151
210
0.0
220
1.0
230
-0.0000000000000002
  0
LINE
  5
1A16
  8
0
  6
VERDECKT
 62
     1
 10
143.4874630238610109
 20
-67.130120803585001
 30
0.0000000000000149
 11
143.4874630238610109
 21
-51.1301208035850081
 31
0.0000000000000114
210
0.0
220
1.0
230
-0.0000000000000002
  0
LINE
  5
1A17
  8
0
  6
VERDECKT
 62
     1
 10
154.4874630238610109
 20
-67.130120803585001
 30
0.0000000000000149
 11
154.4874630238610109
 21
-51.130120803585001
 31
0.0000000000000114
210
0.0
220
1.0
230
-0.0000000000000002
  0
LINE
  5
1A18
  8
0
  6
VERDECKT
 62
     1
 10
269.4874630238610962
 20
-67.130120803585001
 30
0.0000000000000149
 11
269.4874630238610962
 21
-51.1301208035850081
 31
0.0000000000000114
210
0.0
220
1.0
230
-0.0000000000000002
  0
LINE
  5
1A19
  8
0
  6
VERDECKT
 62
     1
 10
280.4874630238610962
 20
-67.130120803585001
 30
0.0000000000000149
 11
280.4874630238610962
 21
-51.130120803585001
 31
0.0000000000000114
210
0.0
220
1.0
230
-0.0000000000000002
  0
LINE
  5
1A1A
  8
0
  6
VERDECKT
 62
     1
 10
166.8374630238610052
 20
-67.130120803585001
 30
0.0000000000000149
 11
166.8374630238610052
 21
-51.1301208035850081
 31
0.0000000000000114
210
0.0
220
1.0
230
-0.0000000000000002
  0
LINE
  5
1A1B
  8
0
  6
VERDECKT
 62
     1
 10
257.1374630238610166
 20
-67.130120803585001
 30
0.0000000000000149
 11
257.1374630238610166
 21
-51.130120803585001
 31
0.0000000000000114
210
0.0
220
1.0
230
-0.0000000000000002
  0
LINE
  5
1A1C
  8
0
  6
VERDECKT
 62
     1
 10
251.0351902386134952
 20
-67.130120803585001
 30
0.0000000000000149
 11
251.0351902386134952
 21
-51.1301208035849868
 31
0.0000000000000114
210
0.0
220
1.0
230
-0.0000000000000002
  0
LINE
  5
1A1D
  8
0
  6
VERDECKT
 62
     1
 10
262.0351902386134952
 20
-67.130120803585001
 30
0.0000000000000149
 11
262.0351902386134952
 21
-51.130120803585001
 31
0.0000000000000114
210
0.0
220
1.0
230
-0.0000000000000002
  0
LINE
  5
1A1E
  8
0
  6
VERDECKT
 62
     1
 10
206.4874630238610109
 20
-67.1301208035849868
 30
0.0000000000000149
 11
206.4874630238610109
 21
-51.1301208035849797
 31
0.0000000000000114
210
0.0
220
1.0
230
-0.0000000000000002
  0
LINE
  5
1A1F
  8
0
  6
VERDECKT
 62
     1
 10
217.4874630238610109
 20
-67.1301208035849868
 30
0.0000000000000149
 11
217.4874630238610109
 21
-51.1301208035849797
 31
0.0000000000000114
210
0.0
220
1.0
230
-0.0000000000000002
  0
LINE
  5
1A20
  8
0
  6
VERDECKT
 62
     1
 10
161.9397358091084982
 20
-67.130120803585001
 30
0.0000000000000149
 11
161.9397358091084982
 21
-51.1301208035849868
 31
0.0000000000000114
210
0.0
220
1.0
230
-0.0000000000000002
  0
LINE
  5
1A21
  8
0
  6
VERDECKT
 62
     1
 10
172.9397358091084982
 20
-67.130120803585001
 30
0.0000000000000149
 11
172.9397358091084982
 21
-51.130120803585001
 31
0.0000000000000114
210
0.0
220
1.0
230
-0.0000000000000002
  0
ENDBLK
  5
1A23
  8
0
  0
ENDSEC
  0
SECTION
  2
ENTITIES
  0
TEXT
  5
8F
  8
VOLL
 10
78.076754716981128
 20
31.025947764705851
 30
0.0
 40
1.8
  1

  7
GREEKS
  0
INSERT
  5
EC8
  8
ADSK_ASSOC_ENTITY_BACKUPS
  2
*S2
 10
0.0
 20
0.0
 30
0.0
  0
INSERT
  5
19F4
  8
STEMPEL
  2
A$C03705D09
 10
172.4434159171507872
 20
-152.7868881909637082
 30
-28.78441083010188
  0
INSERT
  5
1A24
  8
STEMPEL
  2
A$C071D9496
 10
172.4434159171507872
 20
262.5843823376554269
 30
-28.7844108301019403
  0
VIEWPORT
  5
EA9
 67
     1
  8
0
 10
-60.9841531751554911
 20
183.5093532098985065
 30
0.0
 40
1190.2307209933289869
 41
666.7201498612364503
 68
     1
 69
     1
1001
ACAD
1000
MVIEW
1002
{
1070
    16
1010
0.0
1020
0.0
1030
0.0
1010
0.0
1020
0.0
1030
1.0
1040
0.0
1040
666.7201498612364503
1040
-60.9841531751554911
1040
183.5093532098985065
1040
50.0
1040
0.0
1040
0.0
1070
     0
1070
  1500
1070
     1
1070
     1
1070
     0
1070
     0
1070
     0
1070
     0
1040
0.0
1040
0.0
1040
0.0
1040
10.0
1040
10.0
1040
10.0
1040
10.0
1070
     0
1002
{
1002
}
1002
}
  0
ENDSEC
  0
EOF
