  0
SECTION
  2
HEADER
  9
$ACADVER
  1
AC1009
  9
$INSBASE
 10
0.0
 20
0.0
 30
0.0
  9
$EXTMIN
 10
497.4624540874013974
 20
63.9490944063267932
 30
-28.4466310329718901
  9
$EXTMAX
 10
605.4624540874015111
 20
298.3649625251222233
 30
-28.4466310329718617
  9
$LIMMIN
 10
0.0
 20
0.0
  9
$LIMMAX
 10
210.0
 20
297.0000000000001137
  9
$ORTHOMODE
 70
     1
  9
$REGENMODE
 70
     1
  9
$FILLMODE
 70
     1
  9
$QTEXTMODE
 70
     0
  9
$MIRRTEXT
 70
     1
  9
$DRAGMODE
 70
     2
  9
$LTSCALE
 40
10.0
  9
$OSMODE
 70
  2495
  9
$ATTMODE
 70
     1
  9
$TEXTSIZE
 40
3.5
  9
$TRACEWID
 40
0.5
  9
$TEXTSTYLE
  7
STANDARD
  9
$CLAYER
  8
STEMPEL
  9
$CELTYPE
  6
BYLAYER
  9
$CECOLOR
 62
   256
  9
$DIMSCALE
 40
1.0
  9
$DIMASZ
 40
3.5
  9
$DIMEXO
 40
1.0
  9
$DIMDLI
 40
7.0
  9
$DIMRND
 40
0.0
  9
$DIMDLE
 40
0.0
  9
$DIMEXE
 40
1.0
  9
$DIMTP
 40
0.15
  9
$DIMTM
 40
0.15
  9
$DIMTXT
 40
3.5
  9
$DIMCEN
 40
1.5
  9
$DIMTSZ
 40
0.0
  9
$DIMTOL
 70
     0
  9
$DIMLIM
 70
     0
  9
$DIMTIH
 70
     0
  9
$DIMTOH
 70
     0
  9
$DIMSE1
 70
     0
  9
$DIMSE2
 70
     0
  9
$DIMTAD
 70
     1
  9
$DIMZIN
 70
     8
  9
$DIMBLK
  1

  9
$DIMASO
 70
     1
  9
$DIMSHO
 70
     0
  9
$DIMPOST
  1

  9
$DIMAPOST
  1

  9
$DIMALT
 70
     0
  9
$DIMALTD
 70
     2
  9
$DIMALTF
 40
25.3999999999999986
  9
$DIMLFAC
 40
2.0
  9
$DIMTOFL
 70
     1
  9
$DIMTVP
 40
0.0
  9
$DIMTIX
 70
     0
  9
$DIMSOXD
 70
     0
  9
$DIMSAH
 70
     0
  9
$DIMBLK1
  1

  9
$DIMBLK2
  1

  9
$DIMSTYLE
  2
STANDARD
  9
$DIMCLRD
 70
     0
  9
$DIMCLRE
 70
     0
  9
$DIMCLRT
 70
     1
  9
$DIMTFAC
 40
0.5
  9
$DIMGAP
 40
1.5
  9
$LUNITS
 70
     2
  9
$LUPREC
 70
     2
  9
$SKETCHINC
 40
1.0
  9
$FILLETRAD
 40
0.0
  9
$AUNITS
 70
     0
  9
$AUPREC
 70
     0
  9
$MENU
  1
ACAD
  9
$ELEVATION
 40
0.0
  9
$PELEVATION
 40
0.0
  9
$THICKNESS
 40
0.0
  9
$LIMCHECK
 70
     0
  9
$BLIPMODE
 70
     0
  9
$CHAMFERA
 40
0.0
  9
$CHAMFERB
 40
0.0
  9
$SKPOLY
 70
     0
  9
$TDCREATE
 40
2455397.9063657410442829
  9
$TDUPDATE
 40
2459627.5773726850748062
  9
$TDINDWG
 40
0.278601875
  9
$TDUSRTIMER
 40
0.278601875
  9
$USRTIMER
 70
     1
  9
$ANGBASE
 50
0.0
  9
$ANGDIR
 70
     0
  9
$PDMODE
 70
     0
  9
$PDSIZE
 40
0.0
  9
$PLINEWID
 40
0.0
  9
$COORDS
 70
     1
  9
$SPLFRAME
 70
     0
  9
$SPLINETYPE
 70
     6
  9
$SPLINESEGS
 70
     8
  9
$ATTDIA
 70
     1
  9
$ATTREQ
 70
     1
  9
$HANDLING
 70
     1
  9
$HANDSEED
  5
27AE
  9
$SURFTAB1
 70
     6
  9
$SURFTAB2
 70
     6
  9
$SURFTYPE
 70
     6
  9
$SURFU
 70
     6
  9
$SURFV
 70
     6
  9
$UCSNAME
  2

  9
$UCSORG
 10
0.0
 20
0.0
 30
0.0
  9
$UCSXDIR
 10
1.0
 20
0.0
 30
0.0
  9
$UCSYDIR
 10
0.0
 20
1.0
 30
0.0
  9
$PUCSNAME
  2

  9
$PUCSORG
 10
0.0
 20
0.0
 30
0.0
  9
$PUCSXDIR
 10
1.0
 20
0.0
 30
0.0
  9
$PUCSYDIR
 10
0.0
 20
1.0
 30
0.0
  9
$USERI1
 70
     0
  9
$USERI2
 70
     0
  9
$USERI3
 70
     0
  9
$USERI4
 70
     0
  9
$USERI5
 70
     0
  9
$USERR1
 40
0.0
  9
$USERR2
 40
0.0
  9
$USERR3
 40
0.0
  9
$USERR4
 40
0.0
  9
$USERR5
 40
0.0
  9
$WORLDVIEW
 70
     1
  9
$SHADEDGE
 70
     3
  9
$SHADEDIF
 70
    70
  9
$TILEMODE
 70
     1
  9
$MAXACTVP
 70
    16
  9
$PLIMCHECK
 70
     0
  9
$PEXTMIN
 10
1.0000000000000000E+20
 20
1.0000000000000000E+20
 30
1.0000000000000000E+20
  9
$PEXTMAX
 10
-1.0000000000000000E+20
 20
-1.0000000000000000E+20
 30
-1.0000000000000000E+20
  9
$PLIMMIN
 10
-8.753918644149536
 20
-24.1761630261918299
  9
$PLIMMAX
 10
201.2460813558504071
 20
272.823836973808227
  9
$UNITMODE
 70
     0
  9
$VISRETAIN
 70
     0
  9
$PLINEGEN
 70
     0
  9
$PSLTSCALE
 70
     0
  0
ENDSEC
  0
SECTION
  2
TABLES
  0
TABLE
  2
VPORT
 70
     1
  0
VPORT
  2
*ACTIVE
 70
     0
 10
0.0
 20
0.0
 11
1.0
 21
1.0
 12
0.3535186563433115
 22
-101.8203088156109004
 13
0.0
 23
0.0
 14
1.0
 24
1.0
 15
10.0
 25
10.0
 16
-0.0000000000001137
 26
0.0
 36
444.9111810411790202
 17
551.1089354310580575
 27
282.9773372813353944
 37
-14.2233155164859895
 40
236.0922628848416025
 41
1.7852028639618129
 42
50.0
 43
0.0
 44
0.0
 50
0.0
 51
0.0
 71
     0
 72
  1500
 73
     1
 74
     0
 75
     0
 76
     0
 77
     0
 78
     0
  0
ENDTAB
  0
TABLE
  2
LTYPE
 70
     6
  0
LTYPE
  2
CONTINUOUS
 70
     0
  3
Solid line
 72
    65
 73
     0
 40
0.0
  0
LTYPE
  2
PHANTOM2
 70
     0
  3
Phantom (.5x) ___ _ _ ___ _ _ ___ _ _ ___ _ _
 72
    65
 73
     6
 40
1.25
 49
0.625
 49
-0.125
 49
0.125
 49
-0.125
 49
0.125
 49
-0.125
  0
LTYPE
  2
VERDECKT
 70
     0
  3
Verdeckt __ __ __ __ __ __ __ __ __ __ __ __ __
 72
    65
 73
     2
 40
0.375
 49
0.25
 49
-0.125
  0
ENDTAB
  0
TABLE
  2
LAYER
 70
    14
  0
LAYER
  2
0
 70
     0
 62
     7
  6
CONTINUOUS
  0
LAYER
  2
VOLL
 70
     0
 62
     1
  6
CONTINUOUS
  0
LAYER
  2
STEMPEL
 70
     0
 62
     3
  6
CONTINUOUS
  0
LAYER
  2
DEFPOINTS
 70
     0
 62
     7
  6
CONTINUOUS
  0
LAYER
  2
ADSK_ASSOC_ENTITY_BACKUPS
 70
     1
 62
    -7
  6
CONTINUOUS
  0
ENDTAB
  0
TABLE
  2
STYLE
 70
     5
  0
STYLE
  2
STANDARD
 70
     0
 40
0.0
 41
0.8
 50
0.0
 71
     0
 42
3.5
  3
simplex.shx
  4

  0
STYLE
  2
GREEKS
 70
     0
 40
0.0
 41
0.8
 50
0.0
 71
     0
 42
2.5
  3
SIMPLEX.shx
  4

  0
ENDTAB
  0
TABLE
  2
VIEW
 70
     1
  0
ENDTAB
  0
TABLE
  2
UCS
 70
     0
  0
ENDTAB
  0
TABLE
  2
APPID
 70
    24
  0
APPID
  2
ACAD
 70
     0
  0
APPID
  2
ACAD_NAV_VCDISPLAY
 70
     0
  0
APPID
  2
ACAECLAYERSTANDARD
 70
     0
  0
APPID
  2
ACCMTRANSPARENCY
 70
     0
  0
APPID
  2
ACAD_PSEXT
 70
     0
  0
APPID
  2
ACAD_MLEADERVER
 70
     0
  0
APPID
  2
ACAD_OBJECT_CHANGE_GUID
 70
     0
  0
APPID
  2
ACAD_EXEMPT_FROM_CAD_STANDARDS
 70
     0
  0
APPID
  2
ACAD_STEPID
 70
     0
  0
APPID
  2
ACAD_DSTYLE_DIMRADIAL_EXTENSION
 70
     0
  0
APPID
  2
ACSYNERGY
 70
     0
  0
APPID
  2
SYNERGY_BODY_TBR_ID
 70
     0
  0
APPID
  2
ACAD_VIEW_EDGE_ID
 70
     0
  0
APPID
  2
ACSYNERGYSKETCH
 70
     0
  0
APPID
  2
ACAD_MODELDOC_XFORM
 70
     0
  0
APPID
  2
GRADIENTCOLOR1ACI
 70
     0
  0
APPID
  2
GRADIENTCOLOR2ACI
 70
     0
  0
APPID
  2
ACAD_DSTYLE_DIMJAG
 70
     0
  0
APPID
  2
ACAD_DSTYLE_DIMTALN
 70
     0
  0
APPID
  2
ACADANNOMONITORALERTICONDI
 70
     0
  0
APPID
  2
ACAD_DIMASSOC_CALC_DIMLFAC
 70
     0
  0
APPID
  2
ACAD_DIMASSOC_DIMLFAC
 70
     0
  0
APPID
  2
ACAD_DIMASSOC_OVERRIDDEN_D
 70
     0
  0
APPID
  2
AcDbAttr
 70
     0
  0
ENDTAB
  0
TABLE
  2
DIMSTYLE
 70
     3
  0
DIMSTYLE
  2
STANDARD
 70
     0
  3

  4

  5

  6

  7

 40
1.0
 41
0.18
 42
0.0625
 43
0.38
 44
0.18
 45
0.0
 46
0.0
 47
0.0
 48
0.0
140
0.18
141
0.09
142
0.0
143
25.3999999999999986
144
1.0
145
0.0
146
1.0
147
0.09
 71
     0
 72
     0
 73
     1
 74
     1
 75
     0
 76
     0
 77
     0
 78
     0
170
     0
171
     2
172
     0
173
     0
174
     0
175
     0
176
     0
177
     0
178
     0
  0
ENDTAB
  0
ENDSEC
  0
SECTION
  2
BLOCKS
  0
BLOCK
  8
0
  2
$MODEL_SPACE
 70
     0
 10
0.0
 20
0.0
 30
0.0
  3
$MODEL_SPACE
  1

  0
ENDBLK
  5
44
  8
0
  0
BLOCK
 67
     1
  8
0
  2
$PAPER_SPACE
 70
     0
 10
0.0
 20
0.0
 30
0.0
  3
$PAPER_SPACE
  1

  0
ENDBLK
  5
42
 67
     1
  8
0
  0
BLOCK
  8
0
  2
*S2
 70
     1
 10
0.0
 20
0.0
 30
0.0
  3
*S2
  1

  0
ENDBLK
  5
1A6F
  8
0
  0
BLOCK
  8
0
  2
A$C3FA0E265
 70
     0
 10
0.0
 20
0.0
 30
0.0
  3
A$C3FA0E265
  1

  0
CIRCLE
  5
2718
  8
0
 10
388.3115402491412738
 20
178.767149852756404
 30
-0.0000000000000959
 40
5.5
  0
CIRCLE
  5
2719
  8
0
 10
388.3115402491412738
 20
251.5132837706493945
 30
-0.0000000000000959
 40
5.5
  0
CIRCLE
  5
271A
  8
0
 10
451.3115402491412169
 20
215.1402168117029987
 30
-0.0000000000001137
 40
5.5
  0
CIRCLE
  5
271B
  8
0
 10
430.3115402491412169
 20
251.5132837706493945
 30
-0.0000000000001066
 40
5.5
  0
CIRCLE
  5
271C
  8
0
 10
367.3115402491412738
 20
215.1402168117029987
 30
-0.0000000000000924
 40
5.5
  0
CIRCLE
  5
271D
  8
0
 10
430.3115402491412169
 20
178.767149852756404
 30
-0.0000000000001066
 40
5.5
  0
CIRCLE
  5
271E
  8
0
 10
409.3115402491411032
 20
215.1402168117029987
 30
-0.000000000000103
 40
54.0
  0
CIRCLE
  5
271F
  8
0
 10
409.3115402491412738
 20
215.1402168117029987
 30
-0.0000000000000995
 40
20.9999999999998792
  0
CIRCLE
  5
2720
  8
0
 10
409.3115402491412738
 20
215.1402168117029987
 30
-0.0000000000000995
 40
20.3933091116334708
  0
CIRCLE
  5
2721
  8
0
 10
409.3115402491412738
 20
215.1402168117029987
 30
-0.0000000000000995
 40
18.8990170644958617
  0
CIRCLE
  5
2722
  8
0
 10
409.3115402491411032
 20
215.1402168117029987
 30
-0.000000000000103
 40
25.8582341875773807
  0
CIRCLE
  5
2723
  8
0
  6
VERDECKT
 62
     1
 10
409.3115402491411032
 20
215.1402168117029987
 30
-0.000000000000103
 40
24.6499999999999808
  0
CIRCLE
  5
2724
  8
0
  6
VERDECKT
 62
     1
 10
409.3115402491412738
 20
215.1402168117029987
 30
-0.0000000000000995
 40
19.4999999999998792
  0
CIRCLE
  5
2725
  8
0
  6
VERDECKT
 62
     1
 10
409.3115402491411032
 20
215.1402168117029987
 30
-0.000000000000103
 40
24.6499999999999488
  0
ENDBLK
  5
2727
  8
0
  0
BLOCK
  8
0
  2
A$CB66C5C21
 70
     0
 10
0.0
 20
0.0
 30
0.0
  3
A$CB66C5C21
  1

  0
LINE
  5
272B
  8
0
 10
463.3115402491411032
 20
-43.4999999999998579
 30
0.0000000000000097
 11
355.3115402491412169
 21
-43.4999999999998579
 31
0.0000000000000097
210
0.0
220
1.0
230
-0.0000000000000002
  0
LINE
  5
272C
  8
0
 10
463.3115402491411032
 20
-31.4999999999998685
 30
0.000000000000007
 11
355.3115402491412169
 21
-31.4999999999998685
 31
0.000000000000007
210
0.0
220
1.0
230
-0.0000000000000002
  0
LINE
  5
272D
  8
0
 10
355.3115402491412169
 20
-43.4999999999998579
 30
0.0000000000000097
 11
355.3115402491412169
 21
-31.4999999999998685
 31
0.000000000000007
210
0.0
220
1.0
230
-0.0000000000000002
  0
LINE
  5
272E
  8
0
 10
463.3115402491411032
 20
-43.4999999999998579
 30
0.0000000000000097
 11
463.3115402491411032
 21
-31.4999999999998685
 31
0.000000000000007
210
0.0
220
1.0
230
-0.0000000000000002
  0
LINE
  5
272F
  8
0
 10
388.9182311375078029
 20
41.5000000000001066
 30
-0.0000000000000092
 11
429.7048493607746877
 21
41.5000000000001066
 31
-0.0000000000000092
210
0.0
220
1.0
230
-0.0000000000000002
  0
LINE
  5
2730
  8
0
 10
383.4533060615638078
 20
-30.6110848477107496
 30
0.0000000000000068
 11
435.169774436718626
 21
-30.6110848477108597
 31
0.0000000000000068
210
0.0
220
1.0
230
-0.0000000000000002
  0
ARC
  5
2731
  8
0
 10
-393.8115402491794157
 20
34.3253562283651092
 30
0.0
 40
5.5000000000379137
210
0.0
220
-0.0000000000000002
230
-1.0
 50
0.0000000000142871
 51
4.9999999999792806
  0
ARC
  5
2732
  8
0
 10
-424.8115402491325199
 20
34.3253562283657274
 30
0.0
 40
5.500000000008753
210
0.0
220
-0.0000000000000002
230
-1.0
 50
175.0000000000005969
 51
179.9999999999924967
  0
LINE
  5
2733
  8
0
 10
429.7048493607748014
 20
41.5000000000001208
 30
-0.0000000000000092
 11
430.2906110886457896
 21
34.8047128134785524
 31
-0.0000000000000077
210
0.0
220
1.0
230
-0.0000000000000002
  0
LINE
  5
2734
  8
0
 10
388.9182311375078029
 20
41.5000000000001492
 30
-0.0000000000000092
 11
388.3324694096368148
 21
34.8047128134785524
 31
-0.0000000000000077
210
0.0
220
1.0
230
-0.0000000000000002
  0
LINE
  5
2735
  8
0
 10
430.3115402491412169
 20
34.3253562283664522
 30
-0.0000000000000076
 11
430.3115402491411032
 21
-21.3818450097548407
 31
0.0000000000000047
210
0.0
220
1.0
230
-0.0000000000000002
  0
LINE
  5
2736
  8
0
 10
388.3115402491415011
 20
34.3253562283664806
 30
-0.0000000000000076
 11
388.3115402491413874
 21
-21.381845009754759
 31
0.0000000000000047
210
0.0
220
1.0
230
-0.0000000000000002
  0
ARC
  5
2737
  8
0
 10
-380.3115402491413874
 20
-21.3818450097549295
 30
0.0
 40
7.9999999999998286
210
0.0
220
-0.0000000000000002
230
-1.0
 50
179.9999999999988063
 51
216.3424485228333083
  0
ARC
  5
2738
  8
0
 10
-438.311540249140478
 20
-21.3818450097551001
 30
0.0
 40
7.999999999999436
210
0.0
220
-0.0000000000000002
230
-1.0
 50
323.6575514771649864
 51
0.0000000000018384
  0
LINE
  5
2739
  8
0
 10
431.8676245820615804
 20
-26.1227258219633498
 30
0.0000000000000058
 11
435.169774436718626
 21
-30.61108484771081
 31
0.0000000000000068
210
0.0
220
1.0
230
-0.0000000000000002
  0
LINE
  5
273A
  8
0
 10
386.7554559162209102
 20
-26.1227258219632503
 30
0.0000000000000058
 11
383.4533060615638078
 21
-30.6110848477107602
 31
0.0000000000000068
210
0.0
220
1.0
230
-0.0000000000000002
  0
LINE
  5
273B
  8
0
 10
384.6615402491412965
 20
-31.499999999999801
 30
0.000000000000007
 11
383.4533060615639215
 21
-30.6110848477107105
 31
0.0000000000000068
210
0.0
220
1.0
230
-0.0000000000000002
  0
LINE
  5
273C
  8
0
 10
433.9615402491410805
 20
-31.4999999999998508
 30
0.000000000000007
 11
435.1697744367185123
 21
-30.6110848477107602
 31
0.0000000000000068
210
0.0
220
1.0
230
-0.0000000000000002
  0
LINE
  5
273D
  8
0
  6
VERDECKT
 62
     1
 10
382.8115402491412738
 20
-43.4999999999998579
 30
0.0000000000000097
 11
382.8115402491412738
 21
-31.4999999999998685
 31
0.000000000000007
210
0.0
220
1.0
230
-0.0000000000000002
  0
LINE
  5
273E
  8
0
  6
VERDECKT
 62
     1
 10
393.8115402491412738
 20
-43.4999999999998579
 30
0.0000000000000097
 11
393.8115402491412738
 21
-31.4999999999998685
 31
0.000000000000007
210
0.0
220
1.0
230
-0.0000000000000002
  0
LINE
  5
273F
  8
0
  6
VERDECKT
 62
     1
 10
456.8115402491412169
 20
-31.4999999999998685
 30
0.000000000000007
 11
456.8115402491412169
 21
-43.4999999999998579
 31
0.0000000000000097
210
0.0
220
1.0
230
-0.0000000000000002
  0
LINE
  5
2740
  8
0
  6
VERDECKT
 62
     1
 10
445.8115402491412169
 20
-31.4999999999998685
 30
0.000000000000007
 11
445.8115402491412169
 21
-43.4999999999998579
 31
0.0000000000000097
210
0.0
220
1.0
230
-0.0000000000000002
  0
LINE
  5
2741
  8
0
  6
VERDECKT
 62
     1
 10
361.8115402491412738
 20
-43.4999999999998579
 30
0.0000000000000097
 11
361.8115402491412738
 21
-31.4999999999998685
 31
0.000000000000007
210
0.0
220
1.0
230
-0.0000000000000002
  0
LINE
  5
2742
  8
0
  6
VERDECKT
 62
     1
 10
372.8115402491412738
 20
-43.4999999999998579
 30
0.0000000000000097
 11
372.8115402491412738
 21
-31.4999999999998685
 31
0.000000000000007
210
0.0
220
1.0
230
-0.0000000000000002
  0
LINE
  5
2743
  8
0
  6
VERDECKT
 62
     1
 10
435.8115402491412169
 20
-31.4999999999998685
 30
0.000000000000007
 11
435.8115402491412169
 21
-43.4999999999998579
 31
0.0000000000000097
210
0.0
220
1.0
230
-0.0000000000000002
  0
LINE
  5
2744
  8
0
  6
VERDECKT
 62
     1
 10
424.8115402491412169
 20
-31.4999999999998685
 30
0.000000000000007
 11
424.8115402491412169
 21
-43.4999999999998579
 31
0.0000000000000097
210
0.0
220
1.0
230
-0.0000000000000002
  0
LINE
  5
2745
  8
0
  6
VERDECKT
 62
     1
 10
384.6615402491411828
 20
-43.4999999999998579
 30
0.0000000000000097
 11
384.6615402491411828
 21
-31.4999999999998685
 31
0.000000000000007
210
0.0
220
1.0
230
-0.0000000000000002
  0
LINE
  5
2746
  8
0
  6
VERDECKT
 62
     1
 10
433.9615402491410805
 20
-43.4999999999998579
 30
0.0000000000000097
 11
433.9615402491410805
 21
-31.4999999999998685
 31
0.000000000000007
210
0.0
220
1.0
230
-0.0000000000000002
  0
LINE
  5
2747
  8
0
  6
VERDECKT
 62
     1
 10
390.4125231846455222
 20
41.3692663858786389
 30
-0.0000000000000092
 11
428.2105573136370822
 21
41.3692663858786389
 31
-0.0000000000000092
210
0.0
220
1.0
230
-0.0000000000000002
  0
ARC
  5
2748
  8
0
  6
VERDECKT
 62
     1
 10
-393.8115402491283135
 20
34.3253562283669567
 30
0.0
 40
3.9999999999868692
210
0.0
220
-0.0000000000000002
230
-1.0
 50
359.9999999999947136
 51
5.0000000000106297
  0
ARC
  5
2749
  8
0
  6
VERDECKT
 62
     1
 10
-424.811540249153893
 20
34.3253562283669282
 30
0.0
 40
3.9999999999872098
210
0.0
220
-0.0000000000000002
230
-1.0
 50
174.9999999999895124
 51
180.0000000000050875
  0
LINE
  5
274A
  8
0
  6
VERDECKT
 62
     1
 10
428.8115402491412169
 20
34.325356228366573
 30
-0.0000000000000076
 11
428.8115402491412169
 21
-21.3818450097548407
 31
0.0000000000000047
210
0.0
220
1.0
230
-0.0000000000000002
  0
LINE
  5
274B
  8
0
  6
VERDECKT
 62
     1
 10
389.8115402491415011
 20
34.3253562283665872
 30
-0.0000000000000076
 11
389.8115402491413874
 21
-21.3818450097548194
 31
0.0000000000000047
210
0.0
220
1.0
230
-0.0000000000000002
  0
LINE
  5
274C
  8
0
  6
VERDECKT
 62
     1
 10
428.2105573136371959
 20
41.3692663858786531
 30
-0.0000000000000092
 11
428.796319041508184
 21
34.6739791993571913
 31
-0.0000000000000077
210
0.0
220
1.0
230
-0.0000000000000002
  0
LINE
  5
274D
  8
0
  6
VERDECKT
 62
     1
 10
390.4125231846454085
 20
41.3692663858786602
 30
-0.0000000000000092
 11
389.8267614567744772
 21
34.6739791993571913
 31
-0.0000000000000077
210
0.0
220
1.0
230
-0.0000000000000002
  0
LINE
  5
274E
  8
0
  6
VERDECKT
 62
     1
 10
430.6593903944842054
 20
-27.0116409742522912
 30
0.000000000000006
 11
433.9615402491410805
 21
-31.4999999999999112
 31
0.000000000000007
210
0.0
220
1.0
230
-0.0000000000000002
  0
LINE
  5
274F
  8
0
  6
VERDECKT
 62
     1
 10
387.9636901037982852
 20
-27.0116409742522201
 30
0.000000000000006
 11
384.6615402491411828
 21
-31.4999999999998685
 31
0.000000000000007
210
0.0
220
1.0
230
-0.0000000000000002
  0
ARC
  5
2750
  8
0
  6
VERDECKT
 62
     1
 10
-380.3115402491416148
 20
-21.3818450097547199
 30
0.0
 40
9.4999999999996572
210
0.0
220
-0.0000000000000002
230
-1.0
 50
180.0000000000005969
 51
216.342448522834701
  0
ARC
  5
2751
  8
0
  6
VERDECKT
 62
     1
 10
-438.3115402491408759
 20
-21.3818450097547483
 30
0.0
 40
9.4999999999997726
210
0.0
220
-0.0000000000000002
230
-1.0
 50
323.6575514771653843
 51
359.9999999999993747
  0
LINE
  5
2752
  8
0
  6
VERDECKT
 62
     1
 10
390.4125231846455222
 20
41.3692663858786602
 30
-0.0000000000000092
 11
388.9182311375078029
 21
41.5000000000001421
 31
-0.0000000000000092
210
0.0
220
1.0
230
-0.0000000000000002
  0
LINE
  5
2753
  8
0
  6
VERDECKT
 62
     1
 10
428.2105573136370822
 20
41.3692663858786105
 30
-0.0000000000000092
 11
429.7048493607746877
 21
41.5000000000000995
 31
-0.0000000000000092
210
0.0
220
1.0
230
-0.0000000000000002
  0
ENDBLK
  5
2755
  8
0
  0
ENDSEC
  0
SECTION
  2
ENTITIES
  0
TEXT
  5
1AB
  8
VOLL
 10
78.076754716981128
 20
31.025947764705851
 30
0.0
 40
1.8
  1

  7
GREEKS
  0
TEXT
  5
47C
  8
VOLL
 10
304.1178073501386052
 20
38.5180663705133384
 30
0.0
 40
1.8
  1

  7
GREEKS
  0
TEXT
  5
81E
  8
VOLL
 10
304.1635696025373932
 20
33.0738823621185318
 30
0.0
 40
1.8
  1

  7
GREEKS
  0
TEXT
  5
BE6
  8
VOLL
 10
518.1674192428324659
 20
32.8509959482288423
 30
0.0
 40
1.8
  1

  7
GREEKS
  0
INSERT
  5
1A71
  8
ADSK_ASSOC_ENTITY_BACKUPS
  2
*S2
 10
0.0
 20
0.0
 30
0.0
  0
INSERT
  5
2728
  8
STEMPEL
  2
A$C3FA0E265
 10
142.1509138382602089
 20
-97.1911224053761487
 30
-28.4466310329717693
  0
INSERT
  5
2756
  8
STEMPEL
  2
A$CB66C5C21
 10
142.1509138382602089
 20
256.8649625251221096
 30
-28.4466310329718794
  0
VIEWPORT
  5
176F
 67
     1
  8
0
 10
96.246081355850464
 20
124.3238369738080991
 30
0.0
 40
533.9969448798290159
 41
299.1239570917758783
 68
     1
 69
     1
1001
ACAD
1000
MVIEW
1002
{
1070
    16
1010
0.0
1020
0.0
1030
0.0
1010
0.0
1020
0.0
1030
1.0
1040
0.0
1040
299.1239570917758783
1040
96.246081355850464
1040
124.3238369738080991
1040
50.0
1040
0.0
1040
0.0
1070
     0
1070
  1500
1070
     1
1070
     1
1070
     0
1070
     0
1070
     0
1070
     0
1040
0.0
1040
0.0
1040
0.0
1040
10.0
1040
10.0
1040
10.0
1040
10.0
1070
     0
1002
{
1002
}
1002
}
  0
ENDSEC
  0
EOF
