  0
SECTION
  2
HEADER
  9
$ACADVER
  1
AC1009
  9
$INSBASE
 10
0.0
 20
0.0
 30
0.0
  9
$EXTMIN
 10
-155.0
 20
-359.9999999999997726
 30
-0.0000000000000733
  9
$EXTMAX
 10
155.0
 20
330.0000000000001137
 30
0.0
  9
$LIMMIN
 10
0.0
 20
0.0
  9
$LIMMAX
 10
419.9999999999998863
 20
594.0
  9
$ORTHOMODE
 70
     1
  9
$REGENMODE
 70
     1
  9
$FILLMODE
 70
     1
  9
$QTEXTMODE
 70
     0
  9
$MIRRTEXT
 70
     1
  9
$DRAGMODE
 70
     2
  9
$LTSCALE
 40
20.0
  9
$OSMODE
 70
  2559
  9
$ATTMODE
 70
     1
  9
$TEXTSIZE
 40
3.5
  9
$TRACEWID
 40
0.5
  9
$TEXTSTYLE
  7
STANDARD
  9
$CLAYER
  8
STEMPEL
  9
$CELTYPE
  6
BYLAYER
  9
$CECOLOR
 62
   256
  9
$DIMSCALE
 40
2.0
  9
$DIMASZ
 40
3.5
  9
$DIMEXO
 40
1.0
  9
$DIMDLI
 40
7.0
  9
$DIMRND
 40
0.0
  9
$DIMDLE
 40
0.0
  9
$DIMEXE
 40
1.0
  9
$DIMTP
 40
0.0
  9
$DIMTM
 40
0.0
  9
$DIMTXT
 40
3.5
  9
$DIMCEN
 40
1.5
  9
$DIMTSZ
 40
0.0
  9
$DIMTOL
 70
     0
  9
$DIMLIM
 70
     0
  9
$DIMTIH
 70
     0
  9
$DIMTOH
 70
     0
  9
$DIMSE1
 70
     0
  9
$DIMSE2
 70
     0
  9
$DIMTAD
 70
     1
  9
$DIMZIN
 70
     8
  9
$DIMBLK
  1

  9
$DIMASO
 70
     1
  9
$DIMSHO
 70
     0
  9
$DIMPOST
  1

  9
$DIMAPOST
  1

  9
$DIMALT
 70
     0
  9
$DIMALTD
 70
     2
  9
$DIMALTF
 40
25.3999999999999986
  9
$DIMLFAC
 40
1.0
  9
$DIMTOFL
 70
     1
  9
$DIMTVP
 40
0.0
  9
$DIMTIX
 70
     0
  9
$DIMSOXD
 70
     0
  9
$DIMSAH
 70
     0
  9
$DIMBLK1
  1

  9
$DIMBLK2
  1

  9
$DIMSTYLE
  2
STANDARD
  9
$DIMCLRD
 70
     0
  9
$DIMCLRE
 70
     0
  9
$DIMCLRT
 70
     1
  9
$DIMTFAC
 40
0.5
  9
$DIMGAP
 40
1.5
  9
$LUNITS
 70
     2
  9
$LUPREC
 70
     2
  9
$SKETCHINC
 40
1.0
  9
$FILLETRAD
 40
0.0
  9
$AUNITS
 70
     0
  9
$AUPREC
 70
     0
  9
$MENU
  1
ACAD
  9
$ELEVATION
 40
0.0
  9
$PELEVATION
 40
0.0
  9
$THICKNESS
 40
0.0
  9
$LIMCHECK
 70
     0
  9
$BLIPMODE
 70
     0
  9
$CHAMFERA
 40
0.0
  9
$CHAMFERB
 40
0.0
  9
$SKPOLY
 70
     0
  9
$TDCREATE
 40
2455397.8646990740671754
  9
$TDUPDATE
 40
2458390.3073842590674758
  9
$TDINDWG
 40
0.0457223843
  9
$TDUSRTIMER
 40
0.0457223843
  9
$USRTIMER
 70
     1
  9
$ANGBASE
 50
0.0
  9
$ANGDIR
 70
     0
  9
$PDMODE
 70
     0
  9
$PDSIZE
 40
0.0
  9
$PLINEWID
 40
0.0
  9
$COORDS
 70
     1
  9
$SPLFRAME
 70
     0
  9
$SPLINETYPE
 70
     6
  9
$SPLINESEGS
 70
     8
  9
$ATTDIA
 70
     1
  9
$ATTREQ
 70
     1
  9
$HANDLING
 70
     1
  9
$HANDSEED
  5
1353
  9
$SURFTAB1
 70
     6
  9
$SURFTAB2
 70
     6
  9
$SURFTYPE
 70
     6
  9
$SURFU
 70
     6
  9
$SURFV
 70
     6
  9
$UCSNAME
  2

  9
$UCSORG
 10
0.0
 20
0.0
 30
0.0
  9
$UCSXDIR
 10
1.0
 20
0.0
 30
0.0
  9
$UCSYDIR
 10
0.0
 20
1.0
 30
0.0
  9
$PUCSNAME
  2

  9
$PUCSORG
 10
0.0
 20
0.0
 30
0.0
  9
$PUCSXDIR
 10
1.0
 20
0.0
 30
0.0
  9
$PUCSYDIR
 10
0.0
 20
1.0
 30
0.0
  9
$USERI1
 70
     0
  9
$USERI2
 70
     0
  9
$USERI3
 70
     0
  9
$USERI4
 70
     0
  9
$USERI5
 70
     0
  9
$USERR1
 40
0.0
  9
$USERR2
 40
0.0
  9
$USERR3
 40
0.0
  9
$USERR4
 40
0.0
  9
$USERR5
 40
0.0
  9
$WORLDVIEW
 70
     1
  9
$SHADEDGE
 70
     3
  9
$SHADEDIF
 70
    70
  9
$TILEMODE
 70
     1
  9
$MAXACTVP
 70
    16
  9
$PLIMCHECK
 70
     0
  9
$PEXTMIN
 10
-0.2358659371766087
 20
-0.263614928441001
 30
-0.0000000000000058
  9
$PEXTMAX
 10
12.4394795220146008
 20
17.3460283552387011
 30
0.0000000000000104
  9
$PLIMMIN
 10
-0.2500002402958907
 20
-0.2499999962453767
  9
$PLIMMAX
 10
10.7499995194082203
 20
8.2499997634587334
  9
$UNITMODE
 70
     0
  9
$VISRETAIN
 70
     0
  9
$PLINEGEN
 70
     0
  9
$PSLTSCALE
 70
     0
  0
ENDSEC
  0
SECTION
  2
TABLES
  0
TABLE
  2
VPORT
 70
     1
  0
VPORT
  2
*ACTIVE
 70
     0
 10
0.0
 20
0.0
 11
1.0
 21
1.0
 12
0.0000000000000568
 22
-102.5054016113279971
 13
0.0
 23
0.0
 14
1.0
 24
1.0
 15
10.0
 25
10.0
 16
-0.0000000000003287
 26
0.0
 36
1480.2648489010630328
 17
0.0
 27
87.505401611328125
 37
-0.0000000000000366
 40
693.517417162276729
 41
1.868197278911564
 42
50.0
 43
0.0
 44
0.0
 50
0.0
 51
0.0
 71
     0
 72
  1500
 73
     1
 74
     0
 75
     0
 76
     0
 77
     0
 78
     0
  0
ENDTAB
  0
TABLE
  2
LTYPE
 70
     5
  0
LTYPE
  2
CONTINUOUS
 70
     0
  3
Solid line
 72
    65
 73
     0
 40
0.0
  0
LTYPE
  2
PHANTOM2
 70
     0
  3
Phantom (.5x) ___ _ _ ___ _ _ ___ _ _ ___ _ _
 72
    65
 73
     6
 40
1.25
 49
0.625
 49
-0.125
 49
0.125
 49
-0.125
 49
0.125
 49
-0.125
  0
LTYPE
  2
VERDECKT
 70
     0
  3
_ _ _ _ _ _ _ _ _ _ _ _ _ _ _ _ _ _ _ _ _ _ _
 72
    65
 73
     2
 40
0.375
 49
0.25
 49
-0.125
  0
ENDTAB
  0
TABLE
  2
LAYER
 70
    11
  0
LAYER
  2
0
 70
     0
 62
     7
  6
CONTINUOUS
  0
LAYER
  2
VOLL
 70
     0
 62
     1
  6
CONTINUOUS
  0
LAYER
  2
STEMPEL
 70
     0
 62
     3
  6
CONTINUOUS
  0
LAYER
  2
DEFPOINTS
 70
     0
 62
     7
  6
CONTINUOUS
  0
ENDTAB
  0
TABLE
  2
STYLE
 70
     2
  0
STYLE
  2
STANDARD
 70
     0
 40
0.0
 41
0.8
 50
0.0
 71
     0
 42
3.5
  3
simplex.shx
  4

  0
STYLE
  2
GREEKS
 70
     0
 40
0.0
 41
0.8
 50
0.0
 71
     0
 42
2.5
  3
SIMPLEX.shx
  4

  0
ENDTAB
  0
TABLE
  2
VIEW
 70
     1
  0
ENDTAB
  0
TABLE
  2
UCS
 70
     0
  0
ENDTAB
  0
TABLE
  2
APPID
 70
     9
  0
APPID
  2
ACAD
 70
     0
  0
APPID
  2
ACAD_EXEMPT_FROM_CAD_STANDARDS
 70
     0
  0
APPID
  2
ACAD_NAV_VCDISPLAY
 70
     0
  0
APPID
  2
ACAD_MLEADERVER
 70
     0
  0
APPID
  2
ACAD_PSEXT
 70
     0
  0
APPID
  2
ACAECLAYERSTANDARD
 70
     0
  0
APPID
  2
ACCMTRANSPARENCY
 70
     0
  0
APPID
  2
ACAD_OBJECT_CHANGE_GUID
 70
     0
  0
APPID
  2
ACADANNOMONITORALERTICONDI
 70
     0
  0
ENDTAB
  0
TABLE
  2
DIMSTYLE
 70
     2
  0
DIMSTYLE
  2
STANDARD
 70
     0
  3

  4

  5

  6

  7

 40
1.0
 41
0.18
 42
0.0625
 43
0.38
 44
0.18
 45
0.0
 46
0.0
 47
0.0
 48
0.0
140
0.18
141
0.09
142
0.0
143
25.3999999999999986
144
1.0
145
0.0
146
1.0
147
0.09
 71
     0
 72
     0
 73
     1
 74
     1
 75
     0
 76
     0
 77
     0
 78
     0
170
     0
171
     2
172
     0
173
     0
174
     0
175
     0
176
     0
177
     0
178
     0
  0
ENDTAB
  0
ENDSEC
  0
SECTION
  2
BLOCKS
  0
BLOCK
  8
0
  2
$MODEL_SPACE
 70
     0
 10
0.0
 20
0.0
 30
0.0
  3
$MODEL_SPACE
  1

  0
ENDBLK
  5
36
  8
0
  0
BLOCK
 67
     1
  8
0
  2
$PAPER_SPACE
 70
     0
 10
0.0
 20
0.0
 30
0.0
  3
$PAPER_SPACE
  1

  0
ENDBLK
  5
34
 67
     1
  8
0
  0
BLOCK
  8
0
  2
A$C063D723E
 70
     0
 10
0.0
 20
0.0
 30
0.0
  3
A$C063D723E
  1

  0
CIRCLE
  5
1280
  8
0
  6
CONTINUOUS
 62
     3
 10
0.0
 20
0.0000000000000118
 30
0.0
 40
75.2406771356230593
  0
CIRCLE
  5
1281
  8
0
  6
CONTINUOUS
 62
     3
 10
0.0000000000000538
 20
0.0000000000000266
 30
0.0
 40
77.0
  0
CIRCLE
  5
1282
  8
0
  6
CONTINUOUS
 62
     3
 10
0.0000000000000607
 20
0.0000000000000285
 30
0.0
 40
82.0
  0
CIRCLE
  5
1283
  8
0
  6
CONTINUOUS
 62
     3
 10
0.0000000000000733
 20
0.000000000000032
 30
0.0
 40
84.0000000000001137
  0
CIRCLE
  5
1284
  8
0
  6
CONTINUOUS
 62
     3
 10
0.0000000000000733
 20
0.000000000000032
 30
0.0
 40
86.7584447974063551
  0
CIRCLE
  5
1285
  8
0
  6
CONTINUOUS
 62
     3
 10
0.000000000000167
 20
0.0000000000000216
 30
0.0
 40
154.9999999999998863
  0
CIRCLE
  5
1286
  8
0
  6
CONTINUOUS
 62
     3
 10
0.000000000000167
 20
0.0000000000000216
 30
0.0
 40
110.9999999999999005
  0
CIRCLE
  5
1287
  8
0
  6
CONTINUOUS
 62
     3
 10
0.0000000000000733
 20
0.0000000000000328
 30
0.0
 40
86.7584447974061277
  0
CIRCLE
  5
1288
  8
0
  6
CONTINUOUS
 62
     3
 10
0.0000000000000733
 20
0.0000000000000328
 30
0.0
 40
106.5999999999999943
  0
CIRCLE
  5
1289
  8
0
  6
CONTINUOUS
 62
     3
 10
0.0000000000000733
 20
0.0000000000000446
 30
0.0
 40
106.5999999999999943
  0
CIRCLE
  5
128A
  8
0
  6
CONTINUOUS
 62
     3
 10
0.0000000000000733
 20
0.0000000000000446
 30
0.0
 40
109.5
  0
CIRCLE
  5
128B
  8
0
  6
VERDECKT
 62
     1
 10
0.0
 20
0.0000000000000118
 30
0.0
 40
77.7502267294814828
  0
CIRCLE
  5
128C
  8
0
  6
VERDECKT
 62
     1
 10
0.0000000000000698
 20
0.000000000000031
 30
0.0
 40
88.0
  0
CIRCLE
  5
128D
  8
0
  6
VERDECKT
 62
     1
 10
0.0000000000000698
 20
0.000000000000031
 30
0.0
 40
90.5
  0
CIRCLE
  5
128E
  8
0
  6
VERDECKT
 62
     1
 10
0.0000000000000607
 20
0.0000000000000285
 30
0.0
 40
84.5000000000000142
  0
CIRCLE
  5
128F
  8
0
  6
VERDECKT
 62
     1
 10
0.0000000000000538
 20
0.0000000000000266
 30
0.0
 40
79.5
  0
CIRCLE
  5
1290
  8
0
  6
VERDECKT
 62
     1
 10
0.0000000000000662
 20
0.00000000000003
 30
0.0
 40
88.0000474056390942
  0
CIRCLE
  5
1291
  8
0
  6
VERDECKT
 62
     1
 10
0.0000000000000662
 20
0.00000000000003
 30
0.0
 40
90.5000474056391937
  0
CIRCLE
  5
1292
  8
0
  6
VERDECKT
 62
     1
 10
0.000000000000018
 20
0.0000000000000176
 30
0.0
 40
104.7499999999999005
  0
CIRCLE
  5
1293
  8
0
  6
VERDECKT
 62
     1
 10
0.000000000000016
 20
0.0000000000000171
 30
0.0
 40
86.7999999999999545
  0
CIRCLE
  5
1294
  8
0
  6
VERDECKT
 62
     1
 10
0.0000000000000144
 20
0.0000000000000166
 30
0.0
 40
90.8414518843271708
  0
CIRCLE
  5
1295
  8
0
  6
VERDECKT
 62
     1
 10
0.0000000000000144
 20
0.0000000000000166
 30
0.0
 40
102.0
  0
CIRCLE
  5
1296
  8
0
  6
VERDECKT
 62
     1
 10
0.0000000000000698
 20
0.0000000000000319
 30
0.0
 40
90.4999999999998863
  0
ENDBLK
  5
1298
  8
0
  0
BLOCK
  8
0
  2
A$C21003D43
 70
     0
 10
0.0
 20
0.0
 30
0.0
  3
A$C21003D43
  1

  0
LINE
  5
129C
  8
0
  6
CONTINUOUS
 62
     3
 10
-77.7502267294814828
 20
0.0
 30
0.0
 11
77.7502267294814828
 21
0.0
 31
0.0
210
0.0
220
1.0
230
-0.0000000000000002
  0
LINE
  5
129D
  8
0
  6
CONTINUOUS
 62
     3
 10
-79.5000000000002274
 20
12.5752205073652608
 30
-0.0000000000000028
 11
79.5000000000002274
 21
12.5752205073652608
 31
-0.0000000000000028
210
0.0
220
1.0
230
-0.0000000000000002
  0
LINE
  5
129E
  8
0
  6
CONTINUOUS
 62
     3
 10
79.5000000000001137
 20
63.0000000000001776
 30
-0.000000000000014
 11
79.5000000000001137
 21
12.5752205073652608
 31
-0.0000000000000028
210
0.0
220
1.0
230
-0.0000000000000002
  0
LINE
  5
129F
  8
0
  6
CONTINUOUS
 62
     3
 10
-79.5000000000001137
 20
63.0000000000001776
 30
-0.000000000000014
 11
-79.5000000000001137
 21
12.5752205073652608
 31
-0.0000000000000028
210
0.0
220
1.0
230
-0.0000000000000002
  0
LINE
  5
12A0
  8
0
  6
CONTINUOUS
 62
     3
 10
-77.7502267294814828
 20
0.0000000000000009
 30
0.0
 11
-79.5000000000002274
 21
12.5752205073652608
 31
-0.0000000000000028
210
0.0
220
1.0
230
-0.0000000000000002
  0
LINE
  5
12A1
  8
0
  6
CONTINUOUS
 62
     3
 10
77.7502267294814828
 20
0.0000000000000009
 30
0.0
 11
79.5000000000002274
 21
12.5752205073652608
 31
-0.0000000000000028
210
0.0
220
1.0
230
-0.0000000000000002
  0
LINE
  5
12A2
  8
0
  6
CONTINUOUS
 62
     3
 10
-154.9999999999996874
 20
231.9999999999998863
 30
-0.0000000000000515
 11
155.0
 21
232.000000000000199
 31
-0.0000000000000515
210
0.0
220
1.0
230
-0.0000000000000002
  0
LINE
  5
12A3
  8
0
  6
CONTINUOUS
 62
     3
 10
-154.9999999999996874
 20
239.9999999999998863
 30
-0.0000000000000533
 11
155.0
 21
240.000000000000199
 31
-0.0000000000000533
210
0.0
220
1.0
230
-0.0000000000000002
  0
LINE
  5
12A4
  8
0
  6
CONTINUOUS
 62
     3
 10
155.0
 20
240.000000000000199
 30
-0.0000000000000533
 11
155.0
 21
232.000000000000199
 31
-0.0000000000000515
210
0.0
220
1.0
230
-0.0000000000000002
  0
LINE
  5
12A5
  8
0
  6
CONTINUOUS
 62
     3
 10
-154.999999999999801
 20
240.0
 30
-0.0000000000000533
 11
-154.999999999999801
 21
232.0
 31
-0.0000000000000515
210
0.0
220
1.0
230
-0.0000000000000002
  0
LINE
  5
12A6
  8
0
  6
CONTINUOUS
 62
     3
 10
-155.0
 20
231.9999999999998863
 30
-0.0000000000000515
 11
155.0
 21
232.000000000000199
 31
-0.0000000000000515
210
0.0
220
1.0
230
-0.0000000000000002
  0
LINE
  5
12A7
  8
0
  6
CONTINUOUS
 62
     3
 10
-155.0
 20
223.9999999999998863
 30
-0.0000000000000497
 11
155.0
 21
224.0000000000001137
 31
-0.0000000000000497
210
0.0
220
1.0
230
-0.0000000000000002
  0
LINE
  5
12A8
  8
0
  6
CONTINUOUS
 62
     3
 10
155.0
 20
232.000000000000199
 30
-0.0000000000000515
 11
155.0
 21
224.0000000000001137
 31
-0.0000000000000497
210
0.0
220
1.0
230
-0.0000000000000002
  0
LINE
  5
12A9
  8
0
  6
CONTINUOUS
 62
     3
 10
-155.0
 20
232.0000000000001137
 30
-0.0000000000000515
 11
-155.0
 21
224.0000000000001137
 31
-0.0000000000000497
210
0.0
220
1.0
230
-0.0000000000000002
  0
LINE
  5
12AA
  8
0
  6
CONTINUOUS
 62
     3
 10
109.5
 20
63.0000000000001776
 30
-0.000000000000014
 11
-109.5
 21
63.0000000000001776
 31
-0.000000000000014
210
0.0
220
1.0
230
-0.0000000000000002
  0
LINE
  5
12AB
  8
0
  6
CONTINUOUS
 62
     3
 10
109.5
 20
65.0000000000000711
 30
-0.0000000000000144
 11
-109.5
 21
65.0000000000000711
 31
-0.0000000000000144
210
0.0
220
1.0
230
-0.0000000000000002
  0
LINE
  5
12AC
  8
0
  6
CONTINUOUS
 62
     3
 10
-109.5
 20
63.0000000000001776
 30
-0.000000000000014
 11
-109.5
 21
65.0000000000000711
 31
-0.0000000000000144
210
0.0
220
1.0
230
-0.0000000000000002
  0
LINE
  5
12AD
  8
0
  6
CONTINUOUS
 62
     3
 10
109.5
 20
63.0000000000001776
 30
-0.000000000000014
 11
109.5
 21
65.0000000000000711
 31
-0.0000000000000144
210
0.0
220
1.0
230
-0.0000000000000002
  0
LINE
  5
12AE
  8
0
  6
CONTINUOUS
 62
     3
 10
109.5
 20
330.0000000000001137
 30
-0.0000000000000733
 11
-109.5
 21
330.0000000000001137
 31
-0.0000000000000733
210
0.0
220
1.0
230
-0.0000000000000002
  0
LINE
  5
12AF
  8
0
  6
CONTINUOUS
 62
     3
 10
-109.5
 20
65.0000000000000142
 30
-0.0000000000000144
 11
109.5
 21
65.0000000000000142
 31
-0.0000000000000144
210
0.0
220
1.0
230
-0.0000000000000002
  0
LINE
  5
12B0
  8
0
  6
CONTINUOUS
 62
     3
 10
109.5
 20
330.0000000000001137
 30
-0.0000000000000733
 11
109.5
 21
240.0000000000001137
 31
-0.0000000000000533
210
0.0
220
1.0
230
-0.0000000000000002
  0
LINE
  5
12B1
  8
0
  6
CONTINUOUS
 62
     3
 10
109.5
 20
224.0000000000001137
 30
-0.0000000000000497
 11
109.5
 21
65.0000000000000142
 31
-0.0000000000000144
210
0.0
220
1.0
230
-0.0000000000000002
  0
LINE
  5
12B2
  8
0
  6
CONTINUOUS
 62
     3
 10
-109.5
 20
330.0000000000001137
 30
-0.0000000000000733
 11
-109.5
 21
240.0
 31
-0.0000000000000533
210
0.0
220
1.0
230
-0.0000000000000002
  0
LINE
  5
12B3
  8
0
  6
CONTINUOUS
 62
     3
 10
-109.5
 20
224.0000000000001137
 30
-0.0000000000000497
 11
-109.5
 21
65.0000000000000142
 31
-0.0000000000000144
210
0.0
220
1.0
230
-0.0000000000000002
  0
LINE
  5
12B4
  8
0
  6
VERDECKT
 62
     1
 10
-77.0000000000000853
 20
12.6843728646364298
 30
-0.0000000000000028
 11
77.0000000000000853
 21
12.6843728646364298
 31
-0.0000000000000028
210
0.0
220
1.0
230
-0.0000000000000002
  0
LINE
  5
12B5
  8
0
  6
VERDECKT
 62
     1
 10
-75.2406771356230593
 20
-0.0000000000000009
 30
0.0
 11
-77.0000000000001137
 21
12.6843728646364298
 31
-0.0000000000000028
210
0.0
220
1.0
230
-0.0000000000000002
  0
LINE
  5
12B6
  8
0
  6
VERDECKT
 62
     1
 10
75.2406771356230593
 20
-0.0000000000000009
 30
0.0
 11
77.0000000000001137
 21
12.6843728646364298
 31
-0.0000000000000028
210
0.0
220
1.0
230
-0.0000000000000002
  0
LINE
  5
12B7
  8
0
  6
VERDECKT
 62
     1
 10
77.0000000000001137
 20
242.4722520853956951
 30
-0.0000000000000538
 11
77.0000000000001137
 21
12.6843728646364298
 31
-0.0000000000000028
210
0.0
220
1.0
230
-0.0000000000000002
  0
LINE
  5
12B8
  8
0
  6
VERDECKT
 62
     1
 10
-77.0000000000001137
 20
242.4722520853956951
 30
-0.0000000000000538
 11
-77.0000000000001137
 21
12.6843728646364298
 31
-0.0000000000000028
210
0.0
220
1.0
230
-0.0000000000000002
  0
ARC
  5
12B9
  8
0
  6
VERDECKT
 62
     1
 10
89.5000000000001705
 20
242.4722520853954961
 30
0.0
 40
12.5000000000001901
210
0.0
220
-0.0000000000000002
230
-1.0
 50
145.2280559680517911
 51
179.9999999999988916
  0
ARC
  5
12BA
  8
0
  6
VERDECKT
 62
     1
 10
-89.5000000000001705
 20
242.4722520853954961
 30
0.0
 40
12.5000000000001794
210
0.0
220
-0.0000000000000002
230
-1.0
 50
0.0000000000010432
 51
34.7719440319481805
  0
ARC
  5
12BB
  8
0
  6
VERDECKT
 62
     1
 10
66.5
 20
258.440971508066923
 30
0.0
 40
15.5
210
0.0
220
-0.0000000000000002
230
-1.0
 50
325.2280559680510237
 51
0.0000000000004262
  0
ARC
  5
12BC
  8
0
  6
VERDECKT
 62
     1
 10
-66.5000000000000142
 20
258.440971508066923
 30
0.0
 40
15.4999999999999805
210
0.0
220
-0.0000000000000002
230
-1.0
 50
179.9999999999996021
 51
214.7719440319488911
  0
LINE
  5
12BD
  8
0
  6
VERDECKT
 62
     1
 10
82.0
 20
273.4999999999997726
 30
-0.0000000000000607
 11
82.0
 21
258.4409715080669798
 31
-0.0000000000000574
210
0.0
220
1.0
230
-0.0000000000000002
  0
LINE
  5
12BE
  8
0
  6
VERDECKT
 62
     1
 10
-82.0
 20
273.4999999999997726
 30
-0.0000000000000607
 11
-82.0
 21
258.4409715080669798
 31
-0.0000000000000574
210
0.0
220
1.0
230
-0.0000000000000002
  0
ARC
  5
12BF
  8
0
  6
VERDECKT
 62
     1
 10
102.4999999999951967
 20
273.50000000000108
 30
0.0
 40
20.4999999999952216
210
0.0
220
-0.0000000000000002
230
-1.0
 50
152.4728163794497107
 51
180.0000000000034106
  0
ARC
  5
12C0
  8
0
  6
VERDECKT
 62
     1
 10
-102.4999999999951967
 20
273.50000000000108
 30
0.0
 40
20.4999999999952216
210
0.0
220
-0.0000000000000002
230
-1.0
 50
359.9999999999964757
 51
27.5271836205503213
  0
ARC
  5
12C1
  8
0
  6
VERDECKT
 62
     1
 10
55.4999999999965397
 20
297.9950000000005161
 30
0.0
 40
32.5000474056425688
210
0.0
220
-0.0000000000000002
230
-1.0
 50
332.4728163794467832
 51
0.0978612342198344
  0
ARC
  5
12C2
  8
0
  6
VERDECKT
 62
     1
 10
-55.4999999999965468
 20
297.9950000000005161
 30
0.0
 40
32.5000474056425617
210
0.0
220
-0.0000000000000002
230
-1.0
 50
179.9021387657801085
 51
207.527183620553302
  0
LINE
  5
12C3
  8
0
  6
VERDECKT
 62
     1
 10
88.0
 20
314.2168957820659898
 30
-0.0000000000000698
 11
88.0
 21
298.0505100782638124
 31
-0.0000000000000662
210
0.0
220
1.0
230
-0.0000000000000002
  0
LINE
  5
12C4
  8
0
  6
VERDECKT
 62
     1
 10
-88.0
 20
314.2168957820659898
 30
-0.0000000000000698
 11
-88.0
 21
298.0505100782638124
 31
-0.0000000000000662
210
0.0
220
1.0
230
-0.0000000000000002
  0
ARC
  5
12C5
  8
0
  6
VERDECKT
 62
     1
 10
55.4999999999964828
 20
314.2168957820654214
 30
0.0
 40
32.5000000000035314
210
0.0
220
-0.0000000000000002
230
-1.0
 50
0.0000000000012086
 51
24.9999999999958185
  0
ARC
  5
12C6
  8
0
  6
VERDECKT
 62
     1
 10
-55.4999999999964828
 20
314.2168957820654214
 30
0.0
 40
32.5000000000035385
210
0.0
220
-0.0000000000000002
230
-1.0
 50
155.0000000000042064
 51
179.9999999999988063
  0
LINE
  5
12C7
  8
0
  6
VERDECKT
 62
     1
 10
84.0000000000001563
 20
330.0000000000001137
 30
-0.0000000000000733
 11
84.9550030786918455
 21
327.9519892886373782
 31
-0.0000000000000728
210
0.0
220
1.0
230
-0.0000000000000002
  0
LINE
  5
12C8
  8
0
  6
VERDECKT
 62
     1
 10
-84.0000000000001563
 20
330.0000000000001137
 30
-0.0000000000000733
 11
-84.9550030786918455
 21
327.9519892886373782
 31
-0.0000000000000728
210
0.0
220
1.0
230
-0.0000000000000002
  0
LINE
  5
12C9
  8
0
  6
VERDECKT
 62
     1
 10
86.7584447974063551
 20
330.0000000000001137
 30
-0.0000000000000733
 11
87.2207725462835839
 21
329.0085349429890016
 31
-0.0000000000000731
210
0.0
220
1.0
230
-0.0000000000000002
  0
LINE
  5
12CA
  8
0
  6
VERDECKT
 62
     1
 10
-86.7584447974063551
 20
330.0000000000001137
 30
-0.0000000000000733
 11
-87.2207725462835839
 21
329.0085349429890016
 31
-0.0000000000000731
210
0.0
220
1.0
230
-0.0000000000000002
  0
ARC
  5
12CB
  8
0
  6
VERDECKT
 62
     1
 10
55.4999999999990408
 20
314.2168957820659898
 30
0.0
 40
35.0000000000009592
210
0.0
220
-0.0000000000000002
230
-1.0
 50
0.0000000000001908
 51
24.9999999999965183
  0
ARC
  5
12CC
  8
0
  6
VERDECKT
 62
     1
 10
-55.4999999999990266
 20
314.2168957820659898
 30
0.0
 40
35.0000000000009805
210
0.0
220
-0.0000000000000002
230
-1.0
 50
155.0000000000034959
 51
179.999999999999801
  0
LINE
  5
12CD
  8
0
  6
VERDECKT
 62
     1
 10
90.5
 20
314.2168957820662172
 30
-0.0000000000000698
 11
90.5
 21
298.0526055291678063
 31
-0.0000000000000662
210
0.0
220
1.0
230
-0.0000000000000002
  0
LINE
  5
12CE
  8
0
  6
VERDECKT
 62
     1
 10
-90.5
 20
314.2168957820662172
 30
-0.0000000000000698
 11
-90.5
 21
298.0526055291678063
 31
-0.0000000000000662
210
0.0
220
1.0
230
-0.0000000000000002
  0
ARC
  5
12CF
  8
0
  6
VERDECKT
 62
     1
 10
55.5000000000011084
 20
297.9949999999996066
 30
0.0
 40
35.0000474056380924
210
0.0
220
-0.0000000000000002
230
-1.0
 50
332.4728163794443958
 51
0.0943014490765391
  0
ARC
  5
12D0
  8
0
  6
VERDECKT
 62
     1
 10
-55.5000000000011084
 20
297.9949999999996066
 30
0.0
 40
35.0000474056381066
210
0.0
220
-0.0000000000000002
230
-1.0
 50
179.9056985509234039
 51
207.5271836205556042
  0
ARC
  5
12D1
  8
0
  6
VERDECKT
 62
     1
 10
102.4999999999945999
 20
273.50000000000108
 30
0.0
 40
17.9999999999946105
210
0.0
220
-0.0000000000000002
230
-1.0
 50
152.472816379449597
 51
180.0000000000038938
  0
ARC
  5
12D2
  8
0
  6
VERDECKT
 62
     1
 10
-102.4999999999945999
 20
273.50000000000108
 30
0.0
 40
17.9999999999946105
210
0.0
220
-0.0000000000000002
230
-1.0
 50
359.999999999996021
 51
27.5271836205503497
  0
LINE
  5
12D3
  8
0
  6
VERDECKT
 62
     1
 10
84.5000000000000142
 20
273.4999999999997726
 30
-0.0000000000000607
 11
84.5000000000000142
 21
258.4409715080669798
 31
-0.0000000000000574
210
0.0
220
1.0
230
-0.0000000000000002
  0
LINE
  5
12D4
  8
0
  6
VERDECKT
 62
     1
 10
-84.5000000000000142
 20
273.4999999999997726
 30
-0.0000000000000607
 11
-84.5000000000000142
 21
258.4409715080669798
 31
-0.0000000000000574
210
0.0
220
1.0
230
-0.0000000000000002
  0
ARC
  5
12D5
  8
0
  6
VERDECKT
 62
     1
 10
66.5000000000003979
 20
258.4409715080668093
 30
0.0
 40
17.9999999999995808
210
0.0
220
-0.0000000000000002
230
-1.0
 50
325.2280559680502279
 51
0.0000000000005471
  0
ARC
  5
12D6
  8
0
  6
VERDECKT
 62
     1
 10
-66.5000000000005116
 20
258.4409715080668093
 30
0.0
 40
17.9999999999994706
210
0.0
220
-0.0000000000000002
230
-1.0
 50
179.9999999999994031
 51
214.7719440319498858
  0
ARC
  5
12D7
  8
0
  6
VERDECKT
 62
     1
 10
89.4999999999984936
 20
242.472252085396093
 30
0.0
 40
9.9999999999984972
210
0.0
220
-0.0000000000000002
230
-1.0
 50
145.2280559680503131
 51
180.0000000000025011
  0
ARC
  5
12D8
  8
0
  6
VERDECKT
 62
     1
 10
-89.4999999999983658
 20
242.4722520853962067
 30
0.0
 40
9.9999999999983782
210
0.0
220
-0.0000000000000002
230
-1.0
 50
359.9999999999973284
 51
34.7719440319499569
  0
LINE
  5
12D9
  8
0
  6
VERDECKT
 62
     1
 10
79.5000000000001137
 20
242.4722520853956951
 30
-0.0000000000000538
 11
79.5000000000001137
 21
63.0000000000001776
 31
-0.000000000000014
210
0.0
220
1.0
230
-0.0000000000000002
  0
LINE
  5
12DA
  8
0
  6
VERDECKT
 62
     1
 10
-79.5000000000001137
 20
242.4722520853956951
 30
-0.0000000000000538
 11
-79.5000000000001137
 21
63.0000000000001776
 31
-0.000000000000014
210
0.0
220
1.0
230
-0.0000000000000002
  0
LINE
  5
12DB
  8
0
  6
VERDECKT
 62
     1
 10
111.0
 20
240.0000000000003126
 30
-0.0000000000000533
 11
111.0
 21
232.000000000000199
 31
-0.0000000000000515
210
0.0
220
1.0
230
-0.0000000000000002
  0
LINE
  5
12DC
  8
0
  6
VERDECKT
 62
     1
 10
-110.9999999999997016
 20
240.000000000000199
 30
-0.0000000000000533
 11
-110.9999999999997016
 21
232.0000000000001137
 31
-0.0000000000000515
210
0.0
220
1.0
230
-0.0000000000000002
  0
LINE
  5
12DD
  8
0
  6
VERDECKT
 62
     1
 10
111.0
 20
232.000000000000199
 30
-0.0000000000000515
 11
111.0
 21
224.000000000000199
 31
-0.0000000000000497
210
0.0
220
1.0
230
-0.0000000000000002
  0
LINE
  5
12DE
  8
0
  6
VERDECKT
 62
     1
 10
-111.0
 20
232.000000000000199
 30
-0.0000000000000515
 11
-111.0
 21
224.0000000000001137
 31
-0.0000000000000497
210
0.0
220
1.0
230
-0.0000000000000002
  0
LINE
  5
12DF
  8
0
  6
VERDECKT
 62
     1
 10
106.5999999999998948
 20
79.1499999999998778
 30
-0.0000000000000176
 11
-106.5999999999998948
 21
79.1499999999998778
 31
-0.0000000000000176
210
0.0
220
1.0
230
-0.0000000000000002
  0
LINE
  5
12E0
  8
0
  6
VERDECKT
 62
     1
 10
104.7499999999999005
 20
81.0000000000000142
 30
-0.000000000000018
 11
-104.7499999999999005
 21
81.0000000000000142
 31
-0.000000000000018
210
0.0
220
1.0
230
-0.0000000000000002
  0
LINE
  5
12E1
  8
0
  6
VERDECKT
 62
     1
 10
86.7999999999999545
 20
72.0000000000000142
 30
-0.000000000000016
 11
-86.7999999999999545
 21
72.0000000000000142
 31
-0.000000000000016
210
0.0
220
1.0
230
-0.0000000000000002
  0
LINE
  5
12E2
  8
0
  6
VERDECKT
 62
     1
 10
-106.5999999999998948
 20
65.0000000000000142
 30
-0.0000000000000144
 11
-106.5999999999998948
 21
79.1499999999998778
 31
-0.0000000000000176
210
0.0
220
1.0
230
-0.0000000000000002
  0
LINE
  5
12E3
  8
0
  6
VERDECKT
 62
     1
 10
106.5999999999998948
 20
65.0000000000000142
 30
-0.0000000000000144
 11
106.5999999999998948
 21
79.1499999999998778
 31
-0.0000000000000176
210
0.0
220
1.0
230
-0.0000000000000002
  0
LINE
  5
12E4
  8
0
  6
VERDECKT
 62
     1
 10
104.7499999999999005
 20
81.0000000000000426
 30
-0.000000000000018
 11
106.5999999999998948
 21
79.1499999999999062
 31
-0.0000000000000176
210
0.0
220
1.0
230
-0.0000000000000002
  0
LINE
  5
12E5
  8
0
  6
VERDECKT
 62
     1
 10
-104.7499999999999005
 20
81.0000000000000426
 30
-0.000000000000018
 11
-106.5999999999998948
 21
79.1499999999999062
 31
-0.0000000000000176
210
0.0
220
1.0
230
-0.0000000000000002
  0
LINE
  5
12E6
  8
0
  6
VERDECKT
 62
     1
 10
-79.5
 20
72.0000000000000142
 30
-0.000000000000016
 11
-79.5
 21
81.0000000000000142
 31
-0.000000000000018
210
0.0
220
1.0
230
-0.0000000000000002
  0
LINE
  5
12E7
  8
0
  6
VERDECKT
 62
     1
 10
79.5
 20
72.0000000000000142
 30
-0.000000000000016
 11
79.5
 21
81.0000000000000142
 31
-0.000000000000018
210
0.0
220
1.0
230
-0.0000000000000002
  0
LINE
  5
12E8
  8
0
  6
VERDECKT
 62
     1
 10
86.7999999999999545
 20
72.0000000000000142
 30
-0.000000000000016
 11
90.8414518843271708
 21
65.0000000000000142
 31
-0.0000000000000144
210
0.0
220
1.0
230
-0.0000000000000002
  0
LINE
  5
12E9
  8
0
  6
VERDECKT
 62
     1
 10
-86.7999999999999545
 20
72.0000000000000142
 30
-0.000000000000016
 11
-90.8414518843271708
 21
65.0000000000000142
 31
-0.0000000000000144
210
0.0
220
1.0
230
-0.0000000000000002
  0
LINE
  5
12EA
  8
0
  6
VERDECKT
 62
     1
 10
-102.0
 20
63.0000000000000711
 30
-0.000000000000014
 11
-102.0
 21
65.0000000000000711
 31
-0.0000000000000144
210
0.0
220
1.0
230
-0.0000000000000002
  0
LINE
  5
12EB
  8
0
  6
VERDECKT
 62
     1
 10
102.0
 20
63.0000000000000711
 30
-0.000000000000014
 11
102.0
 21
65.0000000000000711
 31
-0.0000000000000144
210
0.0
220
1.0
230
-0.0000000000000002
  0
LINE
  5
12EC
  8
0
  6
VERDECKT
 62
     1
 10
-106.5999999999999943
 20
312.0000000000002274
 30
-0.0000000000000693
 11
106.5999999999999943
 21
312.0000000000002274
 31
-0.0000000000000693
210
0.0
220
1.0
230
-0.0000000000000002
  0
LINE
  5
12ED
  8
0
  6
VERDECKT
 62
     1
 10
90.5
 20
314.2168957820662172
 30
-0.0000000000000698
 11
90.5
 21
312.0
 31
-0.0000000000000693
210
0.0
220
1.0
230
-0.0000000000000002
  0
LINE
  5
12EE
  8
0
  6
VERDECKT
 62
     1
 10
-90.5
 20
314.2168957820662172
 30
-0.0000000000000698
 11
-90.5
 21
312.0
 31
-0.0000000000000693
210
0.0
220
1.0
230
-0.0000000000000002
  0
ARC
  5
12EF
  8
0
  6
VERDECKT
 62
     1
 10
55.4999999999851781
 20
314.2168957820625792
 30
0.0
 40
35.0000000000147367
210
0.0
220
-0.0000000000000002
230
-1.0
 50
0.0000000000057759
 51
24.999999999994639
  0
ARC
  5
12F0
  8
0
  6
VERDECKT
 62
     1
 10
-55.4999999999851923
 20
314.2168957820625792
 30
0.0
 40
35.0000000000147296
210
0.0
220
-0.0000000000000002
230
-1.0
 50
155.0000000000054001
 51
179.999999999994202
  0
LINE
  5
12F1
  8
0
  6
VERDECKT
 62
     1
 10
86.7584447974061277
 20
330.0000000000001137
 30
-0.0000000000000733
 11
87.220772546282646
 21
329.0085349429904227
 31
-0.0000000000000731
210
0.0
220
1.0
230
-0.0000000000000002
  0
LINE
  5
12F2
  8
0
  6
VERDECKT
 62
     1
 10
-86.7584447974061277
 20
330.0000000000001137
 30
-0.0000000000000733
 11
-87.220772546282646
 21
329.0085349429904227
 31
-0.0000000000000731
210
0.0
220
1.0
230
-0.0000000000000002
  0
LINE
  5
12F3
  8
0
  6
VERDECKT
 62
     1
 10
106.5999999999999943
 20
330.0000000000001137
 30
-0.0000000000000733
 11
106.5999999999999943
 21
312.0000000000002274
 31
-0.0000000000000693
210
0.0
220
1.0
230
-0.0000000000000002
  0
LINE
  5
12F4
  8
0
  6
VERDECKT
 62
     1
 10
-106.5999999999999943
 20
330.0000000000001137
 30
-0.0000000000000733
 11
-106.5999999999999943
 21
312.0000000000002274
 31
-0.0000000000000693
210
0.0
220
1.0
230
-0.0000000000000002
  0
LINE
  5
12F5
  8
0
  6
VERDECKT
 62
     1
 10
106.5999999999999943
 20
330.0000000000001137
 30
-0.0000000000000733
 11
106.5999999999999943
 21
65.0000000000000142
 31
-0.0000000000000144
210
0.0
220
1.0
230
-0.0000000000000002
  0
LINE
  5
12F6
  8
0
  6
VERDECKT
 62
     1
 10
-106.5999999999999943
 20
330.0000000000001137
 30
-0.0000000000000733
 11
-106.5999999999999943
 21
65.0000000000000142
 31
-0.0000000000000144
210
0.0
220
1.0
230
-0.0000000000000002
  0
LINE
  5
12F7
  8
0
  6
VERDECKT
 62
     1
 10
109.5
 20
240.0000000000001137
 30
-0.0000000000000533
 11
109.5
 21
224.0000000000001137
 31
-0.0000000000000497
210
0.0
220
1.0
230
-0.0000000000000002
  0
LINE
  5
12F8
  8
0
  6
VERDECKT
 62
     1
 10
-109.5
 20
240.0
 30
-0.0000000000000533
 11
-109.5
 21
224.0000000000001137
 31
-0.0000000000000497
210
0.0
220
1.0
230
-0.0000000000000002
  0
ENDBLK
  5
12FA
  8
0
  0
BLOCK
  8
0
  2
*U13
 70
     1
 10
0.0
 20
0.0
 30
0.0
  3
*U13
  1

  0
TEXT
  5
134D
  8
STEMPEL
 62
     1
 10
111.4474259739668014
 20
260.6949777206369276
 30
0.0
 40
7.0
  1
2.5
 41
0.8
  0
ENDBLK
  5
134F
  8
0
  0
ENDSEC
  0
SECTION
  2
ENTITIES
  0
TEXT
  5
8F
  8
VOLL
 10
78.076754716981128
 20
31.025947764705851
 30
0.0
 40
1.8
  1

  7
GREEKS
  0
INSERT
  5
1299
  8
STEMPEL
  2
A$C063D723E
 10
0.0
 20
-204.9999999999998863
 30
0.0
  0
INSERT
  5
12FB
  8
STEMPEL
  2
A$C21003D43
 10
0.0
 20
0.0
 30
0.0
  0
VIEWPORT
  5
DD2
 67
     1
  8
0
 10
6.101613480967865
 20
8.5412066724007101
 30
0.0
 40
34.8456420557868825
 41
17.7467512993283805
 68
     1
 69
     1
1001
ACAD
1000
MVIEW
1002
{
1070
    16
1010
0.0
1020
0.0
1030
0.0
1010
0.0
1020
0.0
1030
1.0
1040
0.0
1040
17.7467512993283805
1040
6.101613480967865
1040
8.5412066724007101
1040
50.0
1040
0.0
1040
0.0
1070
     0
1070
  1500
1070
     1
1070
     1
1070
     0
1070
     0
1070
     0
1070
     0
1040
0.0
1040
0.0
1040
0.0
1040
10.0
1040
10.0
1040
10.0
1040
10.0
1070
     0
1002
{
1002
}
1002
}
  0
VIEWPORT
  5
DD6
 67
     1
  8
DEFPOINTS
 10
6.1016836227380722
 20
8.5412065494025402
 30
0.0
 40
12.6744298942670497
 41
17.6080313186702213
 68
     2
 69
     2
1001
ACAD
1000
MVIEW
1002
{
1070
    16
1010
883.1629162738773857
1020
145.7868341943818962
1030
-28.1948754145008387
1010
0.0
1020
0.0
1030
1.0
1040
0.0
1040
613.4782416260743503
1040
-669.6255603074143892
1040
154.3640257432768124
1040
50.0
1040
0.0
1040
0.0
1070
     0
1070
  1500
1070
     1
1070
     0
1070
     0
1070
     0
1070
     0
1070
     0
1040
0.0
1040
0.0
1040
0.0
1040
1.0
1040
1.0
1040
10.0
1040
10.0
1070
     0
1002
{
1002
}
1002
}
  0
VIEWPORT
  5
EBD
 67
     1
  8
DEFPOINTS
 10
10.3128591769695692
 20
5.9142679891052969
 30
0.0
 40
2.6226218396663512
 41
3.2750430944430491
 68
     3
 69
     3
1001
ACAD
1000
MVIEW
1002
{
1070
    16
1010
1026.2631378396858963
1020
363.4544490511302115
1030
-29.6351243985237609
1010
0.0
1020
174.7461480548550981
1030
660.2895691961548437
1040
3.2242915986246858
1040
399.197095548561208
1040
0.0
1040
-38.6159646284651927
1040
50.0
1040
0.0
1040
0.0
1070
     0
1070
  1500
1070
     1
1070
     0
1070
     0
1070
     0
1070
     0
1070
     0
1040
0.0
1040
0.0
1040
0.0
1040
1.0
1040
1.0
1040
10.0
1040
10.0
1070
     0
1002
{
1002
}
1002
}
  0
ENDSEC
  0
EOF
