  0
SECTION
  2
HEADER
  9
$ACADVER
  1
AC1009
  9
$INSBASE
 10
0.0
 20
0.0
 30
0.0
  9
$EXTMIN
 10
-130.0167833874193093
 20
-310.0388779184303871
 30
-0.0099174562026292
  9
$EXTMAX
 10
130.0196847808776965
 20
325.0188002006836996
 30
0.0148776977030139
  9
$LIMMIN
 10
0.0
 20
0.0
  9
$LIMMAX
 10
419.9999999999998863
 20
594.0000000000002274
  9
$ORTHOMODE
 70
     1
  9
$REGENMODE
 70
     1
  9
$FILLMODE
 70
     1
  9
$QTEXTMODE
 70
     0
  9
$MIRRTEXT
 70
     1
  9
$DRAGMODE
 70
     2
  9
$LTSCALE
 40
20.0
  9
$OSMODE
 70
  2559
  9
$ATTMODE
 70
     1
  9
$TEXTSIZE
 40
3.5
  9
$TRACEWID
 40
0.5
  9
$TEXTSTYLE
  7
STANDARD
  9
$CLAYER
  8
STEMPEL
  9
$CELTYPE
  6
BYLAYER
  9
$CECOLOR
 62
   256
  9
$DIMSCALE
 40
2.0
  9
$DIMASZ
 40
3.5
  9
$DIMEXO
 40
1.0
  9
$DIMDLI
 40
7.0
  9
$DIMRND
 40
0.0
  9
$DIMDLE
 40
0.0
  9
$DIMEXE
 40
1.0
  9
$DIMTP
 40
1.5
  9
$DIMTM
 40
0.0
  9
$DIMTXT
 40
3.5
  9
$DIMCEN
 40
1.5
  9
$DIMTSZ
 40
0.0
  9
$DIMTOL
 70
     0
  9
$DIMLIM
 70
     0
  9
$DIMTIH
 70
     0
  9
$DIMTOH
 70
     0
  9
$DIMSE1
 70
     0
  9
$DIMSE2
 70
     0
  9
$DIMTAD
 70
     1
  9
$DIMZIN
 70
     8
  9
$DIMBLK
  1

  9
$DIMASO
 70
     1
  9
$DIMSHO
 70
     0
  9
$DIMPOST
  1

  9
$DIMAPOST
  1

  9
$DIMALT
 70
     0
  9
$DIMALTD
 70
     2
  9
$DIMALTF
 40
25.3999999999999986
  9
$DIMLFAC
 40
1.0
  9
$DIMTOFL
 70
     1
  9
$DIMTVP
 40
0.0
  9
$DIMTIX
 70
     0
  9
$DIMSOXD
 70
     0
  9
$DIMSAH
 70
     0
  9
$DIMBLK1
  1

  9
$DIMBLK2
  1

  9
$DIMSTYLE
  2
STANDARD
  9
$DIMCLRD
 70
     0
  9
$DIMCLRE
 70
     0
  9
$DIMCLRT
 70
     1
  9
$DIMTFAC
 40
0.5
  9
$DIMGAP
 40
1.5
  9
$LUNITS
 70
     2
  9
$LUPREC
 70
     2
  9
$SKETCHINC
 40
1.0
  9
$FILLETRAD
 40
0.0
  9
$AUNITS
 70
     0
  9
$AUPREC
 70
     0
  9
$MENU
  1
ACAD
  9
$ELEVATION
 40
0.0
  9
$PELEVATION
 40
0.0
  9
$THICKNESS
 40
0.0
  9
$LIMCHECK
 70
     0
  9
$BLIPMODE
 70
     0
  9
$CHAMFERA
 40
0.0
  9
$CHAMFERB
 40
0.0
  9
$SKPOLY
 70
     0
  9
$TDCREATE
 40
2455397.8646990740671754
  9
$TDUPDATE
 40
2458390.3060069438070059
  9
$TDINDWG
 40
0.3216024653
  9
$TDUSRTIMER
 40
0.3216024653
  9
$USRTIMER
 70
     1
  9
$ANGBASE
 50
0.0
  9
$ANGDIR
 70
     0
  9
$PDMODE
 70
     0
  9
$PDSIZE
 40
0.0
  9
$PLINEWID
 40
0.0
  9
$COORDS
 70
     1
  9
$SPLFRAME
 70
     0
  9
$SPLINETYPE
 70
     6
  9
$SPLINESEGS
 70
     8
  9
$ATTDIA
 70
     1
  9
$ATTREQ
 70
     1
  9
$HANDLING
 70
     1
  9
$HANDSEED
  5
1BB3
  9
$SURFTAB1
 70
     6
  9
$SURFTAB2
 70
     6
  9
$SURFTYPE
 70
     6
  9
$SURFU
 70
     6
  9
$SURFV
 70
     6
  9
$UCSNAME
  2

  9
$UCSORG
 10
0.0
 20
0.0
 30
0.0
  9
$UCSXDIR
 10
1.0
 20
0.0
 30
0.0
  9
$UCSYDIR
 10
0.0
 20
1.0
 30
0.0
  9
$PUCSNAME
  2

  9
$PUCSORG
 10
0.0
 20
0.0
 30
0.0
  9
$PUCSXDIR
 10
1.0
 20
0.0
 30
0.0
  9
$PUCSYDIR
 10
0.0
 20
1.0
 30
0.0
  9
$USERI1
 70
     0
  9
$USERI2
 70
     0
  9
$USERI3
 70
     0
  9
$USERI4
 70
     0
  9
$USERI5
 70
     0
  9
$USERR1
 40
0.0
  9
$USERR2
 40
0.0
  9
$USERR3
 40
0.0
  9
$USERR4
 40
0.0
  9
$USERR5
 40
0.0
  9
$WORLDVIEW
 70
     1
  9
$SHADEDGE
 70
     3
  9
$SHADEDIF
 70
    70
  9
$TILEMODE
 70
     1
  9
$MAXACTVP
 70
    16
  9
$PLIMCHECK
 70
     0
  9
$PEXTMIN
 10
-0.236068940558571
 20
-0.2514158924599528
 30
-0.0000000000112498
  9
$PEXTMAX
 10
8.0538783849575637
 20
10.9503450210658198
 30
0.0000000000002956
  9
$PLIMMIN
 10
-0.2500002402958907
 20
-0.2499999962453767
  9
$PLIMMAX
 10
10.7499995194082203
 20
8.2499997634587334
  9
$UNITMODE
 70
     0
  9
$VISRETAIN
 70
     0
  9
$PLINEGEN
 70
     0
  9
$PSLTSCALE
 70
     0
  0
ENDSEC
  0
SECTION
  2
TABLES
  0
TABLE
  2
VPORT
 70
     1
  0
VPORT
  2
*ACTIVE
 70
     0
 10
0.0
 20
0.0
 11
1.0
 21
1.0
 12
0.0014506967293073
 22
-90.0145707192249347
 13
0.0
 23
0.0
 14
1.0
 24
1.0
 15
20.0
 25
20.0
 16
-0.0000000000002992
 26
0.0
 36
1347.6673416530688883
 17
0.0
 27
97.5045318603515767
 37
-0.0000000000000361
 40
638.295015475711125
 41
1.868197278911564
 42
50.0
 43
0.0
 44
0.0
 50
0.0
 51
0.0
 71
     0
 72
  1500
 73
     1
 74
     0
 75
     0
 76
     0
 77
     0
 78
     0
  0
ENDTAB
  0
TABLE
  2
LTYPE
 70
     6
  0
LTYPE
  2
CONTINUOUS
 70
     0
  3
Solid line
 72
    65
 73
     0
 40
0.0
  0
LTYPE
  2
AUSGEZOGEN
 70
     0
  3
Ausgezogene Linie
 72
    65
 73
     0
 40
0.0
  0
LTYPE
  2
PHANTOM2
 70
     0
  3
Phantom (.5x) ___ _ _ ___ _ _ ___ _ _ ___ _ _
 72
    65
 73
     6
 40
1.25
 49
0.625
 49
-0.125
 49
0.125
 49
-0.125
 49
0.125
 49
-0.125
  0
LTYPE
  2
VERDECKT
 70
     0
  3
_ _ _ _ _ _ _ _ _ _ _ _ _ _ _ _ _ _ _ _ _ _ _
 72
    65
 73
     2
 40
0.375
 49
0.25
 49
-0.125
  0
ENDTAB
  0
TABLE
  2
LAYER
 70
    11
  0
LAYER
  2
0
 70
     0
 62
     7
  6
CONTINUOUS
  0
LAYER
  2
VOLL
 70
     0
 62
     1
  6
CONTINUOUS
  0
LAYER
  2
BEM
 70
     0
 62
     7
  6
CONTINUOUS
  0
LAYER
  2
STEMPEL
 70
     0
 62
     3
  6
CONTINUOUS
  0
LAYER
  2
DEFPOINTS
 70
     0
 62
     7
  6
AUSGEZOGEN
  0
ENDTAB
  0
TABLE
  2
STYLE
 70
     2
  0
STYLE
  2
STANDARD
 70
     0
 40
0.0
 41
0.8
 50
0.0
 71
     0
 42
3.5
  3
simplex.shx
  4

  0
STYLE
  2
GREEKS
 70
     0
 40
0.0
 41
0.8
 50
0.0
 71
     0
 42
2.5
  3
SIMPLEX.shx
  4

  0
ENDTAB
  0
TABLE
  2
VIEW
 70
     1
  0
ENDTAB
  0
TABLE
  2
UCS
 70
     0
  0
ENDTAB
  0
TABLE
  2
APPID
 70
     9
  0
APPID
  2
ACAD
 70
     0
  0
APPID
  2
ACAD_EXEMPT_FROM_CAD_STANDARDS
 70
     0
  0
APPID
  2
ACAD_NAV_VCDISPLAY
 70
     0
  0
APPID
  2
ACAD_MLEADERVER
 70
     0
  0
APPID
  2
ACAD_PSEXT
 70
     0
  0
APPID
  2
ACAECLAYERSTANDARD
 70
     0
  0
APPID
  2
ACCMTRANSPARENCY
 70
     0
  0
APPID
  2
ACADANNOMONITORALERTICONDI
 70
     0
  0
APPID
  2
ACAD_OBJECT_CHANGE_GUID
 70
     0
  0
ENDTAB
  0
TABLE
  2
DIMSTYLE
 70
     2
  0
DIMSTYLE
  2
STANDARD
 70
     0
  3

  4

  5

  6

  7

 40
1.0
 41
0.18
 42
0.0625
 43
0.38
 44
0.18
 45
0.0
 46
0.0
 47
0.0
 48
0.0
140
0.18
141
0.09
142
0.0
143
25.3999999999999986
144
1.0
145
0.0
146
1.0
147
0.09
 71
     0
 72
     0
 73
     1
 74
     1
 75
     0
 76
     0
 77
     0
 78
     0
170
     0
171
     2
172
     0
173
     0
174
     0
175
     0
176
     0
177
     0
178
     0
  0
ENDTAB
  0
ENDSEC
  0
SECTION
  2
BLOCKS
  0
BLOCK
  8
0
  2
$MODEL_SPACE
 70
     0
 10
0.0
 20
0.0
 30
0.0
  3
$MODEL_SPACE
  1

  0
ENDBLK
  5
36
  8
0
  0
BLOCK
 67
     1
  8
0
  2
$PAPER_SPACE
 70
     0
 10
0.0
 20
0.0
 30
0.0
  3
$PAPER_SPACE
  1

  0
ENDBLK
  5
34
 67
     1
  8
0
  0
BLOCK
  8
0
  2
A$C7F86457F
 70
     0
 10
0.0
 20
0.0
 30
0.0
  3
A$C7F86457F
  1

  0
LINE
  5
1ADF
  8
0
  6
CONTINUOUS
 62
     3
 10
-84.1499999999993946
 20
60.0000000000002132
 30
-0.0000000000000133
 11
84.1500000000007873
 21
59.9999999999999289
 31
-0.0000000000000133
210
0.0000000000000002
220
1.0
230
-0.0000000000000002
  0
LINE
  5
1AE0
  8
0
  6
CONTINUOUS
 62
     3
 10
-84.1499999999994941
 20
58.0000000000000924
 30
-0.0000000000000129
 11
84.1500000000008868
 21
57.9999999999999289
 31
-0.0000000000000129
210
0.0000000000000002
220
1.0
230
-0.0000000000000002
  0
LINE
  5
1AE1
  8
0
  6
CONTINUOUS
 62
     3
 10
84.1500000000008868
 20
59.9999999999999289
 30
-0.0000000000000133
 11
84.1500000000008868
 21
57.9999999999999289
 31
-0.0000000000000129
210
0.0000000000000002
220
1.0
230
-0.0000000000000002
  0
LINE
  5
1AE2
  8
0
  6
CONTINUOUS
 62
     3
 10
-84.1499999999995083
 20
60.0000000000000782
 30
-0.0000000000000133
 11
-84.1499999999995083
 21
58.0000000000000782
 31
-0.0000000000000129
210
0.0000000000000002
220
1.0
230
-0.0000000000000002
  0
LINE
  5
1AE3
  8
0
  6
CONTINUOUS
 62
     3
 10
84.1500000000007446
 20
325.0
 30
-0.0000000000000722
 11
-84.1499999999992667
 21
325.0
 31
-0.0000000000000722
210
0.0000000000000002
220
1.0
230
-0.0000000000000002
  0
LINE
  5
1AE4
  8
0
  6
CONTINUOUS
 62
     3
 10
-84.1499999999993094
 20
60.0000000000000284
 30
-0.0000000000000133
 11
84.150000000000702
 21
60.0
 31
-0.0000000000000133
210
0.0000000000000002
220
1.0
230
-0.0000000000000002
  0
LINE
  5
1AE5
  8
0
  6
CONTINUOUS
 62
     3
 10
84.1500000000007446
 20
325.0
 30
-0.0000000000000722
 11
84.1500000000007446
 21
240.0
 31
-0.0000000000000533
210
0.0000000000000002
220
1.0
230
-0.0000000000000002
  0
LINE
  5
1AE6
  8
0
  6
CONTINUOUS
 62
     3
 10
84.1500000000007446
 20
224.0
 30
-0.0000000000000497
 11
84.150000000000702
 21
60.0
 31
-0.0000000000000133
210
0.0000000000000002
220
1.0
230
-0.0000000000000002
  0
LINE
  5
1AE7
  8
0
  6
CONTINUOUS
 62
     3
 10
-84.1499999999992667
 20
325.0
 30
-0.0000000000000722
 11
-84.1499999999992667
 21
240.0000000000001137
 31
-0.0000000000000533
210
0.0000000000000002
220
1.0
230
-0.0000000000000002
  0
LINE
  5
1AE8
  8
0
  6
CONTINUOUS
 62
     3
 10
-84.1499999999992667
 20
224.0000000000001137
 30
-0.0000000000000497
 11
-84.1499999999993094
 21
60.0000000000000284
 31
-0.0000000000000133
210
0.0000000000000002
220
1.0
230
-0.0000000000000002
  0
LINE
  5
1AE9
  8
0
  6
CONTINUOUS
 62
     3
 10
-129.9999999999992895
 20
232.0000000000003126
 30
-0.0000000000000515
 11
130.0000000000007105
 21
232.0
 31
-0.0000000000000515
210
0.0000000000000002
220
1.0
230
-0.0000000000000002
  0
LINE
  5
1AEA
  8
0
  6
CONTINUOUS
 62
     3
 10
-129.9999999999992042
 20
224.0
 30
-0.0000000000000497
 11
130.0000000000005969
 21
224.0
 31
-0.0000000000000497
210
0.0000000000000002
220
1.0
230
-0.0000000000000002
  0
LINE
  5
1AEB
  8
0
  6
CONTINUOUS
 62
     3
 10
130.0000000000007105
 20
232.0
 30
-0.0000000000000515
 11
130.0000000000007105
 21
224.0
 31
-0.0000000000000497
210
0.0000000000000002
220
1.0
230
-0.0000000000000002
  0
LINE
  5
1AEC
  8
0
  6
CONTINUOUS
 62
     3
 10
-129.9999999999992042
 20
232.000000000000199
 30
-0.0000000000000515
 11
-129.9999999999992042
 21
224.0000000000001137
 31
-0.0000000000000497
210
0.0000000000000002
220
1.0
230
-0.0000000000000002
  0
LINE
  5
1AED
  8
0
  6
CONTINUOUS
 62
     3
 10
-129.9999999999994884
 20
240.0
 30
-0.0000000000000533
 11
130.0000000000009095
 21
240.0
 31
-0.0000000000000533
210
0.0000000000000002
220
1.0
230
-0.0000000000000002
  0
LINE
  5
1AEE
  8
0
  6
CONTINUOUS
 62
     3
 10
-129.9999999999992042
 20
232.0000000000003126
 30
-0.0000000000000515
 11
130.0000000000007105
 21
232.0
 31
-0.0000000000000515
210
0.0000000000000002
220
1.0
230
-0.0000000000000002
  0
LINE
  5
1AEF
  8
0
  6
CONTINUOUS
 62
     3
 10
130.0000000000007958
 20
240.0
 30
-0.0000000000000533
 11
130.0000000000007958
 21
232.0
 31
-0.0000000000000515
210
0.0000000000000002
220
1.0
230
-0.0000000000000002
  0
LINE
  5
1AF0
  8
0
  6
CONTINUOUS
 62
     3
 10
-129.9999999999994031
 20
240.000000000000199
 30
-0.0000000000000533
 11
-129.9999999999994031
 21
232.000000000000199
 31
-0.0000000000000515
210
0.0000000000000002
220
1.0
230
-0.0000000000000002
  0
LINE
  5
1AF1
  8
0
  6
CONTINUOUS
 62
     3
 10
-65.012692720059249
 20
0.0000000000001281
 30
0.0
 11
65.012692720059249
 21
-0.0000000000001281
 31
0.0
210
0.0000000000000002
220
1.0
230
-0.0000000000000002
  0
LINE
  5
1AF2
  8
0
  6
CONTINUOUS
 62
     3
 10
66.5000000000005826
 20
57.9999999999999432
 30
-0.0000000000000129
 11
66.5000000000004832
 21
17.0000000000057305
 31
-0.0000000000000038
210
0.0000000000000002
220
1.0
230
-0.0000000000000002
  0
LINE
  5
1AF3
  8
0
  6
CONTINUOUS
 62
     3
 10
-66.5000000000003268
 20
58.0000000000000782
 30
-0.0000000000000129
 11
-66.5000000000004263
 21
17.0000000000059792
 31
-0.0000000000000038
210
0.0000000000000002
220
1.0
230
-0.0000000000000002
  0
LINE
  5
1AF4
  8
0
  6
CONTINUOUS
 62
     3
 10
-65.0126927200592633
 20
0.0000000000001246
 30
0.0
 11
-66.5000000000006537
 21
17.0000000000059792
 31
-0.0000000000000038
210
0.0000000000000002
220
1.0
230
-0.0000000000000002
  0
LINE
  5
1AF5
  8
0
  6
CONTINUOUS
 62
     3
 10
65.012692720059249
 20
-0.0000000000001263
 30
0.0
 11
66.5000000000006821
 21
17.0000000000057305
 31
-0.0000000000000038
210
0.0000000000000002
220
1.0
230
-0.0000000000000002
  0
LINE
  5
1AF6
  8
0
  6
VERDECKT
 62
     1
 10
-73.8564064605503603
 20
66.000000000000199
 30
-0.0000000000000147
 11
73.856406460551753
 21
65.9999999999999432
 31
-0.0000000000000147
210
0.0000000000000002
220
1.0
230
-0.0000000000000002
  0
LINE
  5
1AF7
  8
0
  6
VERDECKT
 62
     1
 10
-79.1499999999992809
 20
76.000000000000199
 30
-0.0000000000000169
 11
79.1500000000006736
 21
75.9999999999999432
 31
-0.0000000000000169
210
0.0000000000000002
220
1.0
230
-0.0000000000000002
  0
LINE
  5
1AF8
  8
0
  6
VERDECKT
 62
     1
 10
-81.2499999999994031
 20
73.8999999999999488
 30
-0.0000000000000164
 11
81.25000000000081
 21
73.8999999999998067
 31
-0.0000000000000164
210
0.0000000000000002
220
1.0
230
-0.0000000000000002
  0
LINE
  5
1AF9
  8
0
  6
VERDECKT
 62
     1
 10
66.5000000000010374
 20
75.9999999999999432
 30
-0.0000000000000169
 11
66.5000000000010374
 21
66.0
 31
-0.0000000000000147
210
0.0000000000000002
220
1.0
230
-0.0000000000000002
  0
LINE
  5
1AFA
  8
0
  6
VERDECKT
 62
     1
 10
-66.4999999999996447
 20
76.0000000000000711
 30
-0.0000000000000169
 11
-66.4999999999996447
 21
66.0000000000001137
 31
-0.0000000000000147
210
0.0000000000000002
220
1.0
230
-0.0000000000000002
  0
LINE
  5
1AFB
  8
0
  6
VERDECKT
 62
     1
 10
70.5000000000006963
 20
75.9999999999999432
 30
-0.0000000000000169
 11
70.5000000000006963
 21
71.9999999999999432
 31
-0.000000000000016
210
0.0000000000000002
220
1.0
230
-0.0000000000000002
  0
LINE
  5
1AFC
  8
0
  6
VERDECKT
 62
     1
 10
-70.4999999999993037
 20
76.0000000000000711
 30
-0.0000000000000169
 11
-70.4999999999993037
 21
72.0000000000000711
 31
-0.000000000000016
210
0.0000000000000002
220
1.0
230
-0.0000000000000002
  0
ARC
  5
1AFD
  8
0
  6
VERDECKT
 62
     1
 10
73.49999999999919
 20
72.0000000000001847
 30
0.0
 40
3.0000000000002269
210
0.0
220
-0.0000000000000002
230
-1.0
 50
180.0000000000021032
 51
270.0
  0
ARC
  5
1AFE
  8
0
  6
VERDECKT
 62
     1
 10
73.49999999999919
 20
72.0000000000001847
 30
0.0
 40
3.0000000000002269
210
0.0
220
-0.0000000000000002
230
-1.0
 50
270.0
 51
359.9999999999977831
  0
ARC
  5
1AFF
  8
0
  6
VERDECKT
 62
     1
 10
-73.5000000000005826
 20
72.0000000000000711
 30
0.0
 40
3.0000000000002269
210
0.0
220
-0.0000000000000002
230
-1.0
 50
180.0000000000023874
 51
270.0
  0
ARC
  5
1B00
  8
0
  6
VERDECKT
 62
     1
 10
-73.5000000000005826
 20
72.0000000000000711
 30
0.0
 40
3.0000000000002269
210
0.0
220
-0.0000000000000002
230
-1.0
 50
270.0
 51
359.9999999999976126
  0
LINE
  5
1B01
  8
0
  6
VERDECKT
 62
     1
 10
-73.49999999999919
 20
68.9999999999999432
 30
-0.0000000000000153
 11
73.5000000000005826
 21
68.9999999999998437
 31
-0.0000000000000153
210
0.0000000000000002
220
1.0
230
-0.0000000000000002
  0
LINE
  5
1B02
  8
0
  6
VERDECKT
 62
     1
 10
76.50000000000081
 20
75.9999999999999432
 30
-0.0000000000000169
 11
76.50000000000081
 21
71.9999999999999432
 31
-0.000000000000016
210
0.0000000000000002
220
1.0
230
-0.0000000000000002
  0
LINE
  5
1B03
  8
0
  6
VERDECKT
 62
     1
 10
-76.4999999999994031
 20
76.0000000000000711
 30
-0.0000000000000169
 11
-76.4999999999994031
 21
72.0000000000000711
 31
-0.000000000000016
210
0.0000000000000002
220
1.0
230
-0.0000000000000002
  0
LINE
  5
1B04
  8
0
  6
VERDECKT
 62
     1
 10
79.1500000000006736
 20
75.9999999999999432
 30
-0.0000000000000169
 11
81.25000000000081
 21
73.8999999999998067
 31
-0.0000000000000164
210
0.0000000000000002
220
1.0
230
-0.0000000000000002
  0
LINE
  5
1B05
  8
0
  6
VERDECKT
 62
     1
 10
-79.1499999999992667
 20
76.0000000000000711
 30
-0.0000000000000169
 11
-81.2499999999994031
 21
73.8999999999999346
 31
-0.0000000000000164
210
0.0000000000000002
220
1.0
230
-0.0000000000000002
  0
LINE
  5
1B06
  8
0
  6
VERDECKT
 62
     1
 10
81.25000000000081
 20
73.8999999999998067
 30
-0.0000000000000164
 11
81.25000000000081
 21
59.9999999999999289
 31
-0.0000000000000133
210
0.0000000000000002
220
1.0
230
-0.0000000000000002
  0
LINE
  5
1B07
  8
0
  6
VERDECKT
 62
     1
 10
-81.2499999999994031
 20
73.8999999999999346
 30
-0.0000000000000164
 11
-81.2499999999994031
 21
60.0000000000000782
 31
-0.0000000000000133
210
0.0000000000000002
220
1.0
230
-0.0000000000000002
  0
LINE
  5
1B08
  8
0
  6
VERDECKT
 62
     1
 10
73.856406460551753
 20
65.9999999999999432
 30
-0.0000000000000147
 11
76.00000000000081
 21
57.9999999999999432
 31
-0.0000000000000129
210
0.0000000000000002
220
1.0
230
-0.0000000000000002
  0
LINE
  5
1B09
  8
0
  6
VERDECKT
 62
     1
 10
-73.8564064605503603
 20
66.0000000000000711
 30
-0.0000000000000147
 11
-75.9999999999994031
 21
58.0000000000000711
 31
-0.0000000000000129
210
0.0000000000000002
220
1.0
230
-0.0000000000000002
  0
LINE
  5
1B0A
  8
0
  6
VERDECKT
 62
     1
 10
81.2500000000007532
 20
325.0
 30
-0.0000000000000722
 11
81.2500000000006963
 21
60.0
 31
-0.0000000000000133
210
0.0000000000000002
220
1.0
230
-0.0000000000000002
  0
LINE
  5
1B0B
  8
0
  6
VERDECKT
 62
     1
 10
-81.2499999999992468
 20
325.0
 30
-0.0000000000000722
 11
-81.2499999999993037
 21
60.0000000000000284
 31
-0.0000000000000133
210
0.0000000000000002
220
1.0
230
-0.0000000000000002
  0
LINE
  5
1B0C
  8
0
  6
VERDECKT
 62
     1
 10
84.1500000000007446
 20
240.0
 30
-0.0000000000000533
 11
84.1500000000007446
 21
224.0
 31
-0.0000000000000497
210
0.0000000000000002
220
1.0
230
-0.0000000000000002
  0
LINE
  5
1B0D
  8
0
  6
VERDECKT
 62
     1
 10
-84.1499999999992667
 20
240.0000000000001137
 30
-0.0000000000000533
 11
-84.1499999999992667
 21
224.0000000000001137
 31
-0.0000000000000497
210
0.0000000000000002
220
1.0
230
-0.0000000000000002
  0
LINE
  5
1B0E
  8
0
  6
VERDECKT
 62
     1
 10
85.0000000000006253
 20
232.0
 30
-0.0000000000000515
 11
85.0000000000006253
 21
224.0
 31
-0.0000000000000497
210
0.0000000000000002
220
1.0
230
-0.0000000000000002
  0
LINE
  5
1B0F
  8
0
  6
VERDECKT
 62
     1
 10
-84.9999999999992042
 20
232.0000000000001137
 30
-0.0000000000000515
 11
-84.9999999999992042
 21
224.0000000000001137
 31
-0.0000000000000497
210
0.0000000000000002
220
1.0
230
-0.0000000000000002
  0
LINE
  5
1B10
  8
0
  6
VERDECKT
 62
     1
 10
85.0000000000006253
 20
240.0
 30
-0.0000000000000533
 11
85.0000000000006253
 21
232.0
 31
-0.0000000000000515
210
0.0000000000000002
220
1.0
230
-0.0000000000000002
  0
LINE
  5
1B11
  8
0
  6
VERDECKT
 62
     1
 10
-84.9999999999992042
 20
240.0000000000001137
 30
-0.0000000000000533
 11
-84.9999999999992042
 21
232.000000000000199
 31
-0.0000000000000515
210
0.0000000000000002
220
1.0
230
-0.0000000000000002
  0
LINE
  5
1B12
  8
0
  6
VERDECKT
 62
     1
 10
-75.9999999999994742
 20
302.2910000000001105
 30
-0.0000000000000671
 11
76.0000000000007532
 21
302.2909999999998831
 31
-0.0000000000000671
210
0.0000000000000002
220
1.0
230
-0.0000000000000002
  0
LINE
  5
1B13
  8
0
  6
VERDECKT
 62
     1
 10
76.0000000000007532
 20
311.3976225555355768
 30
-0.0000000000000691
 11
76.000000000000739
 21
302.2909999999998831
 31
-0.0000000000000671
210
0.0000000000000002
220
1.0
230
-0.0000000000000002
  0
LINE
  5
1B14
  8
0
  6
VERDECKT
 62
     1
 10
-75.99999999999946
 20
311.3976225555358042
 30
-0.0000000000000691
 11
-75.9999999999994884
 21
302.2910000000001105
 31
-0.0000000000000671
210
0.0000000000000002
220
1.0
230
-0.0000000000000002
  0
ARC
  5
1B15
  8
0
  6
VERDECKT
 62
     1
 10
45.9999999999985008
 20
302.2910000000002242
 30
0.0
 40
29.9997362596931012
210
0.0
220
-0.0000000000000002
230
-1.0
 50
334.9928416634477912
 51
359.9999999999998863
  0
ARC
  5
1B16
  8
0
  6
VERDECKT
 62
     1
 10
-45.9999999999997229
 20
302.2909999999999968
 30
0.0
 40
29.9997362596931403
210
0.0
220
-0.0000000000000002
230
-1.0
 50
180.0000000000003126
 51
205.0071583365524077
  0
ARC
  5
1B17
  8
0
  6
VERDECKT
 62
     1
 10
89.5000000000003268
 20
282.0000000000001137
 30
0.0
 40
18.0000000000006608
210
0.0
220
-0.0000000000000002
230
-1.0
 50
154.9928416634494113
 51
179.9999999999996021
  0
ARC
  5
1B18
  8
0
  6
VERDECKT
 62
     1
 10
-89.5000000000015348
 20
281.9999999999997158
 30
0.0
 40
18.0000000000008491
210
0.0
220
-0.0000000000000002
230
-1.0
 50
0.0000000000007379
 51
25.0071583365508907
  0
LINE
  5
1B19
  8
0
  6
VERDECKT
 62
     1
 10
71.5000000000007532
 20
281.9999999999998863
 30
-0.0000000000000626
 11
71.5000000000007248
 21
258.4687194226709721
 31
-0.0000000000000574
210
0.0000000000000002
220
1.0
230
-0.0000000000000002
  0
LINE
  5
1B1A
  8
0
  6
VERDECKT
 62
     1
 10
-71.4999999999997016
 20
282.0000000000001137
 30
-0.0000000000000626
 11
-71.49999999999973
 21
258.4687194226713132
 31
-0.0000000000000574
210
0.0000000000000002
220
1.0
230
-0.0000000000000002
  0
ARC
  5
1B1B
  8
0
  6
VERDECKT
 62
     1
 10
53.4999999999993321
 20
258.4687194226714837
 30
0.0
 40
18.0000000000003801
210
0.0
220
-0.0000000000000002
230
-1.0
 50
325.2280559680518763
 51
359.9999999999992042
  0
ARC
  5
1B1C
  8
0
  6
VERDECKT
 62
     1
 10
-53.5000000000003624
 20
258.4687194226713132
 30
0.0
 40
18.0000000000003801
210
0.0
220
-0.0000000000000002
230
-1.0
 50
180.0000000000009095
 51
214.77194403194801
  0
ARC
  5
1B1D
  8
0
  6
VERDECKT
 62
     1
 10
76.4999999999991047
 20
242.5000000000003126
 30
0.0
 40
9.9999999999993818
210
0.0
220
-0.0000000000000002
230
-1.0
 50
145.2280559680498015
 51
180.0000000000009095
  0
ARC
  5
1B1E
  8
0
  6
VERDECKT
 62
     1
 10
-76.4999999999999432
 20
242.5
 30
0.0
 40
9.9999999999991882
210
0.0
220
-0.0000000000000002
230
-1.0
 50
359.9999999999989768
 51
34.77194403195071
  0
LINE
  5
1B1F
  8
0
  6
VERDECKT
 62
     1
 10
66.5000000000009379
 20
242.499999999999801
 30
-0.0000000000000538
 11
66.5000000000005826
 21
57.9999999999999432
 31
-0.0000000000000129
210
0.0000000000000002
220
1.0
230
-0.0000000000000002
  0
LINE
  5
1B20
  8
0
  6
VERDECKT
 62
     1
 10
-66.4999999999999716
 20
242.500000000000199
 30
-0.0000000000000538
 11
-66.5000000000003268
 21
58.0000000000000782
 31
-0.0000000000000129
210
0.0000000000000002
220
1.0
230
-0.0000000000000002
  0
LINE
  5
1B21
  8
0
  6
VERDECKT
 62
     1
 10
-62.503143126200797
 20
0.000000000000124
 30
0.0
 11
-64.0000000000005969
 21
17.1091523572773312
 31
-0.0000000000000038
210
0.0000000000000002
220
1.0
230
-0.0000000000000002
  0
LINE
  5
1B22
  8
0
  6
VERDECKT
 62
     1
 10
62.5031431262007615
 20
-0.0000000000001222
 30
0.0
 11
64.0000000000006253
 21
17.1091523572770789
 31
-0.0000000000000038
210
0.0000000000000002
220
1.0
230
-0.0000000000000002
  0
LINE
  5
1B23
  8
0
  6
VERDECKT
 62
     1
 10
64.0000000000009379
 20
242.499999999999801
 30
-0.0000000000000538
 11
64.0000000000004832
 21
17.1091523572770683
 31
-0.0000000000000038
210
0.0000000000000002
220
1.0
230
-0.0000000000000002
  0
LINE
  5
1B24
  8
0
  6
VERDECKT
 62
     1
 10
-63.9999999999999716
 20
242.500000000000199
 30
-0.0000000000000538
 11
-64.0000000000004263
 21
17.1091523572773312
 31
-0.0000000000000038
210
0.0000000000000002
220
1.0
230
-0.0000000000000002
  0
ARC
  5
1B25
  8
0
  6
VERDECKT
 62
     1
 10
76.4999999999975273
 20
242.5000000000007958
 30
0.0
 40
12.4999999999978009
210
0.0
220
-0.0000000000000002
230
-1.0
 50
145.2280559680488921
 51
180.0000000000028137
  0
ARC
  5
1B26
  8
0
  6
VERDECKT
 62
     1
 10
-76.4999999999986642
 20
242.5000000000003979
 30
0.0
 40
12.4999999999979092
210
0.0
220
-0.0000000000000002
230
-1.0
 50
359.9999999999973852
 51
34.7719440319508735
  0
ARC
  5
1B27
  8
0
  6
VERDECKT
 62
     1
 10
53.4999999999999929
 20
258.4687194226713132
 30
0.0
 40
15.4999999999996998
210
0.0
220
-0.0000000000000002
230
-1.0
 50
325.2280559680505121
 51
0.0000000000002226
  0
ARC
  5
1B28
  8
0
  6
VERDECKT
 62
     1
 10
-53.500000000001009
 20
258.4687194226709721
 30
0.0
 40
15.4999999999997105
210
0.0
220
-0.0000000000000002
230
-1.0
 50
179.999999999999801
 51
214.7719440319494879
  0
LINE
  5
1B29
  8
0
  6
VERDECKT
 62
     1
 10
69.0000000000007532
 20
281.9999999999998863
 30
-0.0000000000000626
 11
69.0000000000007248
 21
258.4687194226710858
 31
-0.0000000000000574
210
0.0000000000000002
220
1.0
230
-0.0000000000000002
  0
LINE
  5
1B2A
  8
0
  6
VERDECKT
 62
     1
 10
-68.9999999999997016
 20
282.0000000000001137
 30
-0.0000000000000626
 11
-68.99999999999973
 21
258.4687194226713132
 31
-0.0000000000000574
210
0.0000000000000002
220
1.0
230
-0.0000000000000002
  0
ARC
  5
1B2B
  8
0
  6
VERDECKT
 62
     1
 10
89.4999999999989626
 20
282.0000000000005116
 30
0.0
 40
20.4999999999992895
210
0.0
220
-0.0000000000000002
230
-1.0
 50
155.2128276928110893
 51
180.0000000000011084
  0
ARC
  5
1B2C
  8
0
  6
VERDECKT
 62
     1
 10
-89.5000000000006963
 20
282.0000000000001137
 30
0.0
 40
20.5
210
0.0
220
-0.0000000000000002
230
-1.0
 50
359.9999999999996021
 51
24.7871723071889214
  0
ARC
  5
1B2D
  8
0
  6
VERDECKT
 62
     1
 10
46.0000000000008029
 20
302.2909999999998263
 30
0.0
 40
27.499999999998721
210
0.0
220
-0.0000000000000002
230
-1.0
 50
334.8288522569350221
 51
0.0000000000008524
  0
ARC
  5
1B2E
  8
0
  6
VERDECKT
 62
     1
 10
-46.0000000000027711
 20
302.2909999999994852
 30
0.0
 40
27.4999999999979998
210
0.0
220
-0.0000000000000002
230
-1.0
 50
179.9999999999992042
 51
205.1711477430654895
  0
LINE
  5
1B2F
  8
0
  6
VERDECKT
 62
     1
 10
73.5000000000007532
 20
311.3976225555355768
 30
-0.0000000000000691
 11
73.500000000000739
 21
302.2909999999998831
 31
-0.0000000000000671
210
0.0000000000000002
220
1.0
230
-0.0000000000000002
  0
LINE
  5
1B30
  8
0
  6
VERDECKT
 62
     1
 10
-73.49999999999946
 20
311.3976225555358042
 30
-0.0000000000000691
 11
-73.4999999999994884
 21
302.2910000000002242
 31
-0.0000000000000671
210
0.0000000000000002
220
1.0
230
-0.0000000000000002
  0
ARC
  5
1B31
  8
0
  6
VERDECKT
 62
     1
 10
46.0000000000006821
 20
311.3976225555355768
 30
0.0
 40
27.4999999999988205
210
0.0
220
-0.0000000000000002
230
-1.0
 50
0.0000000000004962
 51
25.000000000001279
  0
ARC
  5
1B32
  8
0
  6
VERDECKT
 62
     1
 10
-46.0000000000022879
 20
311.3976225555355768
 30
0.0
 40
27.4999999999984901
210
0.0
220
-0.0000000000000002
230
-1.0
 50
154.9999999999988063
 51
179.9999999999998863
  0
LINE
  5
1B33
  8
0
  6
VERDECKT
 62
     1
 10
70.0000000000007532
 20
325.0
 30
-0.0000000000000722
 11
70.9234641435085251
 21
323.0196247534046847
 31
-0.0000000000000717
210
0.0000000000000002
220
1.0
230
-0.0000000000000002
  0
LINE
  5
1B34
  8
0
  6
VERDECKT
 62
     1
 10
-69.9999999999994742
 20
325.0000000000002274
 30
-0.0000000000000722
 11
-70.9234641435072461
 21
323.0196247534049121
 31
-0.0000000000000717
210
0.0000000000000002
220
1.0
230
-0.0000000000000002
  0
LINE
  5
1B35
  8
0
  6
VERDECKT
 62
     1
 10
72.7584447974071367
 20
325.0
 30
-0.0000000000000722
 11
73.1892336111007893
 21
324.0761704077556828
 31
-0.000000000000072
210
0.0000000000000002
220
1.0
230
-0.0000000000000002
  0
LINE
  5
1B36
  8
0
  6
VERDECKT
 62
     1
 10
-72.7584447974058435
 20
325.0000000000002274
 30
-0.0000000000000722
 11
-73.1892336110994961
 21
324.0761704077559102
 31
-0.000000000000072
210
0.0000000000000002
220
1.0
230
-0.0000000000000002
  0
ARC
  5
1B37
  8
0
  6
VERDECKT
 62
     1
 10
46.0000000000019682
 20
311.3976225555364863
 30
0.0
 40
29.9999999999974989
210
0.0
220
-0.0000000000000002
230
-1.0
 50
359.9999999999988063
 51
24.9999999999989484
  0
ARC
  5
1B38
  8
0
  6
VERDECKT
 62
     1
 10
-46.0000000000027498
 20
311.3976225555363158
 30
0.0
 40
29.9999999999979892
210
0.0
220
-0.0000000000000002
230
-1.0
 50
155.0000000000015916
 51
180.0000000000013074
  0
LINE
  5
1B39
  8
0
  6
VERDECKT
 62
     1
 10
-81.2499999999991189
 20
309.0000000000001137
 30
-0.0000000000000686
 11
81.2500000000006253
 21
309.0000000000001137
 31
-0.0000000000000686
210
0.0000000000000002
220
1.0
230
-0.0000000000000002
  0
LINE
  5
1B3A
  8
0
  6
VERDECKT
 62
     1
 10
81.2500000000007532
 20
325.0
 30
-0.0000000000000722
 11
81.2500000000007532
 21
309.0000000000001137
 31
-0.0000000000000686
210
0.0000000000000002
220
1.0
230
-0.0000000000000002
  0
LINE
  5
1B3B
  8
0
  6
VERDECKT
 62
     1
 10
-81.2499999999992468
 20
325.0
 30
-0.0000000000000722
 11
-81.2499999999992468
 21
309.0000000000001137
 31
-0.0000000000000686
210
0.0000000000000002
220
1.0
230
-0.0000000000000002
  0
LINE
  5
1B3C
  8
0
  6
VERDECKT
 62
     1
 10
76.0000000000007532
 20
311.3976225555358042
 30
-0.0000000000000691
 11
76.0000000000007532
 21
309.0000000000001137
 31
-0.0000000000000686
210
0.0000000000000002
220
1.0
230
-0.0000000000000002
  0
LINE
  5
1B3D
  8
0
  6
VERDECKT
 62
     1
 10
-75.9999999999992468
 20
311.3976225555358042
 30
-0.0000000000000691
 11
-75.9999999999992468
 21
309.0000000000001137
 31
-0.0000000000000686
210
0.0000000000000002
220
1.0
230
-0.0000000000000002
  0
ARC
  5
1B3E
  8
0
  6
VERDECKT
 62
     1
 10
45.9999999999922196
 20
311.3976225555343831
 30
0.0
 40
30.0000000000070308
210
0.0
220
-0.0000000000000002
230
-1.0
 50
0.0000000000000127
 51
24.99999999999471
  0
ARC
  5
1B3F
  8
0
  6
VERDECKT
 62
     1
 10
-45.999999999993733
 20
311.3976225555343831
 30
0.0
 40
30.0000000000070202
210
0.0
220
-0.0000000000000002
230
-1.0
 50
155.0000000000025864
 51
179.9999999999972999
  0
LINE
  5
1B40
  8
0
  6
VERDECKT
 62
     1
 10
72.7584447974071509
 20
325.0
 30
-0.0000000000000722
 11
73.1892336111002351
 21
324.0761704077569902
 31
-0.000000000000072
210
0.0000000000000002
220
1.0
230
-0.0000000000000002
  0
LINE
  5
1B41
  8
0
  6
VERDECKT
 62
     1
 10
-72.7584447974056445
 20
325.0
 30
-0.0000000000000722
 11
-73.1892336110987287
 21
324.0761704077569902
 31
-0.000000000000072
210
0.0000000000000002
220
1.0
230
-0.0000000000000002
  0
ENDBLK
  5
1B43
  8
0
  0
BLOCK
  8
0
  2
A$C2E3A78ED
 70
     0
 10
0.0
 20
0.0
 30
0.0
  3
A$C2E3A78ED
  1

  0
CIRCLE
  5
1B47
  8
0
  6
CONTINUOUS
 62
     3
 10
0.0000000000007543
 20
0.000000000000028
 30
0.0
 40
81.25
  0
CIRCLE
  5
1B48
  8
0
  6
CONTINUOUS
 62
     3
 10
0.0000000000007543
 20
0.000000000000028
 30
0.0
 40
84.1500000000000057
  0
CIRCLE
  5
1B49
  8
0
  6
CONTINUOUS
 62
     3
 10
0.000000000000707
 20
0.0000000000000147
 30
0.0
 40
130.000000000000199
  0
CIRCLE
  5
1B4A
  8
0
  6
CONTINUOUS
 62
     3
 10
0.000000000000707
 20
0.0000000000000147
 30
0.0
 40
84.9999999999999147
  0
CIRCLE
  5
1B4B
  8
0
  6
CONTINUOUS
 62
     3
 10
0.0
 20
0.0
 30
0.0
 40
62.503143126200797
  0
CIRCLE
  5
1B4C
  8
0
  6
CONTINUOUS
 62
     3
 10
0.0000000000005086
 20
0.0000000000000148
 30
0.0
 40
64.0000000000002416
  0
CIRCLE
  5
1B4D
  8
0
  6
CONTINUOUS
 62
     3
 10
0.0000000000005174
 20
0.0000000000000173
 30
0.0
 40
69.0000000000001705
  0
CIRCLE
  5
1B4E
  8
0
  6
CONTINUOUS
 62
     3
 10
0.0000000000006406
 20
0.0000000000000199
 30
0.0
 40
70.0000000000000995
  0
CIRCLE
  5
1B4F
  8
0
  6
CONTINUOUS
 62
     3
 10
0.0000000000006406
 20
0.0000000000000199
 30
0.0
 40
72.7584447974064545
  0
CIRCLE
  5
1B50
  8
0
  6
CONTINUOUS
 62
     3
 10
0.0000000000007543
 20
0.000000000000028
 30
0.0
 40
81.25
  0
CIRCLE
  5
1B51
  8
0
  6
CONTINUOUS
 62
     3
 10
0.0000000000007543
 20
0.000000000000028
 30
0.0
 40
72.7584447974063551
  0
CIRCLE
  5
1B52
  8
0
  6
VERDECKT
 62
     1
 10
0.0000000000006968
 20
-0.0000000000000041
 30
0.0
 40
73.8564064605510566
  0
CIRCLE
  5
1B53
  8
0
  6
VERDECKT
 62
     1
 10
0.000000000000699
 20
-0.0000000000000035
 30
0.0
 40
70.4999999999999858
  0
CIRCLE
  5
1B54
  8
0
  6
VERDECKT
 62
     1
 10
0.000000000000699
 20
-0.0000000000000035
 30
0.0
 40
76.4999999999999858
  0
CIRCLE
  5
1B55
  8
0
  6
VERDECKT
 62
     1
 10
0.000000000000699
 20
-0.0000000000000035
 30
0.0
 40
79.1499999999999631
  0
CIRCLE
  5
1B56
  8
0
  6
VERDECKT
 62
     1
 10
0.0000000000006376
 20
0.0000000000000191
 30
0.0
 40
76.0000000000001137
  0
CIRCLE
  5
1B57
  8
0
  6
VERDECKT
 62
     1
 10
0.0000000000006356
 20
0.0000000000000185
 30
0.0
 40
75.9997362596922414
  0
CIRCLE
  5
1B58
  8
0
  6
VERDECKT
 62
     1
 10
0.0000000000005174
 20
0.0000000000000173
 30
0.0
 40
71.5000000000001705
  0
CIRCLE
  5
1B59
  8
0
  6
VERDECKT
 62
     1
 10
0.0000000000005086
 20
0.0000000000000148
 30
0.0
 40
66.5000000000002416
  0
CIRCLE
  5
1B5A
  8
0
  6
VERDECKT
 62
     1
 10
0.0
 20
0.0
 30
0.0
 40
65.0126927200592206
  0
CIRCLE
  5
1B5B
  8
0
  6
VERDECKT
 62
     1
 10
0.0000000000006376
 20
0.0000000000000191
 30
0.0
 40
73.5000000000001137
  0
CIRCLE
  5
1B5C
  8
0
  6
VERDECKT
 62
     1
 10
0.0000000000007513
 20
0.0000000000000272
 30
0.0
 40
76.0
  0
ENDBLK
  5
1B5E
  8
0
  0
ENDSEC
  0
SECTION
  2
ENTITIES
  0
TEXT
  5
8F
  8
VOLL
 10
78.076754716981128
 20
31.025947764705851
 30
0.0
 40
1.8
  1

  7
GREEKS
  0
TEXT
  5
291
  8
VOLL
 10
514.4882254450847086
 20
244.6707450644115909
 30
0.0
 40
1.8
  1

  7
GREEKS
  0
TEXT
  5
29F
  8
BEM
 10
989.0924386451680448
 20
259.5188084196681757
 30
0.0
 40
2.5
  1

 41
0.8
  7
GREEKS
 72
     4
 11
989.0924386451680448
 21
259.5188084196681757
 31
0.0
  0
TEXT
  5
784
  8
VOLL
 10
520.3740581392587501
 20
199.4620790218909008
 30
0.0
 40
1.8
  1

  7
GREEKS
  0
TEXT
  5
792
  8
BEM
 10
994.9782713393420863
 20
214.310142377147514
 30
0.0
 40
2.5
  1

 41
0.8
  7
GREEKS
 72
     4
 11
994.9782713393420863
 21
214.310142377147514
 31
0.0
  0
TEXT
  5
793
  8
BEM
 10
1033.4598070053059473
 20
185.2261097521443958
 30
0.0
 40
2.5
  1

 41
0.8
  7
GREEKS
 72
     4
 11
1033.4598070053059473
 21
185.2261097521443958
 31
0.0
  0
TEXT
  5
96A
  8
VOLL
 10
559.9457840755475218
 20
170.8012900348365974
 30
0.0
 40
1.8
  1

  7
GREEKS
  0
TEXT
  5
978
  8
BEM
 10
1034.5499972756310854
 20
185.6493533900932107
 30
0.0
 40
2.5
  1

 41
0.8
  7
GREEKS
 72
     4
 11
1034.5499972756310854
 21
185.6493533900932107
 31
0.0
  0
TEXT
  5
979
  8
BEM
 10
1034.994690231425011
 20
167.5494216052223919
 30
0.0
 40
2.5
  1

 41
0.8
  7
GREEKS
 72
     4
 11
1034.994690231425011
 21
167.5494216052223919
 31
0.0
  0
TEXT
  5
97A
  8
BEM
 10
1206.7507124905919227
 20
176.8865203794738079
 30
0.0
 40
2.5
  1

 41
0.8
  7
GREEKS
  0
TEXT
  5
97B
  8
BEM
 10
1219.2351947703209589
 20
179.2622498788662995
 30
0.0
 40
2.5
  1

 41
0.8
  7
GREEKS
  0
TEXT
  5
97C
  8
BEM
 10
1216.8509201381109506
 20
176.8787497424970923
 30
0.0
 40
2.5
  1

 41
0.8
  7
GREEKS
  0
INSERT
  5
1B44
  8
STEMPEL
  2
A$C7F86457F
 10
0.0
 20
0.0
 30
0.0
  0
INSERT
  5
1B5F
  8
STEMPEL
  2
A$C2E3A78ED
 10
-0.0000000000002562
 20
-180.0000000000003126
 30
0.0
  0
VIEWPORT
  5
172C
 67
     1
  8
0
 10
3.93773057623795
 20
5.3490372184332573
 30
0.0
 40
22.1678509842197187
 41
11.2900011320694098
 68
     1
 69
     1
1001
ACAD
1000
MVIEW
1002
{
1070
    16
1010
0.0
1020
0.0
1030
0.0
1010
0.0
1020
0.0
1030
1.0
1040
0.0
1040
11.2900011320694098
1040
3.93773057623795
1040
5.3490372184332573
1040
50.0
1040
0.0
1040
0.0
1070
     0
1070
  1500
1070
     1
1070
     1
1070
     0
1070
     0
1070
     0
1070
     0
1040
0.0
1040
0.0
1040
0.0
1040
10.0
1040
10.0
1040
10.0
1040
10.0
1070
     0
1002
{
1002
}
1002
}
  0
VIEWPORT
  5
1730
 67
     1
  8
DEFPOINTS
 10
3.909018466306704
 20
5.3491828137302688
 30
0.0
 40
8.2890995814043151
 41
11.2006254110025694
 68
     2
 69
     2
1001
ACAD
1000
MVIEW
1002
{
1070
    16
1010
1080.8024170018029508
1020
308.9845728875562827
1030
-72.5913615605097675
1010
0.0
1020
0.0
1030
1.0
1040
0.0
1040
615.9181447735716119
1040
-865.1963171063125628
1040
-11.6900516145660998
1040
50.0
1040
0.0
1040
0.0
1070
     0
1070
  1500
1070
     1
1070
     0
1070
     0
1070
     0
1070
     0
1070
     0
1040
0.0
1040
0.0
1040
0.0
1040
1.0
1040
1.0
1040
20.0
1040
20.0
1070
     0
1002
{
1002
}
1002
}
  0
VIEWPORT
  5
17AC
 67
     1
  8
DEFPOINTS
 10
6.5353133457608648
 20
4.8136118125902749
 30
0.0
 40
1.6430123373481891
 41
2.3310082813346571
 68
     3
 69
     3
1001
ACAD
1000
MVIEW
1002
{
1070
    16
1010
1033.5398155844070516
1020
310.2499289503729187
1030
-65.5701736770698744
1010
0.0
1020
120.3106813010544016
1030
598.0952420250471278
1040
3.180594431509816
1040
380.7908511892571255
1040
0.0
1040
0.0
1040
50.0
1040
0.0
1040
0.0
1070
     0
1070
  1500
1070
     1
1070
     0
1070
     0
1070
     0
1070
     0
1070
     0
1040
0.0
1040
0.0
1040
0.0
1040
1.0
1040
1.0
1040
20.0
1040
20.0
1070
     0
1002
{
1002
}
1002
}
  0
ENDSEC
  0
EOF
