  0
SECTION
  2
HEADER
  9
$ACADVER
  1
AC1009
  9
$INSBASE
 10
0.0
 20
0.0
 30
0.0
  9
$EXTMIN
 10
-110.0161683977026001
 20
-270.026365734667479
 30
-0.0097648799535364
  9
$EXTMAX
 10
110.0354040035037997
 20
320.0419935076989191
 30
0.0146488100458555
  9
$LIMMIN
 10
0.0
 20
0.0
  9
$LIMMAX
 10
419.9999999999998863
 20
594.0
  9
$ORTHOMODE
 70
     1
  9
$REGENMODE
 70
     1
  9
$FILLMODE
 70
     1
  9
$QTEXTMODE
 70
     0
  9
$MIRRTEXT
 70
     1
  9
$DRAGMODE
 70
     2
  9
$LTSCALE
 40
20.0
  9
$OSMODE
 70
  2559
  9
$ATTMODE
 70
     1
  9
$TEXTSIZE
 40
3.5
  9
$TRACEWID
 40
0.5
  9
$TEXTSTYLE
  7
STANDARD
  9
$CLAYER
  8
STEMPEL
  9
$CELTYPE
  6
BYLAYER
  9
$CECOLOR
 62
   256
  9
$DIMSCALE
 40
2.0
  9
$DIMASZ
 40
3.5
  9
$DIMEXO
 40
1.0
  9
$DIMDLI
 40
7.0
  9
$DIMRND
 40
0.0
  9
$DIMDLE
 40
0.0
  9
$DIMEXE
 40
1.0
  9
$DIMTP
 40
1.5
  9
$DIMTM
 40
0.0
  9
$DIMTXT
 40
3.5
  9
$DIMCEN
 40
1.5
  9
$DIMTSZ
 40
0.0
  9
$DIMTOL
 70
     0
  9
$DIMLIM
 70
     0
  9
$DIMTIH
 70
     0
  9
$DIMTOH
 70
     0
  9
$DIMSE1
 70
     0
  9
$DIMSE2
 70
     0
  9
$DIMTAD
 70
     1
  9
$DIMZIN
 70
     8
  9
$DIMBLK
  1

  9
$DIMASO
 70
     1
  9
$DIMSHO
 70
     0
  9
$DIMPOST
  1

  9
$DIMAPOST
  1

  9
$DIMALT
 70
     0
  9
$DIMALTD
 70
     2
  9
$DIMALTF
 40
25.3999999999999986
  9
$DIMLFAC
 40
1.0
  9
$DIMTOFL
 70
     1
  9
$DIMTVP
 40
0.0
  9
$DIMTIX
 70
     0
  9
$DIMSOXD
 70
     0
  9
$DIMSAH
 70
     0
  9
$DIMBLK1
  1

  9
$DIMBLK2
  1

  9
$DIMSTYLE
  2
STANDARD
  9
$DIMCLRD
 70
     0
  9
$DIMCLRE
 70
     0
  9
$DIMCLRT
 70
     1
  9
$DIMTFAC
 40
0.5
  9
$DIMGAP
 40
1.5
  9
$LUNITS
 70
     2
  9
$LUPREC
 70
     2
  9
$SKETCHINC
 40
1.0
  9
$FILLETRAD
 40
0.0
  9
$AUNITS
 70
     0
  9
$AUPREC
 70
     0
  9
$MENU
  1
ACAD
  9
$ELEVATION
 40
0.0
  9
$PELEVATION
 40
0.0
  9
$THICKNESS
 40
0.0
  9
$LIMCHECK
 70
     0
  9
$BLIPMODE
 70
     0
  9
$CHAMFERA
 40
0.0
  9
$CHAMFERB
 40
0.0
  9
$SKPOLY
 70
     0
  9
$TDCREATE
 40
2452685.3005787041038275
  9
$TDUPDATE
 40
2458390.304525462910533
  9
$TDINDWG
 40
0.2935714468
  9
$TDUSRTIMER
 40
0.2935714468
  9
$USRTIMER
 70
     1
  9
$ANGBASE
 50
0.0
  9
$ANGDIR
 70
     0
  9
$PDMODE
 70
     0
  9
$PDSIZE
 40
0.0
  9
$PLINEWID
 40
0.0
  9
$COORDS
 70
     1
  9
$SPLFRAME
 70
     0
  9
$SPLINETYPE
 70
     6
  9
$SPLINESEGS
 70
     8
  9
$ATTDIA
 70
     1
  9
$ATTREQ
 70
     1
  9
$HANDLING
 70
     1
  9
$HANDSEED
  5
15F3
  9
$SURFTAB1
 70
     6
  9
$SURFTAB2
 70
     6
  9
$SURFTYPE
 70
     6
  9
$SURFU
 70
     6
  9
$SURFV
 70
     6
  9
$UCSNAME
  2

  9
$UCSORG
 10
0.0
 20
0.0
 30
0.0
  9
$UCSXDIR
 10
1.0
 20
0.0
 30
0.0
  9
$UCSYDIR
 10
0.0
 20
1.0
 30
0.0
  9
$PUCSNAME
  2

  9
$PUCSORG
 10
0.0
 20
0.0
 30
0.0
  9
$PUCSXDIR
 10
1.0
 20
0.0
 30
0.0
  9
$PUCSYDIR
 10
0.0
 20
1.0
 30
0.0
  9
$USERI1
 70
     0
  9
$USERI2
 70
     0
  9
$USERI3
 70
     0
  9
$USERI4
 70
     0
  9
$USERI5
 70
     0
  9
$USERR1
 40
0.0
  9
$USERR2
 40
0.0
  9
$USERR3
 40
0.0
  9
$USERR4
 40
0.0
  9
$USERR5
 40
0.0
  9
$WORLDVIEW
 70
     1
  9
$SHADEDGE
 70
     3
  9
$SHADEDIF
 70
    70
  9
$TILEMODE
 70
     1
  9
$MAXACTVP
 70
    16
  9
$PLIMCHECK
 70
     0
  9
$PEXTMIN
 10
-0.236068940558571
 20
-0.2285825351682718
 30
-0.0000000000000058
  9
$PEXTMAX
 10
9.1549525809363281
 20
12.7468109532870706
 30
0.0000000000000104
  9
$PLIMMIN
 10
-0.2500002402958907
 20
-0.2499999962453767
  9
$PLIMMAX
 10
10.7499995194082203
 20
8.2499997634587334
  9
$UNITMODE
 70
     0
  9
$VISRETAIN
 70
     0
  9
$PLINEGEN
 70
     0
  9
$PSLTSCALE
 70
     0
  0
ENDSEC
  0
SECTION
  2
TABLES
  0
TABLE
  2
VPORT
 70
     1
  0
VPORT
  2
*ACTIVE
 70
     0
 10
0.0
 20
0.0
 11
1.0
 21
1.0
 12
0.0096101735060188
 22
-79.9960236989335129
 13
0.0
 23
0.0
 14
1.0
 24
1.0
 15
10.0
 25
10.0
 16
-0.0000000000002758
 26
0.0
 36
1242.1396260967369471
 17
0.0000076293945313
 27
105.0038375854492045
 37
-0.0000000000000355
 40
593.0763542767369927
 41
1.868197278911564
 42
50.0
 43
0.0
 44
0.0
 50
0.0
 51
0.0
 71
     0
 72
  1500
 73
     1
 74
     0
 75
     0
 76
     0
 77
     0
 78
     0
  0
ENDTAB
  0
TABLE
  2
LTYPE
 70
     5
  0
LTYPE
  2
CONTINUOUS
 70
     0
  3
Solid line
 72
    65
 73
     0
 40
0.0
  0
LTYPE
  2
PHANTOM2
 70
     0
  3
Phantom (.5x) ___ _ _ ___ _ _ ___ _ _ ___ _ _
 72
    65
 73
     6
 40
1.25
 49
0.625
 49
-0.125
 49
0.125
 49
-0.125
 49
0.125
 49
-0.125
  0
LTYPE
  2
VERDECKT
 70
     0
  3
_ _ _ _ _ _ _ _ _ _ _ _ _ _ _ _ _ _ _ _ _ _ _
 72
    65
 73
     2
 40
0.375
 49
0.25
 49
-0.125
  0
ENDTAB
  0
TABLE
  2
LAYER
 70
    11
  0
LAYER
  2
0
 70
     0
 62
     7
  6
CONTINUOUS
  0
LAYER
  2
VOLL
 70
     0
 62
     1
  6
CONTINUOUS
  0
LAYER
  2
BEM
 70
     0
 62
     7
  6
CONTINUOUS
  0
LAYER
  2
STEMPEL
 70
     0
 62
     3
  6
CONTINUOUS
  0
LAYER
  2
TEXT
 70
     0
 62
     7
  6
CONTINUOUS
  0
LAYER
  2
DEFPOINTS
 70
     0
 62
     7
  6
CONTINUOUS
  0
ENDTAB
  0
TABLE
  2
STYLE
 70
     2
  0
STYLE
  2
STANDARD
 70
     0
 40
0.0
 41
0.8
 50
0.0
 71
     0
 42
3.5
  3
simplex.shx
  4

  0
STYLE
  2
GREEKS
 70
     0
 40
0.0
 41
0.8
 50
0.0
 71
     0
 42
2.5
  3
SIMPLEX.shx
  4

  0
ENDTAB
  0
TABLE
  2
VIEW
 70
     1
  0
ENDTAB
  0
TABLE
  2
UCS
 70
     0
  0
ENDTAB
  0
TABLE
  2
APPID
 70
    11
  0
APPID
  2
ACAD
 70
     0
  0
APPID
  2
ACAD_EXEMPT_FROM_CAD_STANDARDS
 70
     0
  0
APPID
  2
ACAD_NAV_VCDISPLAY
 70
     0
  0
APPID
  2
ACAD_MLEADERVER
 70
     0
  0
APPID
  2
ACAD_PSEXT
 70
     0
  0
APPID
  2
GRADIENTCOLOR1ACI
 70
     0
  0
APPID
  2
GRADIENTCOLOR2ACI
 70
     0
  0
APPID
  2
ACAECLAYERSTANDARD
 70
     0
  0
APPID
  2
ACCMTRANSPARENCY
 70
     0
  0
APPID
  2
ACAD_OBJECT_CHANGE_GUID
 70
     0
  0
APPID
  2
ACADANNOMONITORALERTICONDI
 70
     0
  0
ENDTAB
  0
TABLE
  2
DIMSTYLE
 70
     2
  0
DIMSTYLE
  2
STANDARD
 70
     0
  3

  4

  5

  6

  7

 40
1.0
 41
0.18
 42
0.0625
 43
0.38
 44
0.18
 45
0.0
 46
0.0
 47
0.0
 48
0.0
140
0.18
141
0.09
142
0.0
143
25.3999999999999986
144
1.0
145
0.0
146
1.0
147
0.09
 71
     0
 72
     0
 73
     1
 74
     1
 75
     0
 76
     0
 77
     0
 78
     0
170
     0
171
     2
172
     0
173
     0
174
     0
175
     0
176
     0
177
     0
178
     0
  0
ENDTAB
  0
ENDSEC
  0
SECTION
  2
BLOCKS
  0
BLOCK
  8
0
  2
$MODEL_SPACE
 70
     0
 10
0.0
 20
0.0
 30
0.0
  3
$MODEL_SPACE
  1

  0
ENDBLK
  5
4C
  8
0
  0
BLOCK
 67
     1
  8
0
  2
$PAPER_SPACE
 70
     0
 10
0.0
 20
0.0
 30
0.0
  3
$PAPER_SPACE
  1

  0
ENDBLK
  5
4A
 67
     1
  8
0
  0
BLOCK
  8
0
  2
A$C66D238FE
 70
     0
 10
0.0
 20
0.0
 30
0.0
  3
A$C66D238FE
  1

  0
CIRCLE
  5
1527
  8
0
  6
CONTINUOUS
 62
     3
 10
0.0
 20
0.000000000000008
 30
0.0
 40
47.9424963626023271
  0
CIRCLE
  5
1528
  8
0
  6
CONTINUOUS
 62
     3
 10
0.0000000000002815
 20
0.0000000000000229
 30
0.0
 40
48.9999999999999218
  0
CIRCLE
  5
1529
  8
0
  6
CONTINUOUS
 62
     3
 10
0.0000000000002885
 20
0.0000000000000249
 30
0.0
 40
53.0000000000000071
  0
CIRCLE
  5
152A
  8
0
  6
CONTINUOUS
 62
     3
 10
0.0000000000002984
 20
0.0000000000000276
 30
0.0
 40
53.4999999999999787
  0
CIRCLE
  5
152B
  8
0
  6
CONTINUOUS
 62
     3
 10
0.0000000000002984
 20
0.0000000000000276
 30
0.0
 40
55.7067558379248879
  0
CIRCLE
  5
152C
  8
0
  6
CONTINUOUS
 62
     3
 10
0.0000046845772914
 20
0.0000000000000314
 30
0.0
 40
64.0
  0
CIRCLE
  5
152D
  8
0
  6
CONTINUOUS
 62
     3
 10
0.0000046845772914
 20
0.0000000000000443
 30
0.0
 40
64.0
  0
CIRCLE
  5
152E
  8
0
  6
CONTINUOUS
 62
     3
 10
0.0000046845772914
 20
0.0000000000000443
 30
0.0
 40
66.5
  0
CIRCLE
  5
152F
  8
0
  6
CONTINUOUS
 62
     3
 10
0.0000046845772759
 20
0.0000000000000289
 30
0.0
 40
67.5
  0
CIRCLE
  5
1530
  8
0
  6
CONTINUOUS
 62
     3
 10
0.0000046845772759
 20
0.0000000000000289
 30
0.0
 40
110.0
  0
CIRCLE
  5
1531
  8
0
  6
VERDECKT
 62
     1
 10
0.0000000000002885
 20
0.0000000000000249
 30
0.0
 40
55.0000000000000071
  0
CIRCLE
  5
1532
  8
0
  6
VERDECKT
 62
     1
 10
0.0000000000002815
 20
0.0000000000000229
 30
0.0
 40
51.0000000000000426
  0
CIRCLE
  5
1533
  8
0
  6
VERDECKT
 62
     1
 10
0.0
 20
0.000000000000008
 30
0.0
 40
49.9501360376889068
  0
CIRCLE
  5
1534
  8
0
  6
VERDECKT
 62
     1
 10
0.0000000000002956
 20
0.0000000000000268
 30
0.0
 40
56.9999999999999929
  0
CIRCLE
  5
1535
  8
0
  6
VERDECKT
 62
     1
 10
0.0000000000002956
 20
0.0000000000000268
 30
0.0
 40
58.9999999999999929
  0
CIRCLE
  5
1536
  8
0
  6
VERDECKT
 62
     1
 10
0.000004684577235
 20
0.0000000000000159
 30
0.0
 40
56.0
  0
CIRCLE
  5
1537
  8
0
  6
VERDECKT
 62
     1
 10
0.0000046845772332
 20
0.0000000000000154
 30
0.0
 40
60.6188021535168673
  0
CIRCLE
  5
1538
  8
0
  6
VERDECKT
 62
     1
 10
0.0000046845772376
 20
0.0000000000000166
 30
0.0
 40
62.4999999999998934
  0
CIRCLE
  5
1539
  8
0
  6
VERDECKT
 62
     1
 10
0.0000046845772376
 20
0.0000000000000166
 30
0.0
 40
51.0
  0
CIRCLE
  5
153A
  8
0
  6
VERDECKT
 62
     1
 10
0.0000046845772886
 20
0.0000000000000307
 30
0.0
 40
59.0
  0
CIRCLE
  5
153B
  8
0
  6
VERDECKT
 62
     1
 10
0.0000046845772914
 20
0.0000000000000314
 30
0.0
 40
55.7067558379251295
  0
ENDBLK
  5
153D
  8
0
  0
BLOCK
  8
0
  2
A$C47FA106E
 70
     0
 10
0.0
 20
0.0
 30
0.0
  3
A$C47FA106E
  1

  0
LINE
  5
1541
  8
0
  6
CONTINUOUS
 62
     3
 10
-49.9501360376889281
 20
0.0000000000000284
 30
0.0
 11
49.9501360376889281
 21
-0.0000000000000284
 31
0.0
210
0.0
220
1.0
230
-0.0000000000000002
  0
LINE
  5
1542
  8
0
  6
CONTINUOUS
 62
     3
 10
-55.7067558379246677
 20
320.0000000000001137
 30
-0.0000000000000711
 11
55.7067558379251224
 21
320.0
 31
-0.0000000000000711
210
0.0
220
1.0
230
-0.0000000000000002
  0
LINE
  5
1543
  8
0
  6
CONTINUOUS
 62
     3
 10
51.0000000000000568
 20
57.9971242128666731
 30
-0.0000000000000129
 11
51.0000000000000426
 21
11.9999999999984102
 31
-0.0000000000000027
210
0.0
220
1.0
230
-0.0000000000000002
  0
LINE
  5
1544
  8
0
  6
CONTINUOUS
 62
     3
 10
-50.9999999999999432
 20
57.9971242128666304
 30
-0.0000000000000129
 11
-50.9999999999999574
 21
11.9999999999985096
 31
-0.0000000000000027
210
0.0
220
1.0
230
-0.0000000000000002
  0
LINE
  5
1545
  8
0
  6
CONTINUOUS
 62
     3
 10
-49.9501360376889423
 20
0.000000000000032
 30
0.0
 11
-50.9999999999999929
 21
11.9999999999985008
 31
-0.0000000000000027
210
0.0
220
1.0
230
-0.0000000000000002
  0
LINE
  5
1546
  8
0
  6
CONTINUOUS
 62
     3
 10
49.9501360376889281
 20
-0.0000000000000568
 30
0.0
 11
51.0
 21
11.9999999999984102
 31
-0.0000000000000027
210
0.0
220
1.0
230
-0.0000000000000002
  0
LINE
  5
1547
  8
0
  6
CONTINUOUS
 62
     3
 10
55.7067558379251295
 20
320.0
 30
-0.0000000000000711
 11
55.7080968394885971
 21
319.9971242128667086
 31
-0.0000000000000711
210
0.0
220
1.0
230
-0.0000000000000002
  0
LINE
  5
1548
  8
0
  6
CONTINUOUS
 62
     3
 10
-55.7067558379246677
 20
320.0000000000001137
 30
-0.0000000000000711
 11
-55.7080968394881921
 21
319.9971242128667086
 31
-0.0000000000000711
210
0.0
220
1.0
230
-0.0000000000000002
  0
LINE
  5
1549
  8
0
  6
CONTINUOUS
 62
     3
 10
66.5000046845772204
 20
57.9971242128666304
 30
-0.0000000000000129
 11
-66.4999953154227654
 21
57.9971242128666304
 31
-0.0000000000000129
210
0.0
220
1.0
230
-0.0000000000000002
  0
LINE
  5
154A
  8
0
  6
CONTINUOUS
 62
     3
 10
66.5000046845772204
 20
59.9971242128666589
 30
-0.0000000000000133
 11
-66.4999953154227654
 21
59.9971242128666589
 31
-0.0000000000000133
210
0.0
220
1.0
230
-0.0000000000000002
  0
LINE
  5
154B
  8
0
  6
CONTINUOUS
 62
     3
 10
-66.4999953154227654
 20
57.9971242128666304
 30
-0.0000000000000129
 11
-66.4999953154227654
 21
59.9971242128666589
 31
-0.0000000000000133
210
0.0
220
1.0
230
-0.0000000000000002
  0
LINE
  5
154C
  8
0
  6
CONTINUOUS
 62
     3
 10
66.5000046845772204
 20
57.9971242128666304
 30
-0.0000000000000129
 11
66.5000046845772204
 21
59.9971242128666589
 31
-0.0000000000000133
210
0.0
220
1.0
230
-0.0000000000000002
  0
LINE
  5
154D
  8
0
  6
CONTINUOUS
 62
     3
 10
66.5000046845772204
 20
319.9971242128667086
 30
-0.0000000000000711
 11
-66.4999953154227654
 21
319.9971242128667086
 31
-0.0000000000000711
210
0.0
220
1.0
230
-0.0000000000000002
  0
LINE
  5
154E
  8
0
  6
CONTINUOUS
 62
     3
 10
-66.4999953154227654
 20
59.9971242128666589
 30
-0.0000000000000133
 11
66.5000046845772204
 21
59.9971242128666589
 31
-0.0000000000000133
210
0.0
220
1.0
230
-0.0000000000000002
  0
LINE
  5
154F
  8
0
  6
CONTINUOUS
 62
     3
 10
66.5000046845772204
 20
319.9971242128667086
 30
-0.0000000000000711
 11
66.5000046845772204
 21
249.9971242128667086
 31
-0.0000000000000555
210
0.0
220
1.0
230
-0.0000000000000002
  0
LINE
  5
1550
  8
0
  6
CONTINUOUS
 62
     3
 10
66.5000046845772204
 20
233.9971242128667086
 30
-0.000000000000052
 11
66.5000046845772204
 21
59.9971242128666589
 31
-0.0000000000000133
210
0.0
220
1.0
230
-0.0000000000000002
  0
LINE
  5
1551
  8
0
  6
CONTINUOUS
 62
     3
 10
-66.4999953154227654
 20
319.9971242128667086
 30
-0.0000000000000711
 11
-66.4999953154227654
 21
249.9971242128667086
 31
-0.0000000000000555
210
0.0
220
1.0
230
-0.0000000000000002
  0
LINE
  5
1552
  8
0
  6
CONTINUOUS
 62
     3
 10
-66.4999953154227654
 20
233.9971242128667086
 30
-0.000000000000052
 11
-66.4999953154227654
 21
59.9971242128666589
 31
-0.0000000000000133
210
0.0
220
1.0
230
-0.0000000000000002
  0
LINE
  5
1553
  8
0
  6
CONTINUOUS
 62
     3
 10
110.0000046845772061
 20
241.9971242128667086
 30
-0.0000000000000537
 11
-109.9999953154226944
 21
241.9971242128667086
 31
-0.0000000000000537
210
0.0
220
1.0
230
-0.0000000000000002
  0
LINE
  5
1554
  8
0
  6
CONTINUOUS
 62
     3
 10
-109.9999953154226944
 20
233.9971242128667086
 30
-0.000000000000052
 11
110.0000046845772061
 21
233.9971242128667086
 31
-0.000000000000052
210
0.0
220
1.0
230
-0.0000000000000002
  0
LINE
  5
1555
  8
0
  6
CONTINUOUS
 62
     3
 10
110.0000046845772061
 20
241.9971242128667086
 30
-0.0000000000000537
 11
110.0000046845772061
 21
233.9971242128667086
 31
-0.000000000000052
210
0.0
220
1.0
230
-0.0000000000000002
  0
LINE
  5
1556
  8
0
  6
CONTINUOUS
 62
     3
 10
-109.9999953154226944
 20
241.9971242128667086
 30
-0.0000000000000537
 11
-109.9999953154226944
 21
233.9971242128667086
 31
-0.000000000000052
210
0.0
220
1.0
230
-0.0000000000000002
  0
LINE
  5
1557
  8
0
  6
CONTINUOUS
 62
     3
 10
110.0000046845772061
 20
249.9971242128667086
 30
-0.0000000000000555
 11
-109.9999953154226944
 21
249.9971242128667086
 31
-0.0000000000000555
210
0.0
220
1.0
230
-0.0000000000000002
  0
LINE
  5
1558
  8
0
  6
CONTINUOUS
 62
     3
 10
-109.9999953154226944
 20
241.9971242128667086
 30
-0.0000000000000537
 11
110.0000046845772061
 21
241.9971242128667086
 31
-0.0000000000000537
210
0.0
220
1.0
230
-0.0000000000000002
  0
LINE
  5
1559
  8
0
  6
CONTINUOUS
 62
     3
 10
110.0000046845772061
 20
249.9971242128667086
 30
-0.0000000000000555
 11
110.0000046845772061
 21
241.9971242128667086
 31
-0.0000000000000537
210
0.0
220
1.0
230
-0.0000000000000002
  0
LINE
  5
155A
  8
0
  6
CONTINUOUS
 62
     3
 10
-109.9999953154226944
 20
249.9971242128667086
 30
-0.0000000000000555
 11
-109.9999953154226944
 21
241.9971242128667086
 31
-0.0000000000000537
210
0.0
220
1.0
230
-0.0000000000000002
  0
ARC
  5
155B
  8
0
  6
VERDECKT
 62
     1
 10
33.9999999999988418
 20
292.2332005306818132
 30
0.0
 40
25.0000000000009592
210
0.0
220
-0.0000000000000002
230
-1.0
 50
333.1119523822760016
 51
359.9999999999996021
  0
ARC
  5
155C
  8
0
  6
VERDECKT
 62
     1
 10
-33.9999999999986571
 20
292.2332005306819269
 30
0.0
 40
25.0000000000015916
210
0.0
220
-0.0000000000000002
230
-1.0
 50
180.0000000000007958
 51
206.8880476177237995
  0
ARC
  5
155D
  8
0
  6
VERDECKT
 62
     1
 10
66.9999999999975415
 20
275.5000000000006821
 30
0.0
 40
11.9999999999977494
210
0.0
220
-0.0000000000000002
230
-1.0
 50
153.1119523822746089
 51
180.000000000002899
  0
ARC
  5
155E
  8
0
  6
VERDECKT
 62
     1
 10
-66.9999999999979963
 20
275.5000000000006253
 30
0.0
 40
11.9999999999977494
210
0.0
220
-0.0000000000000002
230
-1.0
 50
359.9999999999969873
 51
26.8880476177253804
  0
LINE
  5
155F
  8
0
  6
VERDECKT
 62
     1
 10
55.0000000000002274
 20
275.4999999999998863
 30
-0.0000000000000612
 11
55.0000000000002203
 21
256.9274888769473932
 31
-0.000000000000057
210
0.0
220
1.0
230
-0.0000000000000002
  0
LINE
  5
1560
  8
0
  6
VERDECKT
 62
     1
 10
-54.9999999999997584
 20
275.5000000000001137
 30
-0.0000000000000612
 11
-54.9999999999997797
 21
256.9274888769476206
 31
-0.000000000000057
210
0.0
220
1.0
230
-0.0000000000000002
  0
ARC
  5
1561
  8
0
  6
VERDECKT
 62
     1
 10
40.0000000000002913
 20
256.9274888769473932
 30
0.0
 40
14.9999999999995293
210
0.0
220
-0.0000000000000002
230
-1.0
 50
325.6988472432082062
 51
0.0000000000006488
  0
ARC
  5
1562
  8
0
  6
VERDECKT
 62
     1
 10
-40.0000000000007319
 20
256.9274888769473932
 30
0.0
 40
14.9999999999995293
210
0.0
220
-0.0000000000000002
230
-1.0
 50
179.999999999999801
 51
214.3011527567919927
  0
ARC
  5
1563
  8
0
  6
VERDECKT
 62
     1
 10
59.0000000000015774
 20
243.9660074801313101
 30
0.0
 40
8.0000000000017764
210
0.0
220
-0.0000000000000002
230
-1.0
 50
145.6988472432117021
 51
179.9999999999957083
  0
ARC
  5
1564
  8
0
  6
VERDECKT
 62
     1
 10
-59.0000000000020108
 20
243.9660074801311964
 30
0.0
 40
8.000000000001755
210
0.0
220
-0.0000000000000002
230
-1.0
 50
0.0000000000040711
 51
34.3011527567880989
  0
LINE
  5
1565
  8
0
  6
VERDECKT
 62
     1
 10
51.0000000000001918
 20
243.9660074801317933
 30
-0.0000000000000542
 11
51.0000000000000568
 21
57.9971242128666731
 31
-0.0000000000000129
210
0.0
220
1.0
230
-0.0000000000000002
  0
LINE
  5
1566
  8
0
  6
VERDECKT
 62
     1
 10
-50.999999999999801
 20
243.966007480131907
 30
-0.0000000000000542
 11
-50.9999999999999432
 21
57.9971242128666304
 31
-0.0000000000000129
210
0.0
220
1.0
230
-0.0000000000000002
  0
LINE
  5
1567
  8
0
  6
VERDECKT
 62
     1
 10
-47.9424963626024194
 20
0.000000000000024
 30
0.0
 11
-49.0000000000000497
 21
12.0873218858159603
 31
-0.0000000000000027
210
0.0
220
1.0
230
-0.0000000000000002
  0
LINE
  5
1568
  8
0
  6
VERDECKT
 62
     1
 10
47.9424963626023981
 20
-0.0000000000000338
 30
0.0
 11
49.0000000000000497
 21
12.0873218858158697
 31
-0.0000000000000027
210
0.0
220
1.0
230
-0.0000000000000002
  0
LINE
  5
1569
  8
0
  6
VERDECKT
 62
     1
 10
49.0000000000001918
 20
243.9660074801317933
 30
-0.0000000000000542
 11
49.0000000000000284
 21
12.0873218858158697
 31
-0.0000000000000027
210
0.0
220
1.0
230
-0.0000000000000002
  0
LINE
  5
156A
  8
0
  6
VERDECKT
 62
     1
 10
-48.999999999999801
 20
243.966007480131907
 30
-0.0000000000000542
 11
-48.9999999999999574
 21
12.0873218858159603
 31
-0.0000000000000027
210
0.0
220
1.0
230
-0.0000000000000002
  0
ARC
  5
156B
  8
0
  6
VERDECKT
 62
     1
 10
59.0000000000010374
 20
243.9660074801315091
 30
0.0
 40
10.0000000000012292
210
0.0
220
-0.0000000000000002
230
-1.0
 50
145.6988472432103947
 51
179.9999999999980105
  0
ARC
  5
156C
  8
0
  6
VERDECKT
 62
     1
 10
-59.0000000000016129
 20
243.9660074801313954
 30
0.0
 40
10.00000000000135
210
0.0
220
-0.0000000000000002
230
-1.0
 50
0.0000000000019592
 51
34.301152756789179
  0
ARC
  5
156D
  8
0
  6
VERDECKT
 62
     1
 10
39.9999999999996234
 20
256.9274888769476206
 30
0.0
 40
13.0000000000001794
210
0.0
220
-0.0000000000000002
230
-1.0
 50
325.6988472432091157
 51
0.0
  0
ARC
  5
156E
  8
0
  6
VERDECKT
 62
     1
 10
-40.0000000000002274
 20
256.9274888769476206
 30
0.0
 40
13.0000000000000107
210
0.0
220
-0.0000000000000002
230
-1.0
 50
180.000000000000199
 51
214.3011527567915095
  0
LINE
  5
156F
  8
0
  6
VERDECKT
 62
     1
 10
53.0000000000002274
 20
275.4997994693184182
 30
-0.0000000000000612
 11
53.0000000000002203
 21
256.9274888769475069
 31
-0.000000000000057
210
0.0
220
1.0
230
-0.0000000000000002
  0
LINE
  5
1570
  8
0
  6
VERDECKT
 62
     1
 10
-52.9999999999997584
 20
275.4997994693184751
 30
-0.0000000000000612
 11
-52.9999999999997797
 21
256.9274888769476775
 31
-0.000000000000057
210
0.0
220
1.0
230
-0.0000000000000002
  0
ARC
  5
1571
  8
0
  6
VERDECKT
 62
     1
 10
66.9999999999988631
 20
275.4997994693185888
 30
0.0
 40
13.9999999999990496
210
0.0
220
-0.0000000000000002
230
-1.0
 50
153.1119523822758879
 51
180.0000000000003979
  0
ARC
  5
1572
  8
0
  6
VERDECKT
 62
     1
 10
-66.9999999999993037
 20
275.4997994693184751
 30
0.0
 40
13.9999999999990692
210
0.0
220
-0.0000000000000002
230
-1.0
 50
359.9999999999996021
 51
26.8880476177240411
  0
ARC
  5
1573
  8
0
  6
VERDECKT
 62
     1
 10
33.9999999999995524
 20
292.2329999999998904
 30
0.0
 40
23.0000000000002487
210
0.0
220
-0.0000000000000002
230
-1.0
 50
333.1119523822757742
 51
0.0000000000001399
  0
ARC
  5
1574
  8
0
  6
VERDECKT
 62
     1
 10
-34.000000000000199
 20
292.2329999999997767
 30
0.0
 40
23.0000000000000284
210
0.0
220
-0.0000000000000002
230
-1.0
 50
180.0
 51
206.88804761772451
  0
LINE
  5
1575
  8
0
  6
VERDECKT
 62
     1
 10
57.0000000000002416
 20
307.3952485374289267
 30
-0.0000000000000683
 11
57.0000000000002203
 21
292.2329999999997767
 31
-0.0000000000000649
210
0.0
220
1.0
230
-0.0000000000000002
  0
LINE
  5
1576
  8
0
  6
VERDECKT
 62
     1
 10
-56.9999999999997726
 20
307.3952485374289836
 30
-0.0000000000000683
 11
-56.9999999999997726
 21
292.2330000000000041
 31
-0.0000000000000649
210
0.0
220
1.0
230
-0.0000000000000002
  0
ARC
  5
1577
  8
0
  6
VERDECKT
 62
     1
 10
34.0000000000017479
 20
307.3952485374293815
 30
0.0
 40
22.9999999999980105
210
0.0
220
-0.0000000000000002
230
-1.0
 50
0.0
 51
25.0000000000015987
  0
ARC
  5
1578
  8
0
  6
VERDECKT
 62
     1
 10
-34.0000000000021103
 20
307.3952485374293815
 30
0.0
 40
22.9999999999980993
210
0.0
220
-0.0000000000000002
230
-1.0
 50
154.9999999999998863
 51
180.0000000000013074
  0
LINE
  5
1579
  8
0
  6
VERDECKT
 62
     1
 10
53.5000000000002203
 20
320.0
 30
-0.0000000000000711
 11
54.8450791018433321
 21
317.1154685574646805
 31
-0.0000000000000704
210
0.0
220
1.0
230
-0.0000000000000002
  0
LINE
  5
157A
  8
0
  6
VERDECKT
 62
     1
 10
-53.4999999999997584
 20
320.0000000000001137
 30
-0.0000000000000711
 11
-54.8450791018428774
 21
317.1154685574649079
 31
-0.0000000000000704
210
0.0
220
1.0
230
-0.0000000000000002
  0
LINE
  5
157B
  8
0
  6
VERDECKT
 62
     1
 10
55.7080968394885971
 20
319.9971242128667086
 30
-0.0000000000000711
 11
56.6576946759169005
 21
317.9607050809449902
 31
-0.0000000000000706
210
0.0
220
1.0
230
-0.0000000000000002
  0
LINE
  5
157C
  8
0
  6
VERDECKT
 62
     1
 10
-55.7080968394881921
 20
319.9971242128667086
 30
-0.0000000000000711
 11
-56.6576946759164386
 21
317.9607050809451039
 31
-0.0000000000000706
210
0.0
220
1.0
230
-0.0000000000000002
  0
ARC
  5
157D
  8
0
  6
VERDECKT
 62
     1
 10
33.9999999999995879
 20
307.3952485374284151
 30
0.0
 40
25.0000000000001812
210
0.0
220
-0.0000000000000002
230
-1.0
 50
0.0000000000014376
 51
24.9999999999979501
  0
ARC
  5
157E
  8
0
  6
VERDECKT
 62
     1
 10
-34.0000000000001066
 20
307.3952485374284151
 30
0.0
 40
25.0000000000001101
210
0.0
220
-0.0000000000000002
230
-1.0
 50
155.0000000000023874
 51
179.9999999999988916
  0
LINE
  5
157F
  8
0
  6
VERDECKT
 62
     1
 10
59.0000000000002274
 20
307.3952485374289267
 30
-0.0000000000000683
 11
59.0000000000002203
 21
292.2332005306814722
 31
-0.0000000000000649
210
0.0
220
1.0
230
-0.0000000000000002
  0
LINE
  5
1580
  8
0
  6
VERDECKT
 62
     1
 10
-58.9999999999997726
 20
307.3952485374289836
 30
-0.0000000000000683
 11
-58.9999999999997797
 21
292.2332005306816995
 31
-0.0000000000000649
210
0.0
220
1.0
230
-0.0000000000000002
  0
LINE
  5
1581
  8
0
  6
VERDECKT
 62
     1
 10
56.0000046845772204
 20
65.9971242128666375
 30
-0.0000000000000147
 11
-55.9999953154227796
 21
65.9971242128666375
 31
-0.0000000000000147
210
0.0
220
1.0
230
-0.0000000000000002
  0
LINE
  5
1582
  8
0
  6
VERDECKT
 62
     1
 10
62.5000046845770925
 20
77.4971242128666233
 30
-0.0000000000000172
 11
-62.4999953154226588
 21
77.4971242128666233
 31
-0.0000000000000172
210
0.0
220
1.0
230
-0.0000000000000002
  0
LINE
  5
1583
  8
0
  6
VERDECKT
 62
     1
 10
56.0000046845771777
 20
65.9971242128665949
 30
-0.0000000000000147
 11
60.6188068380940521
 21
57.9971242128666091
 31
-0.0000000000000129
210
0.0
220
1.0
230
-0.0000000000000002
  0
LINE
  5
1584
  8
0
  6
VERDECKT
 62
     1
 10
-55.9999953154227299
 20
65.9971242128665949
 30
-0.0000000000000147
 11
-60.6187974689396114
 21
57.9971242128666091
 31
-0.0000000000000129
210
0.0
220
1.0
230
-0.0000000000000002
  0
LINE
  5
1585
  8
0
  6
VERDECKT
 62
     1
 10
62.5000046845771706
 20
77.4971242128666233
 30
-0.0000000000000172
 11
64.0000046845772772
 21
59.9971242128666304
 31
-0.0000000000000133
210
0.0
220
1.0
230
-0.0000000000000002
  0
LINE
  5
1586
  8
0
  6
VERDECKT
 62
     1
 10
-62.4999953154227228
 20
77.4971242128666233
 30
-0.0000000000000172
 11
-63.9999953154228365
 21
59.9971242128666304
 31
-0.0000000000000133
210
0.0
220
1.0
230
-0.0000000000000002
  0
LINE
  5
1587
  8
0
  6
VERDECKT
 62
     1
 10
-50.9999953154226588
 20
65.9971242128666944
 30
-0.0000000000000147
 11
-50.9999953154226588
 21
77.4971242128666233
 31
-0.0000000000000172
210
0.0
220
1.0
230
-0.0000000000000002
  0
LINE
  5
1588
  8
0
  6
VERDECKT
 62
     1
 10
51.0000046845771067
 20
65.9971242128666944
 30
-0.0000000000000147
 11
51.0000046845771067
 21
77.4971242128666233
 31
-0.0000000000000172
210
0.0
220
1.0
230
-0.0000000000000002
  0
LINE
  5
1589
  8
0
  6
VERDECKT
 62
     1
 10
-63.9999953154226731
 20
305.9971242128667086
 30
-0.0000000000000679
 11
64.0000046845771067
 21
305.9971242128667086
 31
-0.0000000000000679
210
0.0
220
1.0
230
-0.0000000000000002
  0
LINE
  5
158A
  8
0
  6
VERDECKT
 62
     1
 10
64.0000046845772204
 20
319.9971242128667086
 30
-0.0000000000000711
 11
64.0000046845772204
 21
305.9971242128667086
 31
-0.0000000000000679
210
0.0
220
1.0
230
-0.0000000000000002
  0
LINE
  5
158B
  8
0
  6
VERDECKT
 62
     1
 10
-63.9999953154227725
 20
319.9971242128667086
 30
-0.0000000000000711
 11
-63.9999953154227725
 21
305.9971242128667086
 31
-0.0000000000000679
210
0.0
220
1.0
230
-0.0000000000000002
  0
LINE
  5
158C
  8
0
  6
VERDECKT
 62
     1
 10
59.0000046845772204
 20
307.3923727502956922
 30
-0.0000000000000683
 11
59.0000046845772204
 21
305.9971242128667086
 31
-0.0000000000000679
210
0.0
220
1.0
230
-0.0000000000000002
  0
LINE
  5
158D
  8
0
  6
VERDECKT
 62
     1
 10
-58.9999953154227725
 20
307.3923727502956922
 30
-0.0000000000000683
 11
-58.9999953154227725
 21
305.9971242128667086
 31
-0.0000000000000679
210
0.0
220
1.0
230
-0.0000000000000002
  0
ARC
  5
158E
  8
0
  6
VERDECKT
 62
     1
 10
33.7753939498908906
 20
307.3923727502959764
 30
0.0
 40
25.2246013655318997
210
0.0
220
-0.0000000000000002
230
-1.0
 50
359.9999999999992042
 51
27.3405267866161985
  0
ARC
  5
158F
  8
0
  6
VERDECKT
 62
     1
 10
-33.7754033190453171
 20
307.3923727502959764
 30
0.0
 40
25.224601365531889
210
0.0
220
-0.0000000000000002
230
-1.0
 50
152.6594732133837908
 51
180.0000000000007105
  0
LINE
  5
1590
  8
0
  6
VERDECKT
 62
     1
 10
55.7067605225023001
 20
319.9971242128668223
 30
-0.0000000000000711
 11
56.1822299414979582
 21
318.9774767533397721
 31
-0.0000000000000708
210
0.0
220
1.0
230
-0.0000000000000002
  0
LINE
  5
1591
  8
0
  6
VERDECKT
 62
     1
 10
-55.7067511533478594
 20
319.9971242128668223
 30
-0.0000000000000711
 11
-56.1822205723435104
 21
318.9774767533397721
 31
-0.0000000000000708
210
0.0
220
1.0
230
-0.0000000000000002
  0
LINE
  5
1592
  8
0
  6
VERDECKT
 62
     1
 10
64.0000046845772204
 20
319.9971242128667086
 30
-0.0000000000000711
 11
64.0000046845772204
 21
59.9971242128666589
 31
-0.0000000000000133
210
0.0
220
1.0
230
-0.0000000000000002
  0
LINE
  5
1593
  8
0
  6
VERDECKT
 62
     1
 10
-63.9999953154227725
 20
319.9971242128667086
 30
-0.0000000000000711
 11
-63.9999953154227725
 21
59.9971242128666589
 31
-0.0000000000000133
210
0.0
220
1.0
230
-0.0000000000000002
  0
LINE
  5
1594
  8
0
  6
VERDECKT
 62
     1
 10
66.5000046845772204
 20
249.9971242128667086
 30
-0.0000000000000555
 11
66.5000046845772204
 21
233.9971242128667086
 31
-0.000000000000052
210
0.0
220
1.0
230
-0.0000000000000002
  0
LINE
  5
1595
  8
0
  6
VERDECKT
 62
     1
 10
-66.4999953154227654
 20
249.9971242128667086
 30
-0.0000000000000555
 11
-66.4999953154227654
 21
233.9971242128667086
 31
-0.000000000000052
210
0.0
220
1.0
230
-0.0000000000000002
  0
LINE
  5
1596
  8
0
  6
VERDECKT
 62
     1
 10
67.5000046845772204
 20
241.9971242128667086
 30
-0.0000000000000537
 11
67.5000046845772204
 21
233.9971242128667086
 31
-0.000000000000052
210
0.0
220
1.0
230
-0.0000000000000002
  0
LINE
  5
1597
  8
0
  6
VERDECKT
 62
     1
 10
-67.4999953154227796
 20
241.9971242128667086
 30
-0.0000000000000537
 11
-67.4999953154227796
 21
233.9971242128667086
 31
-0.000000000000052
210
0.0
220
1.0
230
-0.0000000000000002
  0
LINE
  5
1598
  8
0
  6
VERDECKT
 62
     1
 10
67.5000046845772204
 20
249.9971242128667086
 30
-0.0000000000000555
 11
67.5000046845772204
 21
241.9971242128667086
 31
-0.0000000000000537
210
0.0
220
1.0
230
-0.0000000000000002
  0
LINE
  5
1599
  8
0
  6
VERDECKT
 62
     1
 10
-67.4999953154227796
 20
249.9971242128667086
 30
-0.0000000000000555
 11
-67.4999953154227796
 21
241.9971242128667086
 31
-0.0000000000000537
210
0.0
220
1.0
230
-0.0000000000000002
  0
ENDBLK
  5
159B
  8
0
  0
ENDSEC
  0
SECTION
  2
ENTITIES
  0
TEXT
  5
389
  8
VOLL
 10
78.076754716981128
 20
31.025947764705851
 30
0.0
 40
1.8
  1

  7
GREEKS
  0
TEXT
  5
394
  8
VOLL
 10
614.6828372673194281
 20
223.5408431771203084
 30
0.0
 40
1.8
  1

 50
90.0
  7
GREEKS
  0
TEXT
  5
395
  8
VOLL
 10
609.3907205516001113
 20
313.2070171027933725
 30
0.0
 40
1.8
  1

 50
90.0
  7
GREEKS
  0
TEXT
  5
396
  8
TEXT
 10
603.8324850183745411
 20
645.0392853063863186
 30
0.0
 40
2.5
  1
  
 50
90.0
  7
GREEKS
 72
     1
 11
603.8324850183745411
 21
647.3011900682911346
 31
0.0
  0
TEXT
  5
397
  8
BEM
 10
468.2736029879723105
 20
889.1590026188682714
 30
0.0
 40
2.5
  1
 
 50
90.0
 72
     4
 11
468.2736029879723105
 21
890.2899549998207931
 31
0.0
  0
TEXT
  5
399
  8
BEM
 10
585.754006360438666
 20
454.8483467487179155
 30
0.0
 40
2.5
  1

 50
90.0
  7
GREEKS
  0
TEXT
  5
39A
  8
VOLL
 10
605.9372670174738005
 20
440.7821537289963771
 30
0.0
 40
1.8
  1

 50
90.0
  7
GREEKS
  0
TEXT
  5
39B
  8
BEM
 10
601.2115426942532395
 20
475.2702185682811091
 30
0.0
 40
2.5
  1

 50
90.0
 41
0.8
  7
GREEKS
  0
TEXT
  5
39C
  8
BEM
 10
605.9053112483053383
 20
475.2702185682811091
 30
0.0
 40
2.5
  1

 50
90.0
 41
0.8
  7
GREEKS
  0
TEXT
  5
39D
  8
BEM
 10
611.1431550669688022
 20
475.2702185682811091
 30
0.0
 40
2.5
  1

 50
90.0
 41
0.8
  7
GREEKS
  0
TEXT
  5
39E
  8
BEM
 10
615.6483440170663926
 20
475.1972740909066033
 30
0.0
 40
1.8
  1

 50
90.0
 41
0.8
  7
GREEKS
  0
TEXT
  5
39F
  8
BEM
 10
590.056754920841172
 20
462.5137032112954216
 30
0.0
 40
2.0
  1

 50
90.0
 41
0.8
  7
GREEKS
 72
     1
 11
590.056754920841172
 21
462.5137032112954216
 31
0.0
  0
TEXT
  5
3A0
  8
TEXT
 10
600.379031484248344
 20
772.6144219325892664
 30
0.0
 40
2.5
  1
  
 50
90.0
  7
GREEKS
 72
     1
 11
600.379031484248344
 21
774.8763266944940824
 31
0.0
  0
TEXT
  5
3A1
  8
BEM
 10
464.8201494538461134
 20
1016.7341392450709918
 30
0.0
 40
2.5
  1
 
 50
90.0
 72
     4
 11
464.8201494538461134
 21
1017.8650916260229451
 31
0.0
  0
TEXT
  5
3A2
  8
VOLL
 10
598.4857529554845996
 20
365.4989181242817153
 30
0.0
 40
1.8
  1

 50
90.0
  7
GREEKS
  0
TEXT
  5
3A3
  8
TEXT
 10
592.9275174222591431
 20
697.3311863278745477
 30
0.0
 40
2.5
  1
  
 50
90.0
  7
GREEKS
 72
     1
 11
592.9275174222591431
 21
699.5930910897793638
 31
0.0
  0
TEXT
  5
3A4
  8
BEM
 10
457.3686353918569125
 20
941.4509036403567279
 30
0.0
 40
2.5
  1
 
 50
90.0
 72
     4
 11
457.3686353918569125
 21
942.5818560213089086
 31
0.0
  0
TEXT
  5
3A5
  8
BEM
 10
578.1523420658080568
 20
520.6385202810776036
 30
0.0
 40
2.5
  1

 50
90.0
  7
GREEKS
  0
TEXT
  5
3A6
  8
VOLL
 10
598.3356027228433049
 20
506.572327261356179
 30
0.0
 40
1.8
  1

 50
90.0
  7
GREEKS
  0
TEXT
  5
3A7
  8
BEM
 10
593.6098783996226302
 20
541.0603921006406836
 30
0.0
 40
2.5
  1

 50
90.0
 41
0.8
  7
GREEKS
  0
TEXT
  5
3A8
  8
BEM
 10
598.3036469536748427
 20
541.0603921006406836
 30
0.0
 40
2.5
  1

 50
90.0
 41
0.8
  7
GREEKS
  0
TEXT
  5
3A9
  8
BEM
 10
603.541490772338193
 20
541.0603921006406836
 30
0.0
 40
2.5
  1

 50
90.0
 41
0.8
  7
GREEKS
  0
TEXT
  5
3AA
  8
BEM
 10
608.0466797224357833
 20
540.9874476232663483
 30
0.0
 40
1.8
  1

 50
90.0
 41
0.8
  7
GREEKS
  0
TEXT
  5
3AB
  8
BEM
 10
582.4550906262105627
 20
528.3038767436551097
 30
0.0
 40
2.0
  1

 50
90.0
 41
0.8
  7
GREEKS
 72
     1
 11
582.4550906262105627
 21
528.3038767436551097
 31
0.0
  0
TEXT
  5
3AC
  8
TEXT
 10
592.7773671896177348
 20
838.4045954649490113
 30
0.0
 40
2.5
  1
  
 50
90.0
  7
GREEKS
 72
     1
 11
592.7773671896177348
 21
840.6665002268539411
 31
0.0
  0
TEXT
  5
3AD
  8
BEM
 10
457.2184851592153905
 20
1082.5243127774310778
 30
0.0
 40
2.5
  1
 
 50
90.0
 72
     4
 11
457.2184851592153905
 21
1083.6552651583829174
 31
0.0
  0
TEXT
  5
3AE
  8
VOLL
 10
610.3014624812332158
 20
301.4767066975252874
 30
0.0
 40
1.8
  1

 50
90.0
  7
GREEKS
  0
TEXT
  5
3AF
  8
TEXT
 10
604.7432269480076457
 20
633.3089749011179492
 30
0.0
 40
2.5
  1
  
 50
90.0
  7
GREEKS
 72
     1
 11
604.7432269480076457
 21
635.570879663022879
 31
0.0
  0
TEXT
  5
3B0
  8
BEM
 10
469.184344917605415
 20
877.4286922136001294
 30
0.0
 40
2.5
  1
 
 50
90.0
 72
     4
 11
469.184344917605415
 21
878.5596445945525375
 31
0.0
  0
TEXT
  5
3B1
  8
BEM
 10
570.1482317826473718
 20
466.8223197771752098
 30
0.0
 40
2.5
  1

 50
90.0
  7
GREEKS
  0
TEXT
  5
3B2
  8
VOLL
 10
590.33149243968262
 20
452.7561267574537283
 30
0.0
 40
1.8
  1

 50
90.0
  7
GREEKS
  0
TEXT
  5
3B3
  8
BEM
 10
585.6057681164619453
 20
487.2441915967382897
 30
0.0
 40
2.5
  1

 50
90.0
 41
0.8
  7
GREEKS
  0
TEXT
  5
3B4
  8
BEM
 10
590.2995366705140441
 20
487.2441915967382897
 30
0.0
 40
2.5
  1

 50
90.0
 41
0.8
  7
GREEKS
  0
TEXT
  5
3B5
  8
BEM
 10
595.5373804891776217
 20
487.2441915967382897
 30
0.0
 40
2.5
  1

 50
90.0
 41
0.8
  7
GREEKS
  0
TEXT
  5
3B6
  8
BEM
 10
600.0425694392752121
 20
487.1712471193638976
 30
0.0
 40
1.8
  1

 50
90.0
 41
0.8
  7
GREEKS
  0
TEXT
  5
3B7
  8
BEM
 10
574.4509803430498778
 20
474.4876762397526022
 30
0.0
 40
2.0
  1

 50
90.0
 41
0.8
  7
GREEKS
 72
     1
 11
574.4509803430498778
 21
474.4876762397526022
 31
0.0
  0
TEXT
  5
3B8
  8
TEXT
 10
584.7732569064570498
 20
784.588394961046447
 30
0.0
 40
2.5
  1
  
 50
90.0
  7
GREEKS
 72
     1
 11
584.7732569064570498
 21
786.850299722951263
 31
0.0
  0
TEXT
  5
3B9
  8
BEM
 10
449.2143748760548192
 20
1028.7081122735289682
 30
0.0
 40
2.5
  1
 
 50
90.0
 72
     4
 11
449.2143748760548192
 21
1029.8390646544810352
 31
0.0
  0
TEXT
  5
3BA
  8
VOLL
 10
605.183019103730544
 20
629.0582829506364533
 30
0.0
 40
1.8
  1

 50
90.0
  7
GREEKS
  0
TEXT
  5
3BB
  8
VOLL
 10
599.8909023880113409
 20
718.7244568763095458
 30
0.0
 40
1.8
  1

 50
90.0
  7
GREEKS
  0
TEXT
  5
3BC
  8
TEXT
 10
594.3326668547856571
 20
1050.5567250799028898
 30
0.0
 40
2.5
  1
  
 50
90.0
  7
GREEKS
 72
     1
 11
594.3326668547856571
 21
1052.8186298418070237
 31
0.0
  0
TEXT
  5
3BD
  8
BEM
 10
458.7737848243834833
 20
1294.67644239238507
 30
0.0
 40
2.5
  1
 
 50
90.0
 72
     4
 11
458.7737848243834833
 21
1295.8073947733369096
 31
0.0
  0
TEXT
  5
3BE
  8
BEM
 10
576.2541881968497819
 20
860.3657865222340888
 30
0.0
 40
2.5
  1

 50
90.0
  7
GREEKS
  0
TEXT
  5
3BF
  8
VOLL
 10
596.4374488538850301
 20
846.2995935025126073
 30
0.0
 40
1.8
  1

 50
90.0
  7
GREEKS
  0
TEXT
  5
3C0
  8
BEM
 10
591.7117245306643554
 20
880.7876583417972824
 30
0.0
 40
2.5
  1

 50
90.0
 41
0.8
  7
GREEKS
  0
TEXT
  5
3C1
  8
BEM
 10
596.4054930847164542
 20
880.7876583417972824
 30
0.0
 40
2.5
  1

 50
90.0
 41
0.8
  7
GREEKS
  0
TEXT
  5
3C2
  8
BEM
 10
601.6433369033800318
 20
880.7876583417972824
 30
0.0
 40
2.5
  1

 50
90.0
 41
0.8
  7
GREEKS
  0
TEXT
  5
3C3
  8
BEM
 10
606.1485258534777358
 20
880.7147138644229472
 30
0.0
 40
1.8
  1

 50
90.0
 41
0.8
  7
GREEKS
  0
TEXT
  5
3C4
  8
BEM
 10
580.5569367572522879
 20
868.0311429848114813
 30
0.0
 40
2.0
  1

 50
90.0
 41
0.8
  7
GREEKS
 72
     1
 11
580.5569367572522879
 21
868.0311429848114813
 31
0.0
  0
TEXT
  5
3C5
  8
TEXT
 10
590.8792133206594599
 20
1178.131861706106065
 30
0.0
 40
2.5
  1
  
 50
90.0
  7
GREEKS
 72
     1
 11
590.8792133206594599
 21
1180.3937664680099715
 31
0.0
  0
TEXT
  5
3C6
  8
BEM
 10
455.3203312902572861
 20
1422.2515790185880178
 30
0.0
 40
2.5
  1
 
 50
90.0
 72
     4
 11
455.3203312902572861
 21
1423.3825313995400847
 31
0.0
  0
TEXT
  5
3C7
  8
VOLL
 10
628.1320919962312246
 20
636.9715976424198516
 30
0.0
 40
1.8
  1

 50
90.0
  7
GREEKS
  0
TEXT
  5
3C8
  8
VOLL
 10
622.8399752805119078
 20
726.6377715680929441
 30
0.0
 40
1.8
  1

 50
90.0
  7
GREEKS
  0
TEXT
  5
3C9
  8
TEXT
 10
617.2817397472863377
 20
1058.4700397716860607
 30
0.0
 40
2.5
  1
  
 50
90.0
  7
GREEKS
 72
     1
 11
617.2817397472863377
 21
1060.7319445335899673
 31
0.0
  0
TEXT
  5
3CA
  8
BEM
 10
481.7228577168839934
 20
1302.5897570841680135
 30
0.0
 40
2.5
  1
 
 50
90.0
 72
     4
 11
481.7228577168839934
 21
1303.7207094651200805
 31
0.0
  0
TEXT
  5
3CB
  8
BEM
 10
599.2032610893503488
 20
868.2791012140172597
 30
0.0
 40
2.5
  1

 50
90.0
  7
GREEKS
  0
TEXT
  5
3CC
  8
VOLL
 10
619.386521746385597
 20
854.2129081942960056
 30
0.0
 40
1.8
  1

 50
90.0
  7
GREEKS
  0
TEXT
  5
3CD
  8
BEM
 10
614.6607974231649223
 20
888.7009730335804534
 30
0.0
 40
2.5
  1

 50
90.0
 41
0.8
  7
GREEKS
  0
TEXT
  5
3CE
  8
BEM
 10
619.3545659772171348
 20
888.7009730335804534
 30
0.0
 40
2.5
  1

 50
90.0
 41
0.8
  7
GREEKS
  0
TEXT
  5
3CF
  8
BEM
 10
624.592409795880485
 20
888.7009730335804534
 30
0.0
 40
2.5
  1

 50
90.0
 41
0.8
  7
GREEKS
  0
TEXT
  5
3D0
  8
BEM
 10
629.0975987459781891
 20
888.6280285562063455
 30
0.0
 40
1.8
  1

 50
90.0
 41
0.8
  7
GREEKS
  0
TEXT
  5
3D1
  8
BEM
 10
603.5060096497528548
 20
875.9444576765949932
 30
0.0
 40
2.0
  1

 50
90.0
 41
0.8
  7
GREEKS
 72
     1
 11
603.5060096497528548
 21
875.9444576765949932
 31
0.0
  0
TEXT
  5
3D2
  8
TEXT
 10
613.8282862131600268
 20
1186.0451763978890085
 30
0.0
 40
2.5
  1
  
 50
90.0
  7
GREEKS
 72
     1
 11
613.8282862131600268
 21
1188.3070811597929151
 31
0.0
  0
TEXT
  5
3D3
  8
BEM
 10
478.2694041827577962
 20
1430.1648937103709613
 30
0.0
 40
2.5
  1
 
 50
90.0
 72
     4
 11
478.2694041827577962
 21
1431.2958460913230283
 31
0.0
  0
TEXT
  5
3D4
  8
VOLL
 10
611.9350076843962825
 20
778.929672589581287
 30
0.0
 40
1.8
  1

 50
90.0
  7
GREEKS
  0
TEXT
  5
3D5
  8
TEXT
 10
606.376772151170826
 20
1110.7619407931740625
 30
0.0
 40
2.5
  1
  
 50
90.0
  7
GREEKS
 72
     1
 11
606.376772151170826
 21
1113.0238455550791059
 31
0.0
  0
TEXT
  5
3D6
  8
BEM
 10
470.8178901207685954
 20
1354.8816581056560153
 30
0.0
 40
2.5
  1
 
 50
90.0
 72
     4
 11
470.8178901207685954
 21
1356.0126104866080823
 31
0.0
  0
TEXT
  5
3D7
  8
BEM
 10
591.6015967947198533
 20
934.0692747463773458
 30
0.0
 40
2.5
  1

 50
90.0
  7
GREEKS
  0
TEXT
  5
3D8
  8
VOLL
 10
611.7848574517549878
 20
920.0030817266556369
 30
0.0
 40
1.8
  1

 50
90.0
  7
GREEKS
  0
TEXT
  5
3D9
  8
BEM
 10
607.0591331285343131
 20
954.4911465659400847
 30
0.0
 40
2.5
  1

 50
90.0
 41
0.8
  7
GREEKS
  0
TEXT
  5
3DA
  8
BEM
 10
611.7529016825865256
 20
954.4911465659400847
 30
0.0
 40
2.5
  1

 50
90.0
 41
0.8
  7
GREEKS
  0
TEXT
  5
3DB
  8
BEM
 10
616.9907455012499895
 20
954.4911465659400847
 30
0.0
 40
2.5
  1

 50
90.0
 41
0.8
  7
GREEKS
  0
TEXT
  5
3DC
  8
BEM
 10
621.4959344513475799
 20
954.4182020885659767
 30
0.0
 40
1.8
  1

 50
90.0
 41
0.8
  7
GREEKS
  0
TEXT
  5
3DD
  8
BEM
 10
595.9043453551222456
 20
941.7346312089547382
 30
0.0
 40
2.0
  1

 50
90.0
 41
0.8
  7
GREEKS
 72
     1
 11
595.9043453551222456
 21
941.7346312089547382
 31
0.0
  0
TEXT
  5
3DE
  8
TEXT
 10
606.2266219185294176
 20
1251.8353499302490945
 30
0.0
 40
2.5
  1
  
 50
90.0
  7
GREEKS
 72
     1
 11
606.2266219185294176
 21
1254.0972546921530011
 31
0.0
  0
TEXT
  5
3DF
  8
BEM
 10
470.667739888127187
 20
1495.9550672427310474
 30
0.0
 40
2.5
  1
 
 50
90.0
 72
     4
 11
470.667739888127187
 21
1497.086019623682887
 31
0.0
  0
TEXT
  5
3E0
  8
VOLL
 10
417.2727782045905087
 20
409.5468129026968995
 30
0.0
 40
1.8
  1

 50
90.0
  7
GREEKS
  0
TEXT
  5
3E1
  8
VOLL
 10
411.980661488871192
 20
499.2129868283702194
 30
0.0
 40
1.8
  1

 50
90.0
  7
GREEKS
  0
TEXT
  5
3E2
  8
TEXT
 10
406.4224259556456218
 20
831.0452550319630518
 30
0.0
 40
2.5
  1
  
 50
90.0
  7
GREEKS
 72
     1
 11
406.4224259556456218
 21
833.3071597938677542
 31
0.0
  0
TEXT
  5
3E3
  8
BEM
 10
270.8635439252433912
 20
1075.1649723444450046
 30
0.0
 40
2.5
  1
 
 50
90.0
 72
     4
 11
270.8635439252433912
 21
1076.2959247253970716
 31
0.0
  0
TEXT
  5
3E4
  8
BEM
 10
388.3439472977098035
 20
640.8543164742945919
 30
0.0
 40
2.5
  1

 50
90.0
  7
GREEKS
  0
TEXT
  5
3E5
  8
VOLL
 10
408.5272079547448811
 20
626.7881234545732241
 30
0.0
 40
1.8
  1

 50
90.0
  7
GREEKS
  0
TEXT
  5
3E6
  8
BEM
 10
403.8014836315243201
 20
661.2761882938577855
 30
0.0
 40
2.5
  1

 50
90.0
 41
0.8
  7
GREEKS
  0
TEXT
  5
3E7
  8
BEM
 10
408.4952521855764189
 20
661.2761882938577855
 30
0.0
 40
2.5
  1

 50
90.0
 41
0.8
  7
GREEKS
  0
TEXT
  5
3E8
  8
BEM
 10
413.7330960042398829
 20
661.2761882938577855
 30
0.0
 40
2.5
  1

 50
90.0
 41
0.8
  7
GREEKS
  0
TEXT
  5
3E9
  8
BEM
 10
418.2382849543374732
 20
661.2032438164833366
 30
0.0
 40
1.8
  1

 50
90.0
 41
0.8
  7
GREEKS
  0
TEXT
  5
3EA
  8
BEM
 10
392.6466958581123095
 20
648.5196729368722117
 30
0.0
 40
2.0
  1

 50
90.0
 41
0.8
  7
GREEKS
 72
     1
 11
392.6466958581123095
 21
648.5196729368722117
 31
0.0
  0
TEXT
  5
3EB
  8
TEXT
 10
402.968972421519311
 20
958.6203916581658859
 30
0.0
 40
2.5
  1
  
 50
90.0
  7
GREEKS
 72
     1
 11
402.968972421519311
 21
960.8822964200708157
 31
0.0
  0
TEXT
  5
3EC
  8
BEM
 10
267.4100903911170803
 20
1202.7401089706479524
 30
0.0
 40
2.5
  1
 
 50
90.0
 72
     4
 11
267.4100903911170803
 21
1203.8710613516000194
 31
0.0
  0
TEXT
  5
3ED
  8
VOLL
 10
401.0756938927556803
 20
551.5048878498583917
 30
0.0
 40
1.8
  1

 50
90.0
  7
GREEKS
  0
TEXT
  5
3EE
  8
TEXT
 10
395.5174583595302238
 20
883.3371560534511673
 30
0.0
 40
2.5
  1
  
 50
90.0
  7
GREEKS
 72
     1
 11
395.5174583595302238
 21
885.599060815356097
 31
0.0
  0
TEXT
  5
3EF
  8
BEM
 10
259.9585763291279932
 20
1127.4568733659330064
 30
0.0
 40
2.5
  1
 
 50
90.0
 72
     4
 11
259.9585763291279932
 21
1128.5878257468850734
 31
0.0
  0
TEXT
  5
3F0
  8
BEM
 10
380.7422830030791943
 20
706.6444900066542232
 30
0.0
 40
2.5
  1

 50
90.0
  7
GREEKS
  0
TEXT
  5
3F1
  8
VOLL
 10
400.9255436601142719
 20
692.5782969869328554
 30
0.0
 40
1.8
  1

 50
90.0
  7
GREEKS
  0
TEXT
  5
3F2
  8
BEM
 10
396.1998193368937109
 20
727.0663618262174168
 30
0.0
 40
2.5
  1

 50
90.0
 41
0.8
  7
GREEKS
  0
TEXT
  5
3F3
  8
BEM
 10
400.8935878909459234
 20
727.0663618262174168
 30
0.0
 40
2.5
  1

 50
90.0
 41
0.8
  7
GREEKS
  0
TEXT
  5
3F4
  8
BEM
 10
406.1314317096092736
 20
727.0663618262174168
 30
0.0
 40
2.5
  1

 50
90.0
 41
0.8
  7
GREEKS
  0
TEXT
  5
3F5
  8
BEM
 10
410.6366206597069208
 20
726.9934173488428542
 30
0.0
 40
1.8
  1

 50
90.0
 41
0.8
  7
GREEKS
  0
TEXT
  5
3F6
  8
BEM
 10
385.0450315634817002
 20
714.309846469231843
 30
0.0
 40
2.0
  1

 50
90.0
 41
0.8
  7
GREEKS
 72
     1
 11
385.0450315634817002
 21
714.309846469231843
 31
0.0
  0
TEXT
  5
3F7
  8
TEXT
 10
395.3673081268888154
 20
1024.4105651905249488
 30
0.0
 40
2.5
  1
  
 50
90.0
  7
GREEKS
 72
     1
 11
395.3673081268888154
 21
1026.6724699524299922
 31
0.0
  0
TEXT
  5
3F8
  8
BEM
 10
259.808426096486528
 20
1268.5302825030080385
 30
0.0
 40
2.5
  1
 
 50
90.0
 72
     4
 11
259.808426096486528
 21
1269.6612348839601054
 31
0.0
  0
TEXT
  5
3F9
  8
VOLL
 10
412.8914034185042965
 20
487.4826764231019069
 30
0.0
 40
1.8
  1

 50
90.0
  7
GREEKS
  0
TEXT
  5
3FA
  8
TEXT
 10
407.3331678852786126
 20
819.3149446266947962
 30
0.0
 40
2.5
  1
  
 50
90.0
  7
GREEKS
 72
     1
 11
407.3331678852786126
 21
821.5768493885994985
 31
0.0
  0
TEXT
  5
3FB
  8
BEM
 10
271.7742858548764957
 20
1063.4346619391769764
 30
0.0
 40
2.5
  1
 
 50
90.0
 72
     4
 11
271.7742858548764957
 21
1064.5656143201290433
 31
0.0
  0
TEXT
  5
3FC
  8
BEM
 10
372.738172719918623
 20
652.8282895027517725
 30
0.0
 40
2.5
  1

 50
90.0
  7
GREEKS
  0
TEXT
  5
3FD
  8
VOLL
 10
392.9214333769537006
 20
638.7620964830305184
 30
0.0
 40
1.8
  1

 50
90.0
  7
GREEKS
  0
TEXT
  5
3FE
  8
BEM
 10
388.1957090537330828
 20
673.2501613223149661
 30
0.0
 40
2.5
  1

 50
90.0
 41
0.8
  7
GREEKS
  0
TEXT
  5
3FF
  8
BEM
 10
392.8894776077851816
 20
673.2501613223149661
 30
0.0
 40
2.5
  1

 50
90.0
 41
0.8
  7
GREEKS
  0
TEXT
  5
400
  8
BEM
 10
398.1273214264488161
 20
673.2501613223149661
 30
0.0
 40
2.5
  1

 50
90.0
 41
0.8
  7
GREEKS
  0
TEXT
  5
401
  8
BEM
 10
402.6325103765462927
 20
673.1772168449406308
 30
0.0
 40
1.8
  1

 50
90.0
 41
0.8
  7
GREEKS
  0
TEXT
  5
402
  8
BEM
 10
377.0409212803210721
 20
660.493645965329506
 30
0.0
 40
2.0
  1

 50
90.0
 41
0.8
  7
GREEKS
 72
     1
 11
377.0409212803210721
 21
660.493645965329506
 31
0.0
  0
TEXT
  5
403
  8
TEXT
 10
387.3631978437280736
 20
970.5943646866232939
 30
0.0
 40
2.5
  1
  
 50
90.0
  7
GREEKS
 72
     1
 11
387.3631978437280736
 21
972.8562694485281099
 31
0.0
  0
TEXT
  5
404
  8
BEM
 10
251.8043158133258999
 20
1214.7140819991050193
 30
0.0
 40
2.5
  1
 
 50
90.0
 72
     4
 11
251.8043158133258999
 21
1215.8450343800570863
 31
0.0
  0
TEXT
  5
405
  8
BEM
 10
744.0723483211492066
 20
867.3351786995575594
 30
0.0
 40
2.5
  1

 50
90.0
 41
0.8
  7
GREEKS
 72
     4
 11
744.0723483211492066
 21
867.3351786995575594
 31
0.0
  0
TEXT
  5
406
  8
VOLL
 10
634.6679242961320142
 20
698.5359873762943153
 30
0.0
 40
1.8
  1

 50
90.0
  7
GREEKS
  0
TEXT
  5
407
  8
VOLL
 10
629.3758075804125838
 20
788.2021613019674078
 30
0.0
 40
1.8
  1

 50
90.0
  7
GREEKS
  0
TEXT
  5
408
  8
TEXT
 10
623.8175720471871273
 20
1120.0344295055599559
 30
0.0
 40
2.5
  1
  
 50
90.0
  7
GREEKS
 72
     1
 11
623.8175720471871273
 21
1122.2963342674649994
 31
0.0
  0
TEXT
  5
409
  8
BEM
 10
488.2586900167848967
 20
1364.1541468180419088
 30
0.0
 40
2.5
  1
 
 50
90.0
 72
     4
 11
488.2586900167848967
 21
1365.2850991989951126
 31
0.0
  0
TEXT
  5
40A
  8
BEM
 10
605.7390933892512521
 20
929.8434909478919508
 30
0.0
 40
2.5
  1

 50
90.0
  7
GREEKS
  0
TEXT
  5
40B
  8
VOLL
 10
625.9223540462861592
 20
915.7772979281704693
 30
0.0
 40
1.8
  1

 50
90.0
  7
GREEKS
  0
TEXT
  5
40C
  8
BEM
 10
621.1966297230657119
 20
950.2653627674551444
 30
0.0
 40
2.5
  1

 50
90.0
 41
0.8
  7
GREEKS
  0
TEXT
  5
40D
  8
BEM
 10
625.8903982771179244
 20
950.2653627674551444
 30
0.0
 40
2.5
  1

 50
90.0
 41
0.8
  7
GREEKS
  0
TEXT
  5
40E
  8
BEM
 10
631.1282420957812747
 20
950.2653627674551444
 30
0.0
 40
2.5
  1

 50
90.0
 41
0.8
  7
GREEKS
  0
TEXT
  5
40F
  8
BEM
 10
635.633431045878865
 20
950.1924182900805818
 30
0.0
 40
1.8
  1

 50
90.0
 41
0.8
  7
GREEKS
  0
TEXT
  5
410
  8
BEM
 10
610.0418419496536444
 20
937.5088474104695706
 30
0.0
 40
2.0
  1

 50
90.0
 41
0.8
  7
GREEKS
 72
     1
 11
610.0418419496536444
 21
937.5088474104695706
 31
0.0
  0
TEXT
  5
411
  8
TEXT
 10
620.3641185130607028
 20
1247.6095661317629038
 30
0.0
 40
2.5
  1
  
 50
90.0
  7
GREEKS
 72
     1
 11
620.3641185130607028
 21
1249.8714708936679472
 31
0.0
  0
TEXT
  5
412
  8
BEM
 10
484.8052364826584721
 20
1491.729283444245084
 30
0.0
 40
2.5
  1
 
 50
90.0
 72
     4
 11
484.8052364826584721
 21
1492.8602358251980604
 31
0.0
  0
TEXT
  5
413
  8
VOLL
 10
618.4708399842970721
 20
840.4940623234557506
 30
0.0
 40
1.8
  1

 50
90.0
  7
GREEKS
  0
TEXT
  5
414
  8
TEXT
 10
612.9126044510717293
 20
1172.3263305270490946
 30
0.0
 40
2.5
  1
  
 50
90.0
  7
GREEKS
 72
     1
 11
612.9126044510717293
 21
1174.5882352889530011
 31
0.0
  0
TEXT
  5
415
  8
BEM
 10
477.353722420669385
 20
1416.4460478395310474
 30
0.0
 40
2.5
  1
 
 50
90.0
 72
     4
 11
477.353722420669385
 21
1417.577000220482887
 31
0.0
  0
TEXT
  5
416
  8
BEM
 10
598.1374290946206429
 20
995.6336644802514684
 30
0.0
 40
2.5
  1

 50
90.0
  7
GREEKS
  0
TEXT
  5
417
  8
VOLL
 10
618.3206897516557774
 20
981.5674714605302142
 30
0.0
 40
1.8
  1

 50
90.0
  7
GREEKS
  0
TEXT
  5
418
  8
BEM
 10
613.5949654284352164
 20
1016.0555362998139799
 30
0.0
 40
2.5
  1

 50
90.0
 41
0.8
  7
GREEKS
  0
TEXT
  5
419
  8
BEM
 10
618.2887339824873152
 20
1016.0555362998139799
 30
0.0
 40
2.5
  1

 50
90.0
 41
0.8
  7
GREEKS
  0
TEXT
  5
41A
  8
BEM
 10
623.5265778011506654
 20
1016.0555362998139799
 30
0.0
 40
2.5
  1

 50
90.0
 41
0.8
  7
GREEKS
  0
TEXT
  5
41B
  8
BEM
 10
628.0317667512483695
 20
1015.9825918224399857
 30
0.0
 40
1.8
  1

 50
90.0
 41
0.8
  7
GREEKS
  0
TEXT
  5
41C
  8
BEM
 10
602.4401776550231489
 20
1003.2990209428289745
 30
0.0
 40
2.0
  1

 50
90.0
 41
0.8
  7
GREEKS
 72
     1
 11
602.4401776550231489
 21
1003.2990209428289745
 31
0.0
  0
TEXT
  5
41D
  8
TEXT
 10
612.7624542184300935
 20
1313.3997396641229898
 30
0.0
 40
2.5
  1
  
 50
90.0
  7
GREEKS
 72
     1
 11
612.7624542184300935
 21
1315.6616444260280332
 31
0.0
  0
TEXT
  5
41E
  8
BEM
 10
477.2035721880279198
 20
1557.5194569766049426
 30
0.0
 40
2.5
  1
 
 50
90.0
 72
     4
 11
477.2035721880279198
 21
1558.6504093575570096
 31
0.0
  0
TEXT
  5
41F
  8
VOLL
 10
630.2865495100456883
 20
776.4718508966993795
 30
0.0
 40
1.8
  1

 50
90.0
  7
GREEKS
  0
TEXT
  5
420
  8
TEXT
 10
624.7283139768200044
 20
1108.3041191002919277
 30
0.0
 40
2.5
  1
  
 50
90.0
  7
GREEKS
 72
     1
 11
624.7283139768200044
 21
1110.5660238621969711
 31
0.0
  0
TEXT
  5
421
  8
BEM
 10
489.1694319464178875
 20
1352.4238364127741079
 30
0.0
 40
2.5
  1
 
 50
90.0
 72
     4
 11
489.1694319464178875
 21
1353.5547887937270843
 31
0.0
  0
TEXT
  5
422
  8
BEM
 10
590.1333188114599579
 20
941.8174639763492451
 30
0.0
 40
2.5
  1

 50
90.0
  7
GREEKS
  0
TEXT
  5
423
  8
VOLL
 10
610.3165794684950924
 20
927.7512709566278772
 30
0.0
 40
1.8
  1

 50
90.0
  7
GREEKS
  0
TEXT
  5
424
  8
BEM
 10
605.5908551452745314
 20
962.2393357959124387
 30
0.0
 40
2.5
  1

 50
90.0
 41
0.8
  7
GREEKS
  0
TEXT
  5
425
  8
BEM
 10
610.2846236993267439
 20
962.2393357959124387
 30
0.0
 40
2.5
  1

 50
90.0
 41
0.8
  7
GREEKS
  0
TEXT
  5
426
  8
BEM
 10
615.5224675179900942
 20
962.2393357959124387
 30
0.0
 40
2.5
  1

 50
90.0
 41
0.8
  7
GREEKS
  0
TEXT
  5
427
  8
BEM
 10
620.0276564680876845
 20
962.166391318537876
 30
0.0
 40
1.8
  1

 50
90.0
 41
0.8
  7
GREEKS
  0
TEXT
  5
428
  8
BEM
 10
594.4360673718625776
 20
949.4828204389267512
 30
0.0
 40
2.0
  1

 50
90.0
 41
0.8
  7
GREEKS
 72
     1
 11
594.4360673718625776
 21
949.4828204389267512
 31
0.0
  0
TEXT
  5
429
  8
TEXT
 10
604.7583439352696359
 20
1259.5835391602211075
 30
0.0
 40
2.5
  1
  
 50
90.0
  7
GREEKS
 72
     1
 11
604.7583439352696359
 21
1261.8454439221250141
 31
0.0
  0
TEXT
  5
42A
  8
BEM
 10
469.1994619048672917
 20
1503.7032564727030604
 30
0.0
 40
2.5
  1
 
 50
90.0
 72
     4
 11
469.1994619048672917
 21
1504.8342088536548999
 31
0.0
  0
TEXT
  5
42B
  8
VOLL
 10
625.1681061325432438
 20
1104.0534271498108865
 30
0.0
 40
1.8
  1

 50
90.0
  7
GREEKS
  0
TEXT
  5
42C
  8
VOLL
 10
619.8759894168238134
 20
1193.719601075483979
 30
0.0
 40
1.8
  1

 50
90.0
  7
GREEKS
  0
TEXT
  5
42D
  8
TEXT
 10
614.3177538835982432
 20
1525.5518692790769819
 30
0.0
 40
2.5
  1
  
 50
90.0
  7
GREEKS
 72
     1
 11
614.3177538835982432
 21
1527.8137740409808885
 31
0.0
  0
TEXT
  5
42E
  8
BEM
 10
478.7588718531961263
 20
1769.6715865915589347
 30
0.0
 40
2.5
  1
 
 50
90.0
 72
     4
 11
478.7588718531961263
 21
1770.8025389725110017
 31
0.0
  0
TEXT
  5
42F
  8
BEM
 10
596.2392752256624817
 20
1335.3609307214080673
 30
0.0
 40
2.5
  1

 50
90.0
  7
GREEKS
  0
TEXT
  5
430
  8
VOLL
 10
616.4225358826975025
 20
1321.2947377016869268
 30
0.0
 40
1.8
  1

 50
90.0
  7
GREEKS
  0
TEXT
  5
431
  8
BEM
 10
611.6968115594769415
 20
1355.782802540971943
 30
0.0
 40
2.5
  1

 50
90.0
 41
0.8
  7
GREEKS
  0
TEXT
  5
432
  8
BEM
 10
616.390580113529154
 20
1355.782802540971943
 30
0.0
 40
2.5
  1

 50
90.0
 41
0.8
  7
GREEKS
  0
TEXT
  5
433
  8
BEM
 10
621.6284239321926179
 20
1355.782802540971943
 30
0.0
 40
2.5
  1

 50
90.0
 41
0.8
  7
GREEKS
  0
TEXT
  5
434
  8
BEM
 10
626.1336128822902083
 20
1355.7098580635970393
 30
0.0
 40
1.8
  1

 50
90.0
 41
0.8
  7
GREEKS
  0
TEXT
  5
435
  8
BEM
 10
600.5420237860649877
 20
1343.0262871839859145
 30
0.0
 40
2.0
  1

 50
90.0
 41
0.8
  7
GREEKS
 72
     1
 11
600.5420237860649877
 21
1343.0262871839859145
 31
0.0
  0
TEXT
  5
436
  8
TEXT
 10
610.864300349472046
 20
1653.1270059052799297
 30
0.0
 40
2.5
  1
  
 50
90.0
  7
GREEKS
 72
     1
 11
610.864300349472046
 21
1655.3889106671840636
 31
0.0
  0
TEXT
  5
437
  8
BEM
 10
475.3054183190697017
 20
1897.2467232177621099
 30
0.0
 40
2.5
  1
 
 50
90.0
 72
     4
 11
475.3054183190697017
 21
1898.3776755987139495
 31
0.0
  0
TEXT
  5
438
  8
VOLL
 10
648.117179025043697
 20
1111.9667418415940574
 30
0.0
 40
1.8
  1

 50
90.0
  7
GREEKS
  0
TEXT
  5
439
  8
VOLL
 10
642.8250623093242666
 20
1201.6329157672669226
 30
0.0
 40
1.8
  1

 50
90.0
  7
GREEKS
  0
TEXT
  5
43A
  8
TEXT
 10
637.2668267760989238
 20
1533.4651839708599255
 30
0.0
 40
2.5
  1
  
 50
90.0
  7
GREEKS
 72
     1
 11
637.2668267760989238
 21
1535.7270887327649689
 31
0.0
  0
TEXT
  5
43B
  8
BEM
 10
501.7079447456965795
 20
1777.5849012833421057
 30
0.0
 40
2.5
  1
 
 50
90.0
 72
     4
 11
501.7079447456965795
 21
1778.7158536642939453
 31
0.0
  0
TEXT
  5
43C
  8
BEM
 10
619.1883481181630486
 20
1343.2742454131919203
 30
0.0
 40
2.5
  1

 50
90.0
  7
GREEKS
  0
TEXT
  5
43D
  8
VOLL
 10
639.3716087751980695
 20
1329.2080523934700977
 30
0.0
 40
1.8
  1

 50
90.0
  7
GREEKS
  0
TEXT
  5
43E
  8
BEM
 10
634.6458844519775084
 20
1363.6961172327548866
 30
0.0
 40
2.5
  1

 50
90.0
 41
0.8
  7
GREEKS
  0
TEXT
  5
43F
  8
BEM
 10
639.3396530060297209
 20
1363.6961172327548866
 30
0.0
 40
2.5
  1

 50
90.0
 41
0.8
  7
GREEKS
  0
TEXT
  5
440
  8
BEM
 10
644.5774968246930712
 20
1363.6961172327548866
 30
0.0
 40
2.5
  1

 50
90.0
 41
0.8
  7
GREEKS
  0
TEXT
  5
441
  8
BEM
 10
649.0826857747906615
 20
1363.6231727553799828
 30
0.0
 40
1.8
  1

 50
90.0
 41
0.8
  7
GREEKS
  0
TEXT
  5
442
  8
BEM
 10
623.4910966785655546
 20
1350.9396018757690854
 30
0.0
 40
2.0
  1

 50
90.0
 41
0.8
  7
GREEKS
 72
     1
 11
623.4910966785655546
 21
1350.9396018757690854
 31
0.0
  0
TEXT
  5
443
  8
TEXT
 10
633.813373241972613
 20
1661.0403205970631006
 30
0.0
 40
2.5
  1
  
 50
90.0
  7
GREEKS
 72
     1
 11
633.813373241972613
 21
1663.3022253589679167
 31
0.0
  0
TEXT
  5
444
  8
BEM
 10
498.2544912115703255
 20
1905.1600379095450535
 30
0.0
 40
2.5
  1
 
 50
90.0
 72
     4
 11
498.2544912115703255
 21
1906.2909902904980299
 31
0.0
  0
TEXT
  5
445
  8
VOLL
 10
631.9200947132088686
 20
1253.9248167887549243
 30
0.0
 40
1.8
  1

 50
90.0
  7
GREEKS
  0
TEXT
  5
446
  8
TEXT
 10
626.3618591799834121
 20
1585.7570849923479273
 30
0.0
 40
2.5
  1
  
 50
90.0
  7
GREEKS
 72
     1
 11
626.3618591799834121
 21
1588.0189897542529707
 31
0.0
  0
TEXT
  5
447
  8
BEM
 10
490.8029771495811815
 20
1829.876802304831017
 30
0.0
 40
2.5
  1
 
 50
90.0
 72
     4
 11
490.8029771495811815
 21
1831.0077546857830839
 31
0.0
  0
TEXT
  5
448
  8
BEM
 10
611.5866838235324394
 20
1409.0644189455510968
 30
0.0
 40
2.5
  1

 50
90.0
  7
GREEKS
  0
TEXT
  5
449
  8
VOLL
 10
631.7699444805675739
 20
1394.9982259258299564
 30
0.0
 40
1.8
  1

 50
90.0
  7
GREEKS
  0
TEXT
  5
44A
  8
BEM
 10
627.0442201573468992
 20
1429.4862907651140631
 30
0.0
 40
2.5
  1

 50
90.0
 41
0.8
  7
GREEKS
  0
TEXT
  5
44B
  8
BEM
 10
631.7379887113991117
 20
1429.4862907651140631
 30
0.0
 40
2.5
  1

 50
90.0
 41
0.8
  7
GREEKS
  0
TEXT
  5
44C
  8
BEM
 10
636.975832530062462
 20
1429.4862907651140631
 30
0.0
 40
2.5
  1

 50
90.0
 41
0.8
  7
GREEKS
  0
TEXT
  5
44D
  8
BEM
 10
641.4810214801600523
 20
1429.4133462877400689
 30
0.0
 40
1.8
  1

 50
90.0
 41
0.8
  7
GREEKS
  0
TEXT
  5
44E
  8
BEM
 10
615.8894323839349454
 20
1416.729775408128944
 30
0.0
 40
2.0
  1

 50
90.0
 41
0.8
  7
GREEKS
 72
     1
 11
615.8894323839349454
 21
1416.729775408128944
 31
0.0
  0
TEXT
  5
44F
  8
TEXT
 10
626.2117089473420037
 20
1726.8304941294229593
 30
0.0
 40
2.5
  1
  
 50
90.0
  7
GREEKS
 72
     1
 11
626.2117089473420037
 21
1729.0923988913280027
 31
0.0
  0
TEXT
  5
450
  8
BEM
 10
490.6528269169397163
 20
1970.9502114419049121
 30
0.0
 40
2.5
  1
 
 50
90.0
 72
     4
 11
490.6528269169397163
 21
1972.0811638228569791
 31
0.0
  0
TEXT
  5
451
  8
VOLL
 10
437.2578652334029812
 20
884.5419571018710485
 30
0.0
 40
1.8
  1

 50
90.0
  7
GREEKS
  0
TEXT
  5
452
  8
VOLL
 10
431.9657485176837213
 20
974.208131027544141
 30
0.0
 40
1.8
  1

 50
90.0
  7
GREEKS
  0
TEXT
  5
453
  8
TEXT
 10
426.4075129844580943
 20
1306.0403992311369166
 30
0.0
 40
2.5
  1
  
 50
90.0
  7
GREEKS
 72
     1
 11
426.4075129844580943
 21
1308.30230399304196
 31
0.0
  0
TEXT
  5
454
  8
BEM
 10
290.8486309540559773
 20
1550.1601165436190968
 30
0.0
 40
2.5
  1
 
 50
90.0
 72
     4
 11
290.8486309540559773
 21
1551.2910689245709364
 31
0.0
  0
TEXT
  5
455
  8
BEM
 10
408.3290343265222759
 20
1115.8494606734689114
 30
0.0
 40
2.5
  1

 50
90.0
  7
GREEKS
  0
TEXT
  5
456
  8
VOLL
 10
428.5122949835574104
 20
1101.7832676537470888
 30
0.0
 40
1.8
  1

 50
90.0
  7
GREEKS
  0
TEXT
  5
457
  8
BEM
 10
423.7865706603367926
 20
1136.271332493032105
 30
0.0
 40
2.5
  1

 50
90.0
 41
0.8
  7
GREEKS
  0
TEXT
  5
458
  8
BEM
 10
428.4803392143888914
 20
1136.271332493032105
 30
0.0
 40
2.5
  1

 50
90.0
 41
0.8
  7
GREEKS
  0
TEXT
  5
459
  8
BEM
 10
433.7181830330524122
 20
1136.271332493032105
 30
0.0
 40
2.5
  1

 50
90.0
 41
0.8
  7
GREEKS
  0
TEXT
  5
45A
  8
BEM
 10
438.2233719831501162
 20
1136.1983880156569739
 30
0.0
 40
1.8
  1

 50
90.0
 41
0.8
  7
GREEKS
  0
TEXT
  5
45B
  8
BEM
 10
412.6317828869247819
 20
1123.5148171360460765
 30
0.0
 40
2.0
  1

 50
90.0
 41
0.8
  7
GREEKS
 72
     1
 11
412.6317828869247819
 21
1123.5148171360460765
 31
0.0
  0
TEXT
  5
45C
  8
TEXT
 10
422.9540594503317834
 20
1433.6155358573400918
 30
0.0
 40
2.5
  1
  
 50
90.0
  7
GREEKS
 72
     1
 11
422.9540594503317834
 21
1435.8774406192449078
 31
0.0
  0
TEXT
  5
45D
  8
BEM
 10
287.3951774199296096
 20
1677.7352531698220446
 30
0.0
 40
2.5
  1
 
 50
90.0
 72
     4
 11
287.3951774199296096
 21
1678.866205550775021
 31
0.0
  0
TEXT
  5
45E
  8
VOLL
 10
421.0607809215683233
 20
1026.5000320490319154
 30
0.0
 40
1.8
  1

 50
90.0
  7
GREEKS
  0
TEXT
  5
45F
  8
TEXT
 10
415.5025453883426962
 20
1358.3323002526249184
 30
0.0
 40
2.5
  1
  
 50
90.0
  7
GREEKS
 72
     1
 11
415.5025453883426962
 21
1360.5942050145299618
 31
0.0
  0
TEXT
  5
460
  8
BEM
 10
279.9436633579405225
 20
1602.4520175651070986
 30
0.0
 40
2.5
  1
 
 50
90.0
 72
     4
 11
279.9436633579405225
 21
1603.5829699460589381
 31
0.0
  0
TEXT
  5
461
  8
BEM
 10
400.7273700318917236
 20
1181.6396342058280879
 30
0.0
 40
2.5
  1

 50
90.0
  7
GREEKS
  0
TEXT
  5
462
  8
VOLL
 10
420.9106306889268012
 20
1167.5734411861069475
 30
0.0
 40
1.8
  1

 50
90.0
  7
GREEKS
  0
TEXT
  5
463
  8
BEM
 10
416.1849063657061834
 20
1202.0615060253910542
 30
0.0
 40
2.5
  1

 50
90.0
 41
0.8
  7
GREEKS
  0
TEXT
  5
464
  8
BEM
 10
420.8786749197582822
 20
1202.0615060253910542
 30
0.0
 40
2.5
  1

 50
90.0
 41
0.8
  7
GREEKS
  0
TEXT
  5
465
  8
BEM
 10
426.1165187384219166
 20
1202.0615060253910542
 30
0.0
 40
2.5
  1

 50
90.0
 41
0.8
  7
GREEKS
  0
TEXT
  5
466
  8
BEM
 10
430.621707688519507
 20
1201.98856154801706
 30
0.0
 40
1.8
  1

 50
90.0
 41
0.8
  7
GREEKS
  0
TEXT
  5
467
  8
BEM
 10
405.0301185922941727
 20
1189.3049906684059351
 30
0.0
 40
2.0
  1

 50
90.0
 41
0.8
  7
GREEKS
 72
     1
 11
405.0301185922941727
 21
1189.3049906684059351
 31
0.0
  0
TEXT
  5
468
  8
TEXT
 10
415.3523951557011742
 20
1499.4057093896999504
 30
0.0
 40
2.5
  1
  
 50
90.0
  7
GREEKS
 72
     1
 11
415.3523951557011742
 21
1501.6676141516049938
 31
0.0
  0
TEXT
  5
469
  8
BEM
 10
279.7935131252990004
 20
1743.5254267021819032
 30
0.0
 40
2.5
  1
 
 50
90.0
 72
     4
 11
279.7935131252990004
 21
1744.6563790831339702
 31
0.0
  0
TEXT
  5
46A
  8
VOLL
 10
432.8764904473167121
 20
962.4778206222759991
 30
0.0
 40
1.8
  1

 50
90.0
  7
GREEKS
  0
TEXT
  5
46B
  8
TEXT
 10
427.3182549140911988
 20
1294.3100888258688883
 30
0.0
 40
2.5
  1
  
 50
90.0
  7
GREEKS
 72
     1
 11
427.3182549140911988
 21
1296.5719935877739317
 31
0.0
  0
TEXT
  5
46C
  8
BEM
 10
291.7593728836890818
 20
1538.4298061383510685
 30
0.0
 40
2.5
  1
 
 50
90.0
 72
     4
 11
291.7593728836890818
 21
1539.5607585193029081
 31
0.0
  0
TEXT
  5
46D
  8
BEM
 10
392.7232597487310954
 20
1127.8234337019259783
 30
0.0
 40
2.5
  1

 50
90.0
  7
GREEKS
  0
TEXT
  5
46E
  8
VOLL
 10
412.9065204057661731
 20
1113.7572406822039284
 30
0.0
 40
1.8
  1

 50
90.0
  7
GREEKS
  0
TEXT
  5
46F
  8
BEM
 10
408.1807960825456121
 20
1148.2453055214889446
 30
0.0
 40
2.5
  1

 50
90.0
 41
0.8
  7
GREEKS
  0
TEXT
  5
470
  8
BEM
 10
412.8745646365977109
 20
1148.2453055214889446
 30
0.0
 40
2.5
  1

 50
90.0
 41
0.8
  7
GREEKS
  0
TEXT
  5
471
  8
BEM
 10
418.1124084552611748
 20
1148.2453055214889446
 30
0.0
 40
2.5
  1

 50
90.0
 41
0.8
  7
GREEKS
  0
TEXT
  5
472
  8
BEM
 10
422.6175974053588789
 20
1148.1723610441149503
 30
0.0
 40
1.8
  1

 50
90.0
 41
0.8
  7
GREEKS
  0
TEXT
  5
473
  8
BEM
 10
397.0260083091336014
 20
1135.488790164502916
 30
0.0
 40
2.0
  1

 50
90.0
 41
0.8
  7
GREEKS
 72
     1
 11
397.0260083091336014
 21
1135.488790164502916
 31
0.0
  0
TEXT
  5
474
  8
TEXT
 10
407.3482848725406029
 20
1445.5895088857969313
 30
0.0
 40
2.5
  1
  
 50
90.0
  7
GREEKS
 72
     1
 11
407.3482848725406029
 21
1447.8514136477019747
 31
0.0
  0
TEXT
  5
475
  8
BEM
 10
271.789402842138486
 20
1689.709226198280021
 30
0.0
 40
2.5
  1
 
 50
90.0
 72
     4
 11
271.789402842138486
 21
1690.8401785792320879
 31
0.0
  0
TEXT
  5
476
  8
VOLL
 10
449.0719553670888899
 20
745.8348858863090527
 30
0.0
 40
1.8
  1

 50
90.0
  7
GREEKS
  0
TEXT
  5
477
  8
TEXT
 10
443.5137198338633198
 20
1077.6671540899019419
 30
0.0
 40
2.5
  1
  
 50
90.0
  7
GREEKS
 72
     1
 11
443.5137198338633198
 21
1079.9290588518069853
 31
0.0
  0
TEXT
  5
478
  8
BEM
 10
307.9548378034610892
 20
1321.7868714023838947
 30
0.0
 40
2.5
  1
 
 50
90.0
 72
     4
 11
307.9548378034610892
 21
1322.9178237833359617
 31
0.0
  0
TEXT
  5
479
  8
VOLL
 10
443.5163997320175895
 20
903.3696029634709248
 30
0.0
 40
1.8
  1

 50
90.0
  7
GREEKS
  0
TEXT
  5
47A
  8
BEM
 10
438.7906754087969716
 20
937.8576678027553726
 30
0.0
 40
2.5
  1

 50
90.0
 41
0.8
  7
GREEKS
  0
TEXT
  5
47B
  8
BEM
 10
443.4844439628491841
 20
937.8576678027553726
 30
0.0
 40
2.5
  1

 50
90.0
 41
0.8
  7
GREEKS
  0
TEXT
  5
47C
  8
BEM
 10
448.7222877815127049
 20
937.8576678027553726
 30
0.0
 40
2.5
  1

 50
90.0
 41
0.8
  7
GREEKS
  0
TEXT
  5
47D
  8
BEM
 10
453.2274767316102952
 20
937.7847233253810373
 30
0.0
 40
1.8
  1

 50
90.0
 41
0.8
  7
GREEKS
  0
TEXT
  5
47E
  8
TEXT
 10
437.9581641987920761
 20
1235.2018711670639277
 30
0.0
 40
2.5
  1
  
 50
90.0
  7
GREEKS
 72
     1
 11
437.9581641987920761
 21
1237.4637759289680616
 31
0.0
  0
TEXT
  5
47F
  8
BEM
 10
302.3992821683899024
 20
1479.3215884795461079
 30
0.0
 40
2.5
  1
 
 50
90.0
 72
     4
 11
302.3992821683899024
 21
1480.4525408604979475
 31
0.0
  0
TEXT
  5
480
  8
BEM
 10
748.1695334004040205
 20
983.1015296374182526
 30
0.0
 40
2.5
  1

 50
90.0
 41
0.8
  7
GREEKS
 72
     4
 11
748.1695334004040205
 21
983.1015296374182526
 31
0.0
  0
TEXT
  5
481
  8
VOLL
 10
612.6094266078199553
 20
693.3381519509439386
 30
0.0
 40
1.8
  1

 50
90.0
  7
GREEKS
  0
TEXT
  5
482
  8
VOLL
 10
607.3173098921006385
 20
783.0043258766170311
 30
0.0
 40
1.8
  1

 50
90.0
  7
GREEKS
  0
TEXT
  5
483
  8
TEXT
 10
601.7590743588749547
 20
1114.836594080210034
 30
0.0
 40
2.5
  1
  
 50
90.0
  7
GREEKS
 72
     1
 11
601.7590743588749547
 21
1117.0984988421150774
 31
0.0
  0
TEXT
  5
484
  8
BEM
 10
466.2001923284727809
 20
1358.9563113926919868
 30
0.0
 40
2.5
  1
 
 50
90.0
 72
     4
 11
466.2001923284727809
 21
1360.0872637736440538
 31
0.0
  0
TEXT
  5
485
  8
BEM
 10
583.6805957009390795
 20
924.6456555225415741
 30
0.0
 40
2.5
  1

 50
90.0
  7
GREEKS
  0
TEXT
  5
486
  8
VOLL
 10
603.8638563579743277
 20
910.5794625028202063
 30
0.0
 40
1.8
  1

 50
90.0
  7
GREEKS
  0
TEXT
  5
487
  8
BEM
 10
599.138132034753653
 20
945.0675273421046541
 30
0.0
 40
2.5
  1

 50
90.0
 41
0.8
  7
GREEKS
  0
TEXT
  5
488
  8
BEM
 10
603.8319005888057518
 20
945.0675273421046541
 30
0.0
 40
2.5
  1

 50
90.0
 41
0.8
  7
GREEKS
  0
TEXT
  5
489
  8
BEM
 10
609.0697444074694431
 20
945.0675273421046541
 30
0.0
 40
2.5
  1

 50
90.0
 41
0.8
  7
GREEKS
  0
TEXT
  5
48A
  8
BEM
 10
613.5749333575670335
 20
944.9945828647303188
 30
0.0
 40
1.8
  1

 50
90.0
 41
0.8
  7
GREEKS
  0
TEXT
  5
48B
  8
BEM
 10
587.9833442613415855
 20
932.3110119851190802
 30
0.0
 40
2.0
  1

 50
90.0
 41
0.8
  7
GREEKS
 72
     1
 11
587.9833442613415855
 21
932.3110119851190802
 31
0.0
  0
TEXT
  5
48C
  8
TEXT
 10
598.3056208247487575
 20
1242.4117307064129818
 30
0.0
 40
2.5
  1
  
 50
90.0
  7
GREEKS
 72
     1
 11
598.3056208247487575
 21
1244.6736354683180252
 31
0.0
  0
TEXT
  5
48D
  8
BEM
 10
462.7467387943465837
 20
1486.5314480188949346
 30
0.0
 40
2.5
  1
 
 50
90.0
 72
     4
 11
462.7467387943465837
 21
1487.6624003998470016
 31
0.0
  0
TEXT
  5
48E
  8
VOLL
 10
596.4123422959852405
 20
835.2962268981051466
 30
0.0
 40
1.8
  1

 50
90.0
  7
GREEKS
  0
TEXT
  5
48F
  8
TEXT
 10
590.8541067627595567
 20
1167.1284951016980358
 30
0.0
 40
2.5
  1
  
 50
90.0
  7
GREEKS
 72
     1
 11
590.8541067627595567
 21
1169.3903998636030792
 31
0.0
  0
TEXT
  5
490
  8
BEM
 10
455.2952247323573829
 20
1411.2482124141799886
 30
0.0
 40
2.5
  1
 
 50
90.0
 72
     4
 11
455.2952247323573829
 21
1412.3791647951329651
 31
0.0
  0
TEXT
  5
491
  8
BEM
 10
576.0789314063084703
 20
990.4358290549012054
 30
0.0
 40
2.5
  1

 50
90.0
  7
GREEKS
  0
TEXT
  5
492
  8
VOLL
 10
596.2621920633437185
 20
976.3696360351799513
 30
0.0
 40
1.8
  1

 50
90.0
  7
GREEKS
  0
TEXT
  5
493
  8
BEM
 10
591.5364677401230438
 20
1010.8577008744639443
 30
0.0
 40
2.5
  1

 50
90.0
 41
0.8
  7
GREEKS
  0
TEXT
  5
494
  8
BEM
 10
596.2302362941752563
 20
1010.8577008744639443
 30
0.0
 40
2.5
  1

 50
90.0
 41
0.8
  7
GREEKS
  0
TEXT
  5
495
  8
BEM
 10
601.4680801128388339
 20
1010.8577008744639443
 30
0.0
 40
2.5
  1

 50
90.0
 41
0.8
  7
GREEKS
  0
TEXT
  5
496
  8
BEM
 10
605.9732690629364242
 20
1010.78475639708995
 30
0.0
 40
1.8
  1

 50
90.0
 41
0.8
  7
GREEKS
  0
TEXT
  5
497
  8
BEM
 10
580.3816799667109763
 20
998.1011855174788252
 30
0.0
 40
2.0
  1

 50
90.0
 41
0.8
  7
GREEKS
 72
     1
 11
580.3816799667109763
 21
998.1011855174788252
 31
0.0
  0
TEXT
  5
498
  8
TEXT
 10
590.7039565301181483
 20
1308.2019042387730678
 30
0.0
 40
2.5
  1
  
 50
90.0
  7
GREEKS
 72
     1
 11
590.7039565301181483
 21
1310.4638090006769744
 31
0.0
  0
TEXT
  5
499
  8
BEM
 10
455.1450744997159177
 20
1552.3216215512550207
 30
0.0
 40
2.5
  1
 
 50
90.0
 72
     4
 11
455.1450744997159177
 21
1553.4525739322070876
 31
0.0
  0
TEXT
  5
49A
  8
VOLL
 10
608.2280518217337431
 20
771.2740154713490028
 30
0.0
 40
1.8
  1

 50
90.0
  7
GREEKS
  0
TEXT
  5
49B
  8
TEXT
 10
602.6698162885080592
 20
1103.1062836749420057
 30
0.0
 40
2.5
  1
  
 50
90.0
  7
GREEKS
 72
     1
 11
602.6698162885080592
 21
1105.3681884368459123
 31
0.0
  0
TEXT
  5
49C
  8
BEM
 10
467.1109342581058854
 20
1347.2260009874239586
 30
0.0
 40
2.5
  1
 
 50
90.0
 72
     4
 11
467.1109342581058854
 21
1348.3569533683760255
 31
0.0
  0
TEXT
  5
49D
  8
BEM
 10
568.0748211231480127
 20
936.6196285509988684
 30
0.0
 40
2.5
  1

 50
90.0
  7
GREEKS
  0
TEXT
  5
49E
  8
VOLL
 10
588.2580817801831472
 20
922.5534355312773869
 30
0.0
 40
1.8
  1

 50
90.0
  7
GREEKS
  0
TEXT
  5
49F
  8
BEM
 10
583.5323574569625862
 20
957.041500370562062
 30
0.0
 40
2.5
  1

 50
90.0
 41
0.8
  7
GREEKS
  0
TEXT
  5
4A0
  8
BEM
 10
588.226126011014685
 20
957.041500370562062
 30
0.0
 40
2.5
  1

 50
90.0
 41
0.8
  7
GREEKS
  0
TEXT
  5
4A1
  8
BEM
 10
593.4639698296781489
 20
957.041500370562062
 30
0.0
 40
2.5
  1

 50
90.0
 41
0.8
  7
GREEKS
  0
TEXT
  5
4A2
  8
BEM
 10
597.969158779775853
 20
956.968555893187613
 30
0.0
 40
1.8
  1

 50
90.0
 41
0.8
  7
GREEKS
  0
TEXT
  5
4A3
  8
BEM
 10
572.3775696835505187
 20
944.2849850135764882
 30
0.0
 40
2.0
  1

 50
90.0
 41
0.8
  7
GREEKS
 72
     1
 11
572.3775696835505187
 21
944.2849850135764882
 31
0.0
  0
TEXT
  5
4A4
  8
TEXT
 10
582.699846246957577
 20
1254.3857037348700487
 30
0.0
 40
2.5
  1
  
 50
90.0
  7
GREEKS
 72
     1
 11
582.699846246957577
 21
1256.6476084967750921
 31
0.0
  0
TEXT
  5
4A5
  8
BEM
 10
447.1409642165552896
 20
1498.505421047352911
 30
0.0
 40
2.5
  1
 
 50
90.0
 72
     4
 11
447.1409642165552896
 21
1499.636373428304978
 31
0.0
  0
TEXT
  5
4A6
  8
VOLL
 10
603.1096084442310712
 20
1098.855591724460055
 30
0.0
 40
1.8
  1

 50
90.0
  7
GREEKS
  0
TEXT
  5
4A7
  8
VOLL
 10
597.8174917285118681
 20
1188.5217656501329202
 30
0.0
 40
1.8
  1

 50
90.0
  7
GREEKS
  0
TEXT
  5
4A8
  8
TEXT
 10
592.2592561952861843
 20
1520.3540338537259231
 30
0.0
 40
2.5
  1
  
 50
90.0
  7
GREEKS
 72
     1
 11
592.2592561952861843
 21
1522.6159386156309665
 31
0.0
  0
TEXT
  5
4A9
  8
BEM
 10
456.7003741648841242
 20
1764.4737511662081033
 30
0.0
 40
2.5
  1
 
 50
90.0
 72
     4
 11
456.7003741648841242
 21
1765.6047035471599429
 31
0.0
  0
TEXT
  5
4AA
  8
BEM
 10
574.1807775373504228
 20
1330.1630952960579179
 30
0.0
 40
2.5
  1

 50
90.0
  7
GREEKS
  0
TEXT
  5
4AB
  8
VOLL
 10
594.3640381943854436
 20
1316.0969022763360954
 30
0.0
 40
1.8
  1

 50
90.0
  7
GREEKS
  0
TEXT
  5
4AC
  8
BEM
 10
589.6383138711649963
 20
1350.5849671156211116
 30
0.0
 40
2.5
  1

 50
90.0
 41
0.8
  7
GREEKS
  0
TEXT
  5
4AD
  8
BEM
 10
594.3320824252170951
 20
1350.5849671156211116
 30
0.0
 40
2.5
  1

 50
90.0
 41
0.8
  7
GREEKS
  0
TEXT
  5
4AE
  8
BEM
 10
599.569926243880559
 20
1350.5849671156211116
 30
0.0
 40
2.5
  1

 50
90.0
 41
0.8
  7
GREEKS
  0
TEXT
  5
4AF
  8
BEM
 10
604.0751151939781494
 20
1350.51202263824689
 30
0.0
 40
1.8
  1

 50
90.0
 41
0.8
  7
GREEKS
  0
TEXT
  5
4B0
  8
BEM
 10
578.4835260977529288
 20
1337.828451758635083
 30
0.0
 40
2.0
  1

 50
90.0
 41
0.8
  7
GREEKS
 72
     1
 11
578.4835260977529288
 21
1337.828451758635083
 31
0.0
  0
TEXT
  5
4B1
  8
TEXT
 10
588.8058026611599871
 20
1647.9291704799290983
 30
0.0
 40
2.5
  1
  
 50
90.0
  7
GREEKS
 72
     1
 11
588.8058026611599871
 21
1650.1910752418339143
 31
0.0
  0
TEXT
  5
4B2
  8
BEM
 10
453.2469206307576997
 20
1892.0488877924119606
 30
0.0
 40
2.5
  1
 
 50
90.0
 72
     4
 11
453.2469206307576997
 21
1893.1798401733640276
 31
0.0
  0
TEXT
  5
4B3
  8
VOLL
 10
626.0586813367317518
 20
1106.7689064162429986
 30
0.0
 40
1.8
  1

 50
90.0
  7
GREEKS
  0
TEXT
  5
4B4
  8
VOLL
 10
620.7665646210124351
 20
1196.4350803419170006
 30
0.0
 40
1.8
  1

 50
90.0
  7
GREEKS
  0
TEXT
  5
4B5
  8
TEXT
 10
615.2083290877867512
 20
1528.267348545509094
 30
0.0
 40
2.5
  1
  
 50
90.0
  7
GREEKS
 72
     1
 11
615.2083290877867512
 21
1530.5292533074139101
 31
0.0
  0
TEXT
  5
4B6
  8
BEM
 10
479.6494470573845774
 20
1772.3870658579919564
 30
0.0
 40
2.5
  1
 
 50
90.0
 72
     4
 11
479.6494470573845774
 21
1773.5180182389440233
 31
0.0
  0
TEXT
  5
4B7
  8
BEM
 10
597.129850429850876
 20
1338.0764099878410889
 30
0.0
 40
2.5
  1

 50
90.0
  7
GREEKS
  0
TEXT
  5
4B8
  8
VOLL
 10
617.3131110868861242
 20
1324.0102169681199484
 30
0.0
 40
1.8
  1

 50
90.0
  7
GREEKS
  0
TEXT
  5
4B9
  8
BEM
 10
612.5873867636655632
 20
1358.4982818074040551
 30
0.0
 40
2.5
  1

 50
90.0
 41
0.8
  7
GREEKS
  0
TEXT
  5
4BA
  8
BEM
 10
617.2811553177175483
 20
1358.4982818074040551
 30
0.0
 40
2.5
  1

 50
90.0
 41
0.8
  7
GREEKS
  0
TEXT
  5
4BB
  8
BEM
 10
622.5189991363811259
 20
1358.4982818074040551
 30
0.0
 40
2.5
  1

 50
90.0
 41
0.8
  7
GREEKS
  0
TEXT
  5
4BC
  8
BEM
 10
627.0241880864787163
 20
1358.4253373300300609
 30
0.0
 40
1.8
  1

 50
90.0
 41
0.8
  7
GREEKS
  0
TEXT
  5
4BD
  8
BEM
 10
601.4325989902534957
 20
1345.7417664504189361
 30
0.0
 40
2.0
  1

 50
90.0
 41
0.8
  7
GREEKS
 72
     1
 11
601.4325989902534957
 21
1345.7417664504189361
 31
0.0
  0
TEXT
  5
4BE
  8
TEXT
 10
611.754875553660554
 20
1655.8424851717120418
 30
0.0
 40
2.5
  1
  
 50
90.0
  7
GREEKS
 72
     1
 11
611.754875553660554
 21
1658.1043899336170853
 31
0.0
  0
TEXT
  5
4BF
  8
BEM
 10
476.1959935232582097
 20
1899.9622024841949042
 30
0.0
 40
2.5
  1
 
 50
90.0
 72
     4
 11
476.1959935232582097
 21
1901.0931548651469711
 31
0.0
  0
TEXT
  5
4C0
  8
VOLL
 10
609.861597024897037
 20
1248.7269813634050024
 30
0.0
 40
1.8
  1

 50
90.0
  7
GREEKS
  0
TEXT
  5
4C1
  8
TEXT
 10
604.3033614916714669
 20
1580.5592495669980053
 30
0.0
 40
2.5
  1
  
 50
90.0
  7
GREEKS
 72
     1
 11
604.3033614916714669
 21
1582.8211543289019119
 31
0.0
  0
TEXT
  5
4C2
  8
BEM
 10
468.7444794612691794
 20
1824.6789668794799582
 30
0.0
 40
2.5
  1
 
 50
90.0
 72
     4
 11
468.7444794612691794
 21
1825.8099192604320251
 31
0.0
  0
TEXT
  5
4C3
  8
BEM
 10
589.5281861352204942
 20
1403.8665835202009475
 30
0.0
 40
2.5
  1

 50
90.0
  7
GREEKS
  0
TEXT
  5
4C4
  8
VOLL
 10
609.711446792255515
 20
1389.8003905004788976
 30
0.0
 40
1.8
  1

 50
90.0
  7
GREEKS
  0
TEXT
  5
4C5
  8
BEM
 10
604.985722469034954
 20
1424.2884553397639138
 30
0.0
 40
2.5
  1

 50
90.0
 41
0.8
  7
GREEKS
  0
TEXT
  5
4C6
  8
BEM
 10
609.6794910230871665
 20
1424.2884553397639138
 30
0.0
 40
2.5
  1

 50
90.0
 41
0.8
  7
GREEKS
  0
TEXT
  5
4C7
  8
BEM
 10
614.9173348417505167
 20
1424.2884553397639138
 30
0.0
 40
2.5
  1

 50
90.0
 41
0.8
  7
GREEKS
  0
TEXT
  5
4C8
  8
BEM
 10
619.4225237918482208
 20
1424.2155108623899196
 30
0.0
 40
1.8
  1

 50
90.0
 41
0.8
  7
GREEKS
  0
TEXT
  5
4C9
  8
BEM
 10
593.8309346956230002
 20
1411.5319399827781126
 30
0.0
 40
2.0
  1

 50
90.0
 41
0.8
  7
GREEKS
 72
     1
 11
593.8309346956230002
 21
1411.5319399827781126
 31
0.0
  0
TEXT
  5
4CA
  8
TEXT
 10
604.1532112590299448
 20
1721.6326587040719005
 30
0.0
 40
2.5
  1
  
 50
90.0
  7
GREEKS
 72
     1
 11
604.1532112590299448
 21
1723.8945634659769439
 31
0.0
  0
TEXT
  5
4CB
  8
BEM
 10
468.5943292286277142
 20
1965.7523760165540807
 30
0.0
 40
2.5
  1
 
 50
90.0
 72
     4
 11
468.5943292286277142
 21
1966.8833283975070572
 31
0.0
  0
TEXT
  5
4CC
  8
VOLL
 10
415.1993675450909791
 20
879.3441216765205581
 30
0.0
 40
1.8
  1

 50
90.0
  7
GREEKS
  0
TEXT
  5
4CD
  8
VOLL
 10
409.9072508293716055
 20
969.0102956021937644
 30
0.0
 40
1.8
  1

 50
90.0
  7
GREEKS
  0
TEXT
  5
4CE
  8
TEXT
 10
404.3490152961460922
 20
1300.8425638057869946
 30
0.0
 40
2.5
  1
  
 50
90.0
  7
GREEKS
 72
     1
 11
404.3490152961460922
 21
1303.1044685676909012
 31
0.0
  0
TEXT
  5
4CF
  8
BEM
 10
268.7901332657439752
 20
1544.9622811182689475
 30
0.0
 40
2.5
  1
 
 50
90.0
 72
     4
 11
268.7901332657439752
 21
1546.0932334992210144
 31
0.0
  0
TEXT
  5
4D0
  8
BEM
 10
386.2705366382102738
 20
1110.65162524811808
 30
0.0
 40
2.5
  1

 50
90.0
  7
GREEKS
  0
TEXT
  5
4D1
  8
VOLL
 10
406.4537972952454083
 20
1096.5854322283969395
 30
0.0
 40
1.8
  1

 50
90.0
  7
GREEKS
  0
TEXT
  5
4D2
  8
BEM
 10
401.7280729720247905
 20
1131.0734970676810462
 30
0.0
 40
2.5
  1

 50
90.0
 41
0.8
  7
GREEKS
  0
TEXT
  5
4D3
  8
BEM
 10
406.4218415260768893
 20
1131.0734970676810462
 30
0.0
 40
2.5
  1

 50
90.0
 41
0.8
  7
GREEKS
  0
TEXT
  5
4D4
  8
BEM
 10
411.6596853447404101
 20
1131.0734970676810462
 30
0.0
 40
2.5
  1

 50
90.0
 41
0.8
  7
GREEKS
  0
TEXT
  5
4D5
  8
BEM
 10
416.1648742948381141
 20
1131.000552590307052
 30
0.0
 40
1.8
  1

 50
90.0
 41
0.8
  7
GREEKS
  0
TEXT
  5
4D6
  8
BEM
 10
390.5732851986127798
 20
1118.3169817106959272
 30
0.0
 40
2.0
  1

 50
90.0
 41
0.8
  7
GREEKS
 72
     1
 11
390.5732851986127798
 21
1118.3169817106959272
 31
0.0
  0
TEXT
  5
4D7
  8
TEXT
 10
400.8955617620197813
 20
1428.4177004319899424
 30
0.0
 40
2.5
  1
  
 50
90.0
  7
GREEKS
 72
     1
 11
400.8955617620197813
 21
1430.6796051938940764
 31
0.0
  0
TEXT
  5
4D8
  8
BEM
 10
265.3366797316177212
 20
1672.5374177444718953
 30
0.0
 40
2.5
  1
 
 50
90.0
 72
     4
 11
265.3366797316177212
 21
1673.6683701254239622
 31
0.0
  0
TEXT
  5
4D9
  8
VOLL
 10
399.0022832332563212
 20
1021.3021966236819935
 30
0.0
 40
1.8
  1

 50
90.0
  7
GREEKS
  0
TEXT
  5
4DA
  8
TEXT
 10
393.4440477000308078
 20
1353.1344648272749964
 30
0.0
 40
2.5
  1
  
 50
90.0
  7
GREEKS
 72
     1
 11
393.4440477000308078
 21
1355.3963695891800398
 31
0.0
  0
TEXT
  5
4DB
  8
BEM
 10
257.8851656696285204
 20
1597.2541821397569493
 30
0.0
 40
2.5
  1
 
 50
90.0
 72
     4
 11
257.8851656696285204
 21
1598.3851345207090162
 31
0.0
  0
TEXT
  5
4DC
  8
BEM
 10
378.6688723435797215
 20
1176.4417987804779386
 30
0.0
 40
2.5
  1

 50
90.0
  7
GREEKS
  0
TEXT
  5
4DD
  8
VOLL
 10
398.8521330006149128
 20
1162.3756057607558887
 30
0.0
 40
1.8
  1

 50
90.0
  7
GREEKS
  0
TEXT
  5
4DE
  8
BEM
 10
394.126408677394295
 20
1196.8636706000409049
 30
0.0
 40
2.5
  1

 50
90.0
 41
0.8
  7
GREEKS
  0
TEXT
  5
4DF
  8
BEM
 10
398.8201772314463938
 20
1196.8636706000409049
 30
0.0
 40
2.5
  1

 50
90.0
 41
0.8
  7
GREEKS
  0
TEXT
  5
4E0
  8
BEM
 10
404.0580210501099145
 20
1196.8636706000409049
 30
0.0
 40
2.5
  1

 50
90.0
 41
0.8
  7
GREEKS
  0
TEXT
  5
4E1
  8
BEM
 10
408.5632100002075049
 20
1196.7907261226660012
 30
0.0
 40
1.8
  1

 50
90.0
 41
0.8
  7
GREEKS
  0
TEXT
  5
4E2
  8
BEM
 10
382.9716209039822274
 20
1184.1071552430551037
 30
0.0
 40
2.0
  1

 50
90.0
 41
0.8
  7
GREEKS
 72
     1
 11
382.9716209039822274
 21
1184.1071552430551037
 31
0.0
  0
TEXT
  5
4E3
  8
TEXT
 10
393.2938974673892858
 20
1494.2078739643488916
 30
0.0
 40
2.5
  1
  
 50
90.0
  7
GREEKS
 72
     1
 11
393.2938974673892858
 21
1496.469778726253935
 31
0.0
  0
TEXT
  5
4E4
  8
BEM
 10
257.735015436987112
 20
1738.3275912768319813
 30
0.0
 40
2.5
  1
 
 50
90.0
 72
     4
 11
257.735015436987112
 21
1739.4585436577840483
 31
0.0
  0
TEXT
  5
4E5
  8
VOLL
 10
410.8179927590048237
 20
957.2799851969257361
 30
0.0
 40
1.8
  1

 50
90.0
  7
GREEKS
  0
TEXT
  5
4E6
  8
TEXT
 10
405.2597572257791967
 20
1289.1122534005180569
 30
0.0
 40
2.5
  1
  
 50
90.0
  7
GREEKS
 72
     1
 11
405.2597572257791967
 21
1291.3741581624231003
 31
0.0
  0
TEXT
  5
4E7
  8
BEM
 10
269.7008751953770229
 20
1533.2319707130009192
 30
0.0
 40
2.5
  1
 
 50
90.0
 72
     4
 11
269.7008751953770229
 21
1534.3629230939529862
 31
0.0
  0
TEXT
  5
4E8
  8
BEM
 10
370.6647620604190934
 20
1122.6255982765760564
 30
0.0
 40
2.5
  1

 50
90.0
  7
GREEKS
  0
TEXT
  5
4E9
  8
VOLL
 10
390.8480227174542279
 20
1108.5594052568540064
 30
0.0
 40
1.8
  1

 50
90.0
  7
GREEKS
  0
TEXT
  5
4EA
  8
BEM
 10
386.1222983942337237
 20
1143.0474700961390226
 30
0.0
 40
2.5
  1

 50
90.0
 41
0.8
  7
GREEKS
  0
TEXT
  5
4EB
  8
BEM
 10
390.8160669482858225
 20
1143.0474700961390226
 30
0.0
 40
2.5
  1

 50
90.0
 41
0.8
  7
GREEKS
  0
TEXT
  5
4EC
  8
BEM
 10
396.0539107669492864
 20
1143.0474700961390226
 30
0.0
 40
2.5
  1

 50
90.0
 41
0.8
  7
GREEKS
  0
TEXT
  5
4ED
  8
BEM
 10
400.5590997170468768
 20
1142.9745256187638915
 30
0.0
 40
1.8
  1

 50
90.0
 41
0.8
  7
GREEKS
  0
TEXT
  5
4EE
  8
BEM
 10
374.9675106208215993
 20
1130.2909547391529941
 30
0.0
 40
2.0
  1

 50
90.0
 41
0.8
  7
GREEKS
 72
     1
 11
374.9675106208215993
 21
1130.2909547391529941
 31
0.0
  0
TEXT
  5
4EF
  8
TEXT
 10
385.2897871842287145
 20
1440.3916734604470093
 30
0.0
 40
2.5
  1
  
 50
90.0
  7
GREEKS
 72
     1
 11
385.2897871842287145
 21
1442.6535782223520528
 31
0.0
  0
TEXT
  5
4F0
  8
BEM
 10
249.7309051538265123
 20
1684.5113907729289622
 30
0.0
 40
2.5
  1
 
 50
90.0
 72
     4
 11
249.7309051538265123
 21
1685.6423431538810291
 31
0.0
  0
TEXT
  5
4F1
  8
VOLL
 10
436.855464553654997
 20
885.7454746090612616
 30
0.0
 40
1.8
  1

 50
90.0
  7
GREEKS
  0
TEXT
  5
4F2
  8
VOLL
 10
431.5633478379356234
 20
975.4116485347343541
 30
0.0
 40
1.8
  1

 50
90.0
  7
GREEKS
  0
TEXT
  5
4F3
  8
TEXT
 10
426.00511230471011
 20
1307.243916738327016
 30
0.0
 40
2.5
  1
  
 50
90.0
  7
GREEKS
 72
     1
 11
426.00511230471011
 21
1309.5058215002320594
 31
0.0
  0
TEXT
  5
4F4
  8
BEM
 10
290.4462302743079931
 20
1551.3636340508089688
 30
0.0
 40
2.5
  1
 
 50
90.0
 72
     4
 11
290.4462302743079931
 21
1552.4945864317619453
 31
0.0
  0
TEXT
  5
4F5
  8
BEM
 10
407.9266336467742917
 20
1117.0529781806590108
 30
0.0
 40
2.5
  1

 50
90.0
  7
GREEKS
  0
TEXT
  5
4F6
  8
VOLL
 10
428.1098943038093125
 20
1102.9867851609369609
 30
0.0
 40
1.8
  1

 50
90.0
  7
GREEKS
  0
TEXT
  5
4F7
  8
BEM
 10
423.3841699805886947
 20
1137.4748500002219771
 30
0.0
 40
2.5
  1

 50
90.0
 41
0.8
  7
GREEKS
  0
TEXT
  5
4F8
  8
BEM
 10
428.0779385346407935
 20
1137.4748500002219771
 30
0.0
 40
2.5
  1

 50
90.0
 41
0.8
  7
GREEKS
  0
TEXT
  5
4F9
  8
BEM
 10
433.3157823533044279
 20
1137.4748500002219771
 30
0.0
 40
2.5
  1

 50
90.0
 41
0.8
  7
GREEKS
  0
TEXT
  5
4FA
  8
BEM
 10
437.8209713034020751
 20
1137.4019055228479829
 30
0.0
 40
1.8
  1

 50
90.0
 41
0.8
  7
GREEKS
  0
TEXT
  5
4FB
  8
BEM
 10
412.229382207176684
 20
1124.7183346432359485
 30
0.0
 40
2.0
  1

 50
90.0
 41
0.8
  7
GREEKS
 72
     1
 11
412.229382207176684
 21
1124.7183346432359485
 31
0.0
  0
TEXT
  5
4FC
  8
TEXT
 10
422.5516587705837992
 20
1434.8190533645299638
 30
0.0
 40
2.5
  1
  
 50
90.0
  7
GREEKS
 72
     1
 11
422.5516587705837992
 21
1437.0809581264350072
 31
0.0
  0
TEXT
  5
4FD
  8
BEM
 10
286.9927767401816254
 20
1678.9387706770119166
 30
0.0
 40
2.5
  1
 
 50
90.0
 72
     4
 11
286.9927767401816254
 21
1680.0697230579648931
 31
0.0
  0
TEXT
  5
4FE
  8
VOLL
 10
420.6583802418202822
 20
1027.7035495562229244
 30
0.0
 40
1.8
  1

 50
90.0
  7
GREEKS
  0
TEXT
  5
4FF
  8
TEXT
 10
415.1001447085945983
 20
1359.5358177598159273
 30
0.0
 40
2.5
  1
  
 50
90.0
  7
GREEKS
 72
     1
 11
415.1001447085945983
 21
1361.7977225217200612
 31
0.0
  0
TEXT
  5
500
  8
BEM
 10
279.5412626781924814
 20
1603.6555350722981075
 30
0.0
 40
2.5
  1
 
 50
90.0
 72
     4
 11
279.5412626781924814
 21
1604.7864874532499471
 31
0.0
  0
TEXT
  5
501
  8
BEM
 10
400.3249693521436825
 20
1182.84315171301796
 30
0.0
 40
2.5
  1

 50
90.0
  7
GREEKS
  0
TEXT
  5
502
  8
VOLL
 10
420.5082300091787033
 20
1168.7769586932970469
 30
0.0
 40
1.8
  1

 50
90.0
  7
GREEKS
  0
TEXT
  5
503
  8
BEM
 10
415.7825056859580855
 20
1203.2650235325820631
 30
0.0
 40
2.5
  1

 50
90.0
 41
0.8
  7
GREEKS
  0
TEXT
  5
504
  8
BEM
 10
420.4762742400102979
 20
1203.2650235325820631
 30
0.0
 40
2.5
  1

 50
90.0
 41
0.8
  7
GREEKS
  0
TEXT
  5
505
  8
BEM
 10
425.7141180586738756
 20
1203.2650235325820631
 30
0.0
 40
2.5
  1

 50
90.0
 41
0.8
  7
GREEKS
  0
TEXT
  5
506
  8
BEM
 10
430.2193070087715228
 20
1203.192079055206932
 30
0.0
 40
1.8
  1

 50
90.0
 41
0.8
  7
GREEKS
  0
TEXT
  5
507
  8
BEM
 10
404.6277179125460748
 20
1190.5085081755960346
 30
0.0
 40
2.0
  1

 50
90.0
 41
0.8
  7
GREEKS
 72
     1
 11
404.6277179125460748
 21
1190.5085081755960346
 31
0.0
  0
TEXT
  5
508
  8
TEXT
 10
414.94999447595319
 20
1500.6092268968900498
 30
0.0
 40
2.5
  1
  
 50
90.0
  7
GREEKS
 72
     1
 11
414.94999447595319
 21
1502.8711316587950932
 31
0.0
  0
TEXT
  5
509
  8
BEM
 10
279.3911124455510162
 20
1744.7289442093729122
 30
0.0
 40
2.5
  1
 
 50
90.0
 72
     4
 11
279.3911124455510162
 21
1745.8598965903249791
 31
0.0
  0
TEXT
  5
50A
  8
VOLL
 10
432.4740897675687279
 20
963.6813381294665533
 30
0.0
 40
1.8
  1

 50
90.0
  7
GREEKS
  0
TEXT
  5
50B
  8
TEXT
 10
426.9158542343432146
 20
1295.5136063330589877
 30
0.0
 40
2.5
  1
  
 50
90.0
  7
GREEKS
 72
     1
 11
426.9158542343432146
 21
1297.7755110949640311
 31
0.0
  0
TEXT
  5
50C
  8
BEM
 10
291.3569722039409839
 20
1539.6333236455409406
 30
0.0
 40
2.5
  1
 
 50
90.0
 72
     4
 11
291.3569722039409839
 21
1540.764276026493917
 31
0.0
  0
TEXT
  5
50D
  8
BEM
 10
392.3208590689831112
 20
1129.0269512091160777
 30
0.0
 40
2.5
  1

 50
90.0
  7
GREEKS
  0
TEXT
  5
50E
  8
VOLL
 10
412.5041197260180752
 20
1114.9607581893940278
 30
0.0
 40
1.8
  1

 50
90.0
  7
GREEKS
  0
TEXT
  5
50F
  8
BEM
 10
407.7783954027976279
 20
1149.448823028679044
 30
0.0
 40
2.5
  1

 50
90.0
 41
0.8
  7
GREEKS
  0
TEXT
  5
510
  8
BEM
 10
412.472163956849613
 20
1149.448823028679044
 30
0.0
 40
2.5
  1

 50
90.0
 41
0.8
  7
GREEKS
  0
TEXT
  5
511
  8
BEM
 10
417.7100077755131906
 20
1149.448823028679044
 30
0.0
 40
2.5
  1

 50
90.0
 41
0.8
  7
GREEKS
  0
TEXT
  5
512
  8
BEM
 10
422.2151967256108946
 20
1149.3758785513050498
 30
0.0
 40
1.8
  1

 50
90.0
 41
0.8
  7
GREEKS
  0
TEXT
  5
513
  8
BEM
 10
396.6236076293855035
 20
1136.6923076716930154
 30
0.0
 40
2.0
  1

 50
90.0
 41
0.8
  7
GREEKS
 72
     1
 11
396.6236076293855035
 21
1136.6923076716930154
 31
0.0
  0
TEXT
  5
514
  8
TEXT
 10
406.9458841927926187
 20
1446.7930263929870307
 30
0.0
 40
2.5
  1
  
 50
90.0
  7
GREEKS
 72
     1
 11
406.9458841927926187
 21
1449.0549311548920741
 31
0.0
  0
TEXT
  5
515
  8
BEM
 10
271.3870021623903881
 20
1690.912743705469893
 30
0.0
 40
2.5
  1
 
 50
90.0
 72
     4
 11
271.3870021623903881
 21
1692.04369608642196
 31
0.0
  0
TEXT
  5
516
  8
VOLL
 10
452.0646795006069851
 20
1242.0824769852129066
 30
0.0
 40
1.8
  1

 50
90.0
  7
GREEKS
  0
TEXT
  5
517
  8
TEXT
 10
446.5064439673814718
 20
1573.9147451888059095
 30
0.0
 40
2.5
  1
  
 50
90.0
  7
GREEKS
 72
     1
 11
446.5064439673814718
 21
1576.1766499507109529
 31
0.0
  0
TEXT
  5
518
  8
BEM
 10
310.947561936979298
 20
1818.0344625012880897
 30
0.0
 40
2.5
  1
 
 50
90.0
 72
     4
 11
310.947561936979298
 21
1819.1654148822399293
 31
0.0
  0
TEXT
  5
519
  8
VOLL
 10
446.5091238655357984
 20
1399.6171940623739829
 30
0.0
 40
1.8
  1

 50
90.0
  7
GREEKS
  0
TEXT
  5
51A
  8
BEM
 10
441.7833995423151805
 20
1434.1052589016589991
 30
0.0
 40
2.5
  1

 50
90.0
 41
0.8
  7
GREEKS
  0
TEXT
  5
51B
  8
BEM
 10
446.4771680963672793
 20
1434.1052589016589991
 30
0.0
 40
2.5
  1

 50
90.0
 41
0.8
  7
GREEKS
  0
TEXT
  5
51C
  8
BEM
 10
451.7150119150309138
 20
1434.1052589016589991
 30
0.0
 40
2.5
  1

 50
90.0
 41
0.8
  7
GREEKS
  0
TEXT
  5
51D
  8
BEM
 10
456.2202008651285041
 20
1434.0323144242850049
 30
0.0
 40
1.8
  1

 50
90.0
 41
0.8
  7
GREEKS
  0
TEXT
  5
51E
  8
TEXT
 10
440.950888332310285
 20
1731.4494622659678953
 30
0.0
 40
2.5
  1
  
 50
90.0
  7
GREEKS
 72
     1
 11
440.950888332310285
 21
1733.7113670278720292
 31
0.0
  0
TEXT
  5
51F
  8
BEM
 10
305.3920063019081113
 20
1975.5691795784500755
 30
0.0
 40
2.5
  1
 
 50
90.0
 72
     4
 11
305.3920063019081113
 21
1976.7001319594019151
 31
0.0
  0
TEXT
  5
520
  8
VOLL
 10
386.1898997048670026
 20
986.5668122067567083
 30
0.0
 40
1.8
  1

 50
90.0
  7
GREEKS
  0
TEXT
  5
521
  8
TEXT
 10
380.6316641716413756
 20
1318.3990804103500523
 30
0.0
 40
2.5
  1
  
 50
90.0
  7
GREEKS
 72
     1
 11
380.6316641716413756
 21
1320.6609851722550957
 31
0.0
  0
TEXT
  5
522
  8
BEM
 10
245.0727821412390881
 20
1562.5187977228320051
 30
0.0
 40
2.5
  1
 
 50
90.0
 72
     4
 11
245.0727821412390881
 21
1563.6497501037840721
 31
0.0
  0
TEXT
  5
523
  8
BEM
 10
373.1687025094892078
 20
1424.6636878333629284
 30
0.0
 40
2.5
  1

 50
90.0
  7
GREEKS
  0
TEXT
  5
524
  8
BEM
 10
388.1071503618093743
 20
1445.2254738930751046
 30
0.0
 40
2.5
  1

 50
90.0
 41
0.8
  7
GREEKS
  0
TEXT
  5
525
  8
BEM
 10
398.1856004265225124
 20
1445.0861438747890588
 30
0.0
 40
2.5
  1

 50
90.0
 41
0.8
  7
GREEKS
  0
TEXT
  5
526
  8
BEM
 10
393.2398174902066899
 20
1445.1394037585509977
 30
0.0
 40
2.5
  1

 50
90.0
 41
0.8
  7
GREEKS
  0
TEXT
  5
527
  8
BEM
 10
403.2803880661624021
 20
1445.1819217964471136
 30
0.0
 40
1.8
  1

 50
90.0
 41
0.8
  7
GREEKS
  0
TEXT
  5
528
  8
BEM
 10
377.8420435789942076
 20
1432.6096065528649888
 30
0.0
 40
2.0
  1

 50
90.0
 41
0.8
  7
GREEKS
 72
     1
 11
377.8420435789942076
 21
1432.6096065528649888
 31
0.0
  0
TEXT
  5
529
  8
VOLL
 10
391.8786649392524737
 20
1165.804746077569007
 30
0.0
 40
1.8
  1

 50
90.0
  7
GREEKS
  0
TEXT
  5
52A
  8
TEXT
 10
386.3204294060269035
 20
1497.6370142811620099
 30
0.0
 40
2.5
  1
  
 50
90.0
  7
GREEKS
 72
     1
 11
386.3204294060269035
 21
1499.8989190430670533
 31
0.0
  0
TEXT
  5
52B
  8
BEM
 10
250.7615473756247013
 20
1741.7567315936439627
 30
0.0
 40
2.5
  1
 
 50
90.0
 72
     4
 11
250.7615473756247013
 21
1742.8876839745969392
 31
0.0
  0
TEXT
  5
536
  8
BEM
 10
328.9397388384787746
 20
1280.2937644557359818
 30
0.0
 40
2.5
  1

 50
90.0
  7
GREEKS
  0
TEXT
  5
537
  8
VOLL
 10
349.1229994955140228
 20
1266.2275714360150687
 30
0.0
 40
1.8
  1

 50
90.0
  7
GREEKS
  0
TEXT
  5
538
  8
BEM
 10
344.3972751722934049
 20
1300.715636275298948
 30
0.0
 40
2.5
  1

 50
90.0
 41
0.8
  7
GREEKS
  0
TEXT
  5
539
  8
BEM
 10
349.0910437263455037
 20
1300.715636275298948
 30
0.0
 40
2.5
  1

 50
90.0
 41
0.8
  7
GREEKS
  0
TEXT
  5
53A
  8
BEM
 10
354.3288875450090245
 20
1300.715636275298948
 30
0.0
 40
2.5
  1

 50
90.0
 41
0.8
  7
GREEKS
  0
TEXT
  5
53B
  8
BEM
 10
358.8340764951066149
 20
1300.6426917979249538
 30
0.0
 40
1.8
  1

 50
90.0
 41
0.8
  7
GREEKS
  0
TEXT
  5
53C
  8
BEM
 10
333.2424873988812806
 20
1287.9591209183140563
 30
0.0
 40
2.0
  1

 50
90.0
 41
0.8
  7
GREEKS
 72
     1
 11
333.2424873988812806
 21
1287.9591209183140563
 31
0.0
  0
TEXT
  5
53D
  8
TEXT
 10
343.5647639622883958
 20
1598.0598396396080716
 30
0.0
 40
2.5
  1
  
 50
90.0
  7
GREEKS
 72
     1
 11
343.5647639622883958
 21
1600.3217444015128876
 31
0.0
  0
TEXT
  5
53E
  8
BEM
 10
208.0058819318861936
 20
1842.1795569520900244
 30
0.0
 40
2.5
  1
 
 50
90.0
 72
     4
 11
208.0058819318861936
 21
1843.3105093330420914
 31
0.0
  0
TEXT
  5
53F
  8
VOLL
 10
432.411117234249275
 20
974.475364286900458
 30
0.0
 40
1.8
  1

 50
90.0
  7
GREEKS
  0
TEXT
  5
540
  8
VOLL
 10
427.1190005185300151
 20
1064.1415382125730957
 30
0.0
 40
1.8
  1

 50
90.0
  7
GREEKS
  0
TEXT
  5
541
  8
TEXT
 10
421.5607649853045018
 20
1395.9738064161670081
 30
0.0
 40
2.5
  1
  
 50
90.0
  7
GREEKS
 72
     1
 11
421.5607649853045018
 21
1398.2357111780709147
 31
0.0
  0
TEXT
  5
542
  8
BEM
 10
286.001882954902328
 20
1640.0935237286480515
 30
0.0
 40
2.5
  1
 
 50
90.0
 72
     4
 11
286.001882954902328
 21
1641.2244761096010279
 31
0.0
  0
TEXT
  5
543
  8
BEM
 10
403.4822863273686266
 20
1205.7828678584980935
 30
0.0
 40
2.5
  1

 50
90.0
  7
GREEKS
  0
TEXT
  5
544
  8
VOLL
 10
423.6655469844037043
 20
1191.716674838776953
 30
0.0
 40
1.8
  1

 50
90.0
  7
GREEKS
  0
TEXT
  5
545
  8
BEM
 10
418.9398226611830864
 20
1226.2047396780610597
 30
0.0
 40
2.5
  1

 50
90.0
 41
0.8
  7
GREEKS
  0
TEXT
  5
546
  8
BEM
 10
423.6335912152352989
 20
1226.2047396780610597
 30
0.0
 40
2.5
  1

 50
90.0
 41
0.8
  7
GREEKS
  0
TEXT
  5
547
  8
BEM
 10
428.8714350338988197
 20
1226.2047396780610597
 30
0.0
 40
2.5
  1

 50
90.0
 41
0.8
  7
GREEKS
  0
TEXT
  5
548
  8
BEM
 10
433.3766239839964101
 20
1226.1317952006870655
 30
0.0
 40
1.8
  1

 50
90.0
 41
0.8
  7
GREEKS
  0
TEXT
  5
549
  8
BEM
 10
407.7850348877710758
 20
1213.4482243210759407
 30
0.0
 40
2.0
  1

 50
90.0
 41
0.8
  7
GREEKS
 72
     1
 11
407.7850348877710758
 21
1213.4482243210759407
 31
0.0
  0
TEXT
  5
54A
  8
TEXT
 10
418.1073114511780773
 20
1523.5489430423699559
 30
0.0
 40
2.5
  1
  
 50
90.0
  7
GREEKS
 72
     1
 11
418.1073114511780773
 21
1525.8108478042740899
 31
0.0
  0
TEXT
  5
54B
  8
BEM
 10
282.5484294207760172
 20
1767.6686603548519088
 30
0.0
 40
2.5
  1
 
 50
90.0
 72
     4
 11
282.5484294207760172
 21
1768.7996127358039757
 31
0.0
  0
TEXT
  5
54F
  8
VOLL
 10
390.4564731965292026
 20
951.0037300895329508
 30
0.0
 40
1.8
  1

 50
90.0
  7
GREEKS
  0
TEXT
  5
550
  8
VOLL
 10
385.1643564808097722
 20
1040.6699040152059297
 30
0.0
 40
1.8
  1

 50
90.0
  7
GREEKS
  0
TEXT
  5
551
  8
TEXT
 10
379.6061209475843157
 20
1372.5021722187989326
 30
0.0
 40
2.5
  1
  
 50
90.0
  7
GREEKS
 72
     1
 11
379.6061209475843157
 21
1374.764076980703976
 31
0.0
  0
TEXT
  5
552
  8
BEM
 10
244.0472389171821135
 20
1616.6218895312811128
 30
0.0
 40
2.5
  1
 
 50
90.0
 72
     4
 11
244.0472389171821135
 21
1617.7528419122329524
 31
0.0
  0
TEXT
  5
553
  8
BEM
 10
361.5276422896484974
 20
1182.3112336611300179
 30
0.0
 40
2.5
  1

 50
90.0
  7
GREEKS
  0
TEXT
  5
554
  8
VOLL
 10
381.7109029466835182
 20
1168.2450406414091049
 30
0.0
 40
1.8
  1

 50
90.0
  7
GREEKS
  0
TEXT
  5
555
  8
BEM
 10
376.9851786234629003
 20
1202.7331054806938937
 30
0.0
 40
2.5
  1

 50
90.0
 41
0.8
  7
GREEKS
  0
TEXT
  5
556
  8
BEM
 10
381.6789471775151128
 20
1202.7331054806938937
 30
0.0
 40
2.5
  1

 50
90.0
 41
0.8
  7
GREEKS
  0
TEXT
  5
557
  8
BEM
 10
386.9167909961785767
 20
1202.7331054806938937
 30
0.0
 40
2.5
  1

 50
90.0
 41
0.8
  7
GREEKS
  0
TEXT
  5
558
  8
BEM
 10
391.4219799462762239
 20
1202.66016100331899
 30
0.0
 40
1.8
  1

 50
90.0
 41
0.8
  7
GREEKS
  0
TEXT
  5
559
  8
BEM
 10
365.8303908500510033
 20
1189.9765901237080925
 30
0.0
 40
2.0
  1

 50
90.0
 41
0.8
  7
GREEKS
 72
     1
 11
365.8303908500510033
 21
1189.9765901237080925
 31
0.0
  0
TEXT
  5
55A
  8
TEXT
 10
376.1526674134580048
 20
1500.0773088450021078
 30
0.0
 40
2.5
  1
  
 50
90.0
  7
GREEKS
 72
     1
 11
376.1526674134580048
 21
1502.3392136069069238
 31
0.0
  0
TEXT
  5
55B
  8
BEM
 10
240.5937853830558026
 20
1744.1970261574840606
 30
0.0
 40
2.5
  1
 
 50
90.0
 72
     4
 11
240.5937853830558026
 21
1745.3279785384370371
 31
0.0
  0
TEXT
  5
583
  8
BEM
 10
429.581513987019207
 20
834.7104895207654636
 30
0.0
 40
2.5
  1

 50
90.0
 41
0.8
  7
GREEKS
  0
INSERT
  5
153E
  8
STEMPEL
  2
A$C66D238FE
 10
-0.0000000000000626
 20
-160.0
 30
0.0
  0
INSERT
  5
159C
  8
STEMPEL
  2
A$C47FA106E
 10
0.0
 20
0.0
 30
0.0
  0
VIEWPORT
  5
118B
 67
     1
  8
0
 10
4.4594418201888759
 20
6.2591142090593959
 30
0.0
 40
25.6761489017292597
 41
13.0767637500838898
 68
     1
 69
     1
1001
ACAD
1000
MVIEW
1002
{
1070
    16
1010
0.0
1020
0.0
1030
0.0
1010
0.0
1020
0.0
1030
1.0
1040
0.0
1040
13.0767637500838898
1040
4.4594418201888759
1040
6.2591142090593959
1040
50.0
1040
0.0
1040
0.0
1070
     0
1070
  1500
1070
     1
1070
     1
1070
     0
1070
     0
1070
     0
1070
     0
1040
0.0
1040
0.0
1040
0.0
1040
10.0
1040
10.0
1040
10.0
1040
10.0
1070
     0
1002
{
1002
}
1002
}
  0
VIEWPORT
  5
118F
 67
     1
  8
DEFPOINTS
 10
4.4593133416480226
 20
6.259089680140935
 30
0.0
 40
9.3896892500118767
 41
12.9737222711776905
 68
     2
 69
     2
1001
ACAD
1000
MVIEW
1002
{
1070
    16
1010
1036.907242101518932
1020
325.5069798644120738
1030
-306.1602947514668926
1010
0.0
1020
0.0
1030
1.0
1040
0.0
1040
611.4998570313191522
1040
-823.8372452821073466
1040
-27.7768676577245692
1040
50.0
1040
0.0
1040
0.0
1070
     0
1070
  1500
1070
     1
1070
     0
1070
     0
1070
     0
1070
     0
1070
     0
1040
0.0
1040
0.0
1040
0.0
1040
1.0
1040
1.0
1040
10.0
1040
10.0
1070
     0
1002
{
1002
}
1002
}
  0
VIEWPORT
  5
11FD
 67
     1
  8
DEFPOINTS
 10
7.1568865783880531
 20
6.5065356296416184
 30
0.0
 40
2.644131147273483
 41
3.848370876655991
 68
     3
 69
     3
1001
ACAD
1000
MVIEW
1002
{
1070
    16
1010
879.2178067083923452
1020
227.1472397320098082
1030
-286.0164905473743033
1010
0.0
1020
128.7008566202752036
1030
480.3181358845017144
1040
3.2305720795429771
1040
344.2701280320993078
1040
0.0
1040
0.0
1040
50.0
1040
0.0
1040
0.0
1070
     0
1070
  1500
1070
     1
1070
     0
1070
     0
1070
     0
1070
     0
1070
     0
1040
0.0
1040
0.0
1040
0.0
1040
1.0
1040
1.0
1040
10.0
1040
10.0
1070
     0
1002
{
1002
}
1002
}
  0
ENDSEC
  0
EOF
