  0
SECTION
  2
HEADER
  9
$ACADVER
  1
AC1009
  9
$INSBASE
 10
0.0
 20
0.0
 30
0.0
  9
$EXTMIN
 10
227.4652558668610141
 20
-147.0587801655682085
 30
-16.7221307127979912
  9
$EXTMAX
 10
417.5200423987918725
 20
383.0498323754101193
 30
-16.7221307127979095
  9
$LIMMIN
 10
0.0
 20
0.0
  9
$LIMMAX
 10
210.0
 20
297.0
  9
$ORTHOMODE
 70
     1
  9
$REGENMODE
 70
     1
  9
$FILLMODE
 70
     1
  9
$QTEXTMODE
 70
     0
  9
$MIRRTEXT
 70
     1
  9
$DRAGMODE
 70
     2
  9
$LTSCALE
 40
10.0
  9
$OSMODE
 70
  2495
  9
$ATTMODE
 70
     1
  9
$TEXTSIZE
 40
3.5
  9
$TRACEWID
 40
0.5
  9
$TEXTSTYLE
  7
STANDARD
  9
$CLAYER
  8
STEMPEL
  9
$CELTYPE
  6
BYLAYER
  9
$CECOLOR
 62
   256
  9
$DIMSCALE
 40
1.0
  9
$DIMASZ
 40
3.5
  9
$DIMEXO
 40
1.0
  9
$DIMDLI
 40
7.0
  9
$DIMRND
 40
0.0
  9
$DIMDLE
 40
0.0
  9
$DIMEXE
 40
1.0
  9
$DIMTP
 40
0.0
  9
$DIMTM
 40
0.0
  9
$DIMTXT
 40
3.5
  9
$DIMCEN
 40
1.5
  9
$DIMTSZ
 40
0.0
  9
$DIMTOL
 70
     0
  9
$DIMLIM
 70
     0
  9
$DIMTIH
 70
     0
  9
$DIMTOH
 70
     0
  9
$DIMSE1
 70
     0
  9
$DIMSE2
 70
     0
  9
$DIMTAD
 70
     1
  9
$DIMZIN
 70
     8
  9
$DIMBLK
  1

  9
$DIMASO
 70
     1
  9
$DIMSHO
 70
     0
  9
$DIMPOST
  1

  9
$DIMAPOST
  1

  9
$DIMALT
 70
     0
  9
$DIMALTD
 70
     2
  9
$DIMALTF
 40
25.3999999999999986
  9
$DIMLFAC
 40
2.0
  9
$DIMTOFL
 70
     1
  9
$DIMTVP
 40
0.0
  9
$DIMTIX
 70
     0
  9
$DIMSOXD
 70
     0
  9
$DIMSAH
 70
     0
  9
$DIMBLK1
  1

  9
$DIMBLK2
  1

  9
$DIMSTYLE
  2
STANDARD
  9
$DIMCLRD
 70
     0
  9
$DIMCLRE
 70
     0
  9
$DIMCLRT
 70
     1
  9
$DIMTFAC
 40
0.5
  9
$DIMGAP
 40
1.5
  9
$LUNITS
 70
     2
  9
$LUPREC
 70
     2
  9
$SKETCHINC
 40
1.0
  9
$FILLETRAD
 40
0.0
  9
$AUNITS
 70
     0
  9
$AUPREC
 70
     0
  9
$MENU
  1
ACAD
  9
$ELEVATION
 40
0.0
  9
$PELEVATION
 40
0.0
  9
$THICKNESS
 40
0.0
  9
$LIMCHECK
 70
     0
  9
$BLIPMODE
 70
     0
  9
$CHAMFERA
 40
0.0
  9
$CHAMFERB
 40
0.0
  9
$SKPOLY
 70
     0
  9
$TDCREATE
 40
2455397.8646990740671754
  9
$TDUPDATE
 40
2459153.5746064819395542
  9
$TDINDWG
 40
0.1021452778
  9
$TDUSRTIMER
 40
0.1021452778
  9
$USRTIMER
 70
     1
  9
$ANGBASE
 50
0.0
  9
$ANGDIR
 70
     0
  9
$PDMODE
 70
     0
  9
$PDSIZE
 40
0.0
  9
$PLINEWID
 40
0.0
  9
$COORDS
 70
     1
  9
$SPLFRAME
 70
     0
  9
$SPLINETYPE
 70
     6
  9
$SPLINESEGS
 70
     8
  9
$ATTDIA
 70
     1
  9
$ATTREQ
 70
     1
  9
$HANDLING
 70
     1
  9
$HANDSEED
  5
1297
  9
$SURFTAB1
 70
     6
  9
$SURFTAB2
 70
     6
  9
$SURFTYPE
 70
     6
  9
$SURFU
 70
     6
  9
$SURFV
 70
     6
  9
$UCSNAME
  2

  9
$UCSORG
 10
0.0
 20
0.0
 30
0.0
  9
$UCSXDIR
 10
1.0
 20
0.0
 30
0.0
  9
$UCSYDIR
 10
0.0
 20
1.0
 30
0.0
  9
$PUCSNAME
  2

  9
$PUCSORG
 10
0.0
 20
0.0
 30
0.0
  9
$PUCSXDIR
 10
1.0
 20
0.0
 30
0.0
  9
$PUCSYDIR
 10
0.0
 20
1.0
 30
0.0
  9
$USERI1
 70
     0
  9
$USERI2
 70
     0
  9
$USERI3
 70
     0
  9
$USERI4
 70
     0
  9
$USERI5
 70
     0
  9
$USERR1
 40
0.0
  9
$USERR2
 40
0.0
  9
$USERR3
 40
0.0
  9
$USERR4
 40
0.0
  9
$USERR5
 40
0.0
  9
$WORLDVIEW
 70
     1
  9
$SHADEDGE
 70
     3
  9
$SHADEDIF
 70
    70
  9
$TILEMODE
 70
     1
  9
$MAXACTVP
 70
    16
  9
$PLIMCHECK
 70
     0
  9
$PEXTMIN
 10
1.0000000000000000E+20
 20
1.0000000000000000E+20
 30
1.0000000000000000E+20
  9
$PEXTMAX
 10
-1.0000000000000000E+20
 20
-1.0000000000000000E+20
 30
-1.0000000000000000E+20
  9
$PLIMMIN
 10
23.97877586553561
 20
-6.292285720884311
  9
$PLIMMAX
 10
233.9787758655355958
 20
290.7077142791156916
  9
$UNITMODE
 70
     0
  9
$VISRETAIN
 70
     0
  9
$PLINEGEN
 70
     0
  9
$PSLTSCALE
 70
     0
  0
ENDSEC
  0
SECTION
  2
TABLES
  0
TABLE
  2
VPORT
 70
     1
  0
VPORT
  2
*ACTIVE
 70
     0
 10
0.0
 20
0.0
 11
1.0
 21
1.0
 12
0.3954260814842314
 22
-112.5543062704889934
 13
0.0
 23
0.0
 14
1.0
 24
1.0
 15
10.0
 25
10.0
 16
-0.0000000000001705
 26
0.0
 36
895.6645047510945687
 17
322.0972230513423256
 27
230.5498323754100056
 37
-8.3610653563989779
 40
533.8996157295907778
 41
1.7852028639618129
 42
50.0
 43
0.0
 44
0.0
 50
0.0
 51
0.0
 71
     0
 72
  1500
 73
     1
 74
     0
 75
     0
 76
     0
 77
     0
 78
     0
  0
ENDTAB
  0
TABLE
  2
LTYPE
 70
     7
  0
LTYPE
  2
CONTINUOUS
 70
     0
  3
Solid line
 72
    65
 73
     0
 40
0.0
  0
LTYPE
  2
PHANTOM2
 70
     0
  3
Phantom (.5x) ___ _ _ ___ _ _ ___ _ _ ___ _ _
 72
    65
 73
     6
 40
1.25
 49
0.625
 49
-0.125
 49
0.125
 49
-0.125
 49
0.125
 49
-0.125
  0
LTYPE
  2
AUSGEZOGEN
 70
     0
  3
Ausgezogene Linie
 72
    65
 73
     0
 40
0.0
  0
LTYPE
  2
VERDECKT
 70
     0
  3
Verdeckt __ __ __ __ __ __ __ __ __ __ __ __ __
 72
    65
 73
     2
 40
0.375
 49
0.25
 49
-0.125
  0
ENDTAB
  0
TABLE
  2
LAYER
 70
    16
  0
LAYER
  2
0
 70
     0
 62
     7
  6
CONTINUOUS
  0
LAYER
  2
VOLL
 70
     0
 62
     1
  6
CONTINUOUS
  0
LAYER
  2
STEMPEL
 70
     0
 62
     3
  6
CONTINUOUS
  0
LAYER
  2
DEFPOINTS
 70
     0
 62
     7
  6
AUSGEZOGEN
  0
LAYER
  2
ADSK_ASSOC_ENTITY_BACKUPS
 70
     1
 62
    -7
  6
CONTINUOUS
  0
ENDTAB
  0
TABLE
  2
STYLE
 70
     4
  0
STYLE
  2
STANDARD
 70
     0
 40
0.0
 41
0.8
 50
0.0
 71
     0
 42
3.5
  3
simplex.shx
  4

  0
STYLE
  2
GREEKS
 70
     0
 40
0.0
 41
0.8
 50
0.0
 71
     0
 42
2.5
  3
SIMPLEX.shx
  4

  0
ENDTAB
  0
TABLE
  2
VIEW
 70
     1
  0
ENDTAB
  0
TABLE
  2
UCS
 70
     0
  0
ENDTAB
  0
TABLE
  2
APPID
 70
    18
  0
APPID
  2
ACAD
 70
     0
  0
APPID
  2
ACAD_NAV_VCDISPLAY
 70
     0
  0
APPID
  2
ACAD_MLEADERVER
 70
     0
  0
APPID
  2
ACAD_EXEMPT_FROM_CAD_STANDARDS
 70
     0
  0
APPID
  2
ACAD_PSEXT
 70
     0
  0
APPID
  2
ACAECLAYERSTANDARD
 70
     0
  0
APPID
  2
ACAUTHENVIRON
 70
     0
  0
APPID
  2
ACCMTRANSPARENCY
 70
     0
  0
APPID
  2
ACAD_STEPID
 70
     0
  0
APPID
  2
ACSYNERGY
 70
     0
  0
APPID
  2
SYNERGY_BODY_TBR_ID
 70
     0
  0
APPID
  2
ACAD_VIEW_EDGE_ID
 70
     0
  0
APPID
  2
ACSYNERGYSKETCH
 70
     0
  0
APPID
  2
ACAD_MODELDOC_XFORM
 70
     0
  0
APPID
  2
ACAD_DSTYLE_DIMJAG
 70
     0
  0
APPID
  2
ACAD_DSTYLE_DIMTALN
 70
     0
  0
APPID
  2
ACADANNOMONITORALERTICONDI
 70
     0
  0
APPID
  2
AcDbAttr
 70
     0
  0
ENDTAB
  0
TABLE
  2
DIMSTYLE
 70
     2
  0
DIMSTYLE
  2
STANDARD
 70
     0
  3

  4

  5

  6

  7

 40
1.0
 41
0.18
 42
0.0625
 43
0.38
 44
0.18
 45
0.0
 46
0.0
 47
0.0
 48
0.0
140
0.18
141
0.09
142
0.0
143
25.3999999999999986
144
1.0
145
0.0
146
1.0
147
0.09
 71
     0
 72
     0
 73
     1
 74
     1
 75
     0
 76
     0
 77
     0
 78
     0
170
     0
171
     2
172
     0
173
     0
174
     0
175
     0
176
     0
177
     0
178
     0
  0
ENDTAB
  0
ENDSEC
  0
SECTION
  2
BLOCKS
  0
BLOCK
  8
0
  2
$MODEL_SPACE
 70
     0
 10
0.0
 20
0.0
 30
0.0
  3
$MODEL_SPACE
  1

  0
ENDBLK
  5
36
  8
0
  0
BLOCK
 67
     1
  8
0
  2
$PAPER_SPACE
 70
     0
 10
0.0
 20
0.0
 30
0.0
  3
$PAPER_SPACE
  1

  0
ENDBLK
  5
34
 67
     1
  8
0
  0
BLOCK
  8
0
  2
*S2
 70
     1
 10
0.0
 20
0.0
 30
0.0
  3
*S2
  1

  0
ENDBLK
  5
A46
  8
0
  0
BLOCK
  8
0
  2
A$C521F7727
 70
     0
 10
0.0
 20
0.0
 30
0.0
  3
A$C521F7727
  1

  0
CIRCLE
  5
11BD
  8
0
 10
110.8088559850606032
 20
228.721735999976886
 30
0.0000000000000284
 40
34.1939789517227766
  0
CIRCLE
  5
11BE
  8
0
 10
110.8088559850606032
 20
228.721735999976886
 30
0.0000000000000284
 40
34.8999999999999773
  0
CIRCLE
  5
11BF
  8
0
 10
110.8088559850606032
 20
228.721735999976886
 30
0.0000000000000284
 40
38.0
  0
CIRCLE
  5
11C0
  8
0
 10
110.8088559850606032
 20
228.721735999976886
 30
0.0000000000000284
 40
39.7653973282751778
  0
CIRCLE
  5
11C1
  8
0
 10
110.8088559850606032
 20
228.721735999976886
 30
0.0000000000000284
 40
39.7653973282751778
  0
CIRCLE
  5
11C2
  8
0
 10
110.8088559850606032
 20
228.7217359999769997
 30
0.0000000000000284
 40
49.5
  0
CIRCLE
  5
11C3
  8
0
 10
110.8088559850606032
 20
228.7217359999769997
 30
0.0000000000000284
 40
49.5
  0
CIRCLE
  5
11C4
  8
0
 10
110.8088559850606032
 20
228.7217359999769997
 30
0.0000000000000284
 40
51.0
  0
CIRCLE
  5
11C5
  8
0
 10
110.8088559850606032
 20
228.721735999976886
 30
0.0000000000000284
 40
52.0
  0
CIRCLE
  5
11C6
  8
0
 10
110.8088559850606032
 20
228.721735999976886
 30
0.0000000000000284
 40
95.0
  0
CIRCLE
  5
11C7
  8
0
  6
VERDECKT
 62
     1
 10
110.8088559850610011
 20
228.7217359999768007
 30
0.0000000000000284
 40
36.5
  0
CIRCLE
  5
11C8
  8
0
  6
VERDECKT
 62
     1
 10
110.8088559850610011
 20
228.7217359999768007
 30
0.0000000000000284
 40
39.6000000000000227
  0
CIRCLE
  5
11C9
  8
0
  6
VERDECKT
 62
     1
 10
110.8088559850606032
 20
228.721735999976886
 30
0.0000000000000284
 40
40.4999999999999929
  0
CIRCLE
  5
11CA
  8
0
  6
VERDECKT
 62
     1
 10
110.8088559850606032
 20
228.721735999976886
 30
0.0000000000000284
 40
36.5
  0
CIRCLE
  5
11CB
  8
0
  6
VERDECKT
 62
     1
 10
110.8088559850606032
 20
228.721735999976886
 30
0.0000000000000284
 40
35.8000906917923203
  0
CIRCLE
  5
11CC
  8
0
  6
VERDECKT
 62
     1
 10
110.8088559850606032
 20
228.721735999976886
 30
0.0000000000000284
 40
42.1000000000000227
  0
CIRCLE
  5
11CD
  8
0
  6
VERDECKT
 62
     1
 10
110.8088559850606032
 20
228.721735999976886
 30
0.0000000000000284
 40
39.6000000000000227
  0
CIRCLE
  5
11CE
  8
0
  6
VERDECKT
 62
     1
 10
110.8088559850606032
 20
228.721735999976886
 30
0.0000000000000284
 40
42.0999999999999091
  0
CIRCLE
  5
11CF
  8
0
  6
VERDECKT
 62
     1
 10
110.8088559850609016
 20
228.721735999976886
 30
0.0000000000000284
 40
39.3999999999998209
  0
CIRCLE
  5
11D0
  8
0
  6
VERDECKT
 62
     1
 10
110.8088559850608021
 20
228.721735999976886
 30
0.0000000000000284
 40
44.0188021535169511
  0
ENDBLK
  5
11D2
  8
0
  0
BLOCK
  8
0
  2
A$CCD71D3B2
 70
     0
 10
0.0
 20
0.0
 30
0.0
  3
A$CCD71D3B2
  1

  0
LINE
  5
11D6
  8
0
 10
75.0087652932683113
 20
-152.5
 30
0.0000000000000339
 11
146.6089466768528951
 21
-152.5
 31
0.0000000000000339
210
0.0
220
1.0
230
-0.0000000000000002
  0
ARC
  5
11D7
  8
0
 10
-82.9088559850586222
 20
-144.1245158909825079
 30
0.0
 40
8.5999999999979906
210
0.0
220
-0.0000000000000002
230
-1.0
 50
355.0000000000007958
 51
0.000000000001145
  0
ARC
  5
11D8
  8
0
 10
-138.708855985069988
 20
-144.1245158909827069
 30
0.0
 40
8.5999999999905867
210
0.0
220
-0.0000000000000002
230
-1.0
 50
179.9999999999976978
 51
185.0000000000023022
  0
LINE
  5
11D9
  8
0
 10
147.3088559850606032
 20
-109.4999999999999005
 30
0.0000000000000243
 11
147.3088559850606032
 21
-144.1245158909823942
 31
0.000000000000032
210
0.0
220
1.0
230
-0.0000000000000002
  0
LINE
  5
11DA
  8
0
 10
74.3088559850606316
 20
-109.4999999999995026
 30
0.0000000000000243
 11
74.3088559850606316
 21
-144.1245158909823942
 31
0.000000000000032
210
0.0
220
1.0
230
-0.0000000000000002
  0
LINE
  5
11DB
  8
0
 10
75.0087652932683113
 20
-152.5
 30
0.0000000000000339
 11
74.3415815814716154
 21
-144.8740552786121043
 31
0.0000000000000322
210
0.0
220
1.0
230
-0.0000000000000002
  0
LINE
  5
11DC
  8
0
 10
146.6089466768528951
 20
-152.5
 30
0.0000000000000339
 11
147.2761303886495909
 21
-144.8740552786121043
 31
0.0000000000000322
210
0.0
220
1.0
230
-0.0000000000000002
  0
LINE
  5
11DD
  8
0
 10
205.8088559850606032
 20
79.5000000000000142
 30
-0.0000000000000177
 11
15.8088559850606298
 21
79.5000000000000142
 31
-0.0000000000000177
210
0.0
220
1.0
230
-0.0000000000000002
  0
LINE
  5
11DE
  8
0
 10
15.8088559850606298
 20
71.5000000000000142
 30
-0.0000000000000159
 11
205.8088559850606032
 21
71.5000000000000142
 31
-0.0000000000000159
210
0.0
220
1.0
230
-0.0000000000000002
  0
LINE
  5
11DF
  8
0
 10
205.8088559850606032
 20
79.5000000000000142
 30
-0.0000000000000177
 11
205.8088559850606032
 21
71.5000000000000142
 31
-0.0000000000000159
210
0.0
220
1.0
230
-0.0000000000000002
  0
LINE
  5
11E0
  8
0
 10
15.8088559850606298
 20
79.5000000000000142
 30
-0.0000000000000177
 11
15.8088559850606298
 21
71.5000000000000142
 31
-0.0000000000000159
210
0.0
220
1.0
230
-0.0000000000000002
  0
LINE
  5
11E1
  8
0
 10
161.8088559850606032
 20
-107.5
 30
0.0000000000000239
 11
59.8088559850611006
 21
-107.4999999999994031
 31
0.0000000000000239
210
0.0
220
1.0
230
-0.0000000000000002
  0
LINE
  5
11E2
  8
0
 10
161.8088559850606032
 20
-109.5
 30
0.0000000000000243
 11
59.8088559850611432
 21
-109.4999999999994031
 31
0.0000000000000243
210
0.0
220
1.0
230
-0.0000000000000002
  0
LINE
  5
11E3
  8
0
 10
59.8088559850611077
 20
-109.4999999999994031
 30
0.0000000000000243
 11
59.8088559850611219
 21
-107.4999999999994031
 31
0.0000000000000239
210
0.0
220
1.0
230
-0.0000000000000002
  0
LINE
  5
11E4
  8
0
 10
161.8088559850606032
 20
-109.5
 30
0.0000000000000243
 11
161.8088559850606032
 21
-107.5
 31
0.0000000000000239
210
0.0
220
1.0
230
-0.0000000000000002
  0
LINE
  5
11E5
  8
0
 10
161.8088559850606032
 20
152.5
 30
-0.0000000000000339
 11
59.8088559850606316
 21
152.5
 31
-0.0000000000000339
210
0.0
220
1.0
230
-0.0000000000000002
  0
LINE
  5
11E6
  8
0
 10
59.8088559850606316
 20
-107.5
 30
0.0000000000000239
 11
161.8088559850606032
 21
-107.5
 31
0.0000000000000239
210
0.0
220
1.0
230
-0.0000000000000002
  0
LINE
  5
11E7
  8
0
 10
161.8088559850606032
 20
152.5
 30
-0.0000000000000339
 11
161.8088559850606032
 21
87.5000000000000284
 31
-0.0000000000000194
210
0.0
220
1.0
230
-0.0000000000000002
  0
LINE
  5
11E8
  8
0
 10
161.8088559850606032
 20
71.5000000000000284
 30
-0.0000000000000159
 11
161.8088559850606032
 21
-107.5
 31
0.0000000000000239
210
0.0
220
1.0
230
-0.0000000000000002
  0
LINE
  5
11E9
  8
0
 10
59.8088559850606316
 20
152.5
 30
-0.0000000000000339
 11
59.8088559850606316
 21
87.5000000000000284
 31
-0.0000000000000194
210
0.0
220
1.0
230
-0.0000000000000002
  0
LINE
  5
11EA
  8
0
 10
59.8088559850606316
 20
71.5000000000000284
 30
-0.0000000000000159
 11
59.8088559850606316
 21
-107.5
 31
0.0000000000000239
210
0.0
220
1.0
230
-0.0000000000000002
  0
LINE
  5
11EB
  8
0
 10
205.8088559850606032
 20
87.5000000000000142
 30
-0.0000000000000194
 11
15.8088559850606298
 21
87.5000000000000142
 31
-0.0000000000000194
210
0.0
220
1.0
230
-0.0000000000000002
  0
LINE
  5
11EC
  8
0
 10
15.8088559850606298
 20
79.5000000000000142
 30
-0.0000000000000177
 11
205.8088559850606032
 21
79.5000000000000142
 31
-0.0000000000000177
210
0.0
220
1.0
230
-0.0000000000000002
  0
LINE
  5
11ED
  8
0
 10
205.8088559850606032
 20
87.5000000000000142
 30
-0.0000000000000194
 11
205.8088559850606032
 21
79.5000000000000142
 31
-0.0000000000000177
210
0.0
220
1.0
230
-0.0000000000000002
  0
LINE
  5
11EE
  8
0
 10
15.8088559850606298
 20
87.5000000000000142
 30
-0.0000000000000194
 11
15.8088559850606298
 21
79.5000000000000142
 31
-0.0000000000000177
210
0.0
220
1.0
230
-0.0000000000000002
  0
LINE
  5
11EF
  8
0
  6
VERDECKT
 62
     1
 10
160.3088559850608874
 20
-91.49999999999973
 30
0.0000000000000203
 11
61.3088559850609727
 21
-91.49999999999973
 31
0.0000000000000203
210
0.0
220
1.0
230
-0.0000000000000002
  0
LINE
  5
11F0
  8
0
  6
VERDECKT
 62
     1
 10
61.3088559850609727
 20
138.5000000000003126
 30
-0.0000000000000308
 11
160.3088559850608874
 21
138.5000000000003126
 31
-0.0000000000000308
210
0.0
220
1.0
230
-0.0000000000000002
  0
LINE
  5
11F1
  8
0
  6
VERDECKT
 62
     1
 10
74.3088559850609727
 20
-91.49999999999973
 30
0.0000000000000203
 11
74.3088559850609727
 21
92.1934003354318747
 31
-0.0000000000000205
210
0.0
220
1.0
230
-0.0000000000000002
  0
LINE
  5
11F2
  8
0
  6
VERDECKT
 62
     1
 10
147.3088559850610011
 20
-91.5000000000000142
 30
0.0000000000000203
 11
147.3088559850610011
 21
92.1934003354316758
 31
-0.0000000000000205
210
0.0
220
1.0
230
-0.0000000000000002
  0
LINE
  5
11F3
  8
0
  6
VERDECKT
 62
     1
 10
61.3088559850609727
 20
-91.49999999999973
 30
0.0000000000000203
 11
61.3088559850609727
 21
138.5000000000003126
 31
-0.0000000000000308
210
0.0
220
1.0
230
-0.0000000000000002
  0
LINE
  5
11F4
  8
0
  6
VERDECKT
 62
     1
 10
160.3088559850608874
 20
-91.49999999999973
 30
0.0000000000000203
 11
160.3088559850608874
 21
138.5000000000003126
 31
-0.0000000000000308
210
0.0
220
1.0
230
-0.0000000000000002
  0
ARC
  5
11F5
  8
0
  6
VERDECKT
 62
     1
 10
-66.3088559850614985
 20
92.1934003354318747
 30
0.0
 40
7.9999999999994724
210
0.0
220
-0.0000000000000002
230
-1.0
 50
147.6719358778364892
 51
179.999999999999801
  0
ARC
  5
11F6
  8
0
  6
VERDECKT
 62
     1
 10
-155.3088559850604895
 20
92.1934003354318463
 30
0.0
 40
7.9999999999995728
210
0.0
220
-0.0000000000000002
230
-1.0
 50
0.0
 51
32.3280641221645766
  0
ARC
  5
11F7
  8
0
  6
VERDECKT
 62
     1
 10
-83.2088559850614047
 20
102.8887264174174021
 30
0.0
 40
12.0000000000004601
210
0.0
220
-0.0000000000000002
230
-1.0
 50
327.671935877838223
 51
359.9999999999993179
  0
ARC
  5
11F8
  8
0
  6
VERDECKT
 62
     1
 10
-138.4088559850605122
 20
102.8887264174174021
 30
0.0
 40
12.0000000000004494
210
0.0
220
-0.0000000000000002
230
-1.0
 50
180.0000000000005969
 51
212.3280641221618055
  0
LINE
  5
11F9
  8
0
  6
VERDECKT
 62
     1
 10
150.4088559850609954
 20
123.8300000000002967
 30
-0.0000000000000275
 11
150.4088559850609954
 21
102.8887264174173026
 31
-0.0000000000000228
210
0.0
220
1.0
230
-0.0000000000000002
  0
LINE
  5
11FA
  8
0
  6
VERDECKT
 62
     1
 10
71.2088559850609499
 20
123.8300000000002967
 30
-0.0000000000000275
 11
71.2088559850609499
 21
102.8887264174173026
 31
-0.0000000000000228
210
0.0
220
1.0
230
-0.0000000000000002
  0
ARC
  5
11FB
  8
0
  6
VERDECKT
 62
     1
 10
-59.2088559850627476
 20
123.8300000000005952
 30
0.0
 40
11.9999999999981899
210
0.0
220
-0.0000000000000002
230
-1.0
 50
158.8168456069653018
 51
180.0000000000011937
  0
ARC
  5
11FC
  8
0
  6
VERDECKT
 62
     1
 10
-162.4088559850592901
 20
123.8300000000005952
 30
0.0
 40
11.9999999999982894
210
0.0
220
-0.0000000000000002
230
-1.0
 50
359.9999999999988063
 51
21.1831543930345987
  0
ARC
  5
11FD
  8
0
  6
VERDECKT
 62
     1
 10
-93.7088559850704712
 20
137.2000000000018929
 30
0.0
 40
25.000093243135229
210
0.0
220
-0.0000000000000002
230
-1.0
 50
338.816845606967604
 51
359.8435140456671775
  0
ARC
  5
11FE
  8
0
  6
VERDECKT
 62
     1
 10
-127.9088559850515026
 20
137.2000000000018929
 30
0.0
 40
25.000093243135229
210
0.0
220
-0.0000000000000002
230
-1.0
 50
180.1564859543327088
 51
201.183154393032396
  0
LINE
  5
11FF
  8
0
  6
VERDECKT
 62
     1
 10
152.9088559850609954
 20
138.5000000000003126
 30
-0.0000000000000308
 11
152.9088559850609954
 21
137.1317199518192922
 31
-0.0000000000000304
210
0.0
220
1.0
230
-0.0000000000000002
  0
LINE
  5
1200
  8
0
  6
VERDECKT
 62
     1
 10
68.7088559850609499
 20
138.5000000000003126
 30
-0.0000000000000308
 11
68.7088559850609499
 21
137.1317199518192922
 31
-0.0000000000000304
210
0.0
220
1.0
230
-0.0000000000000002
  0
ARC
  5
1201
  8
0
  6
VERDECKT
 62
     1
 10
-72.9116643342761535
 20
102.6482183984388001
 30
0.0
 40
0.0999999999913989
210
0.0
220
-0.0000000000000002
230
-1.0
 50
358.6620051487873866
 51
359.992403542535385
  0
ARC
  5
1202
  8
0
  6
VERDECKT
 62
     1
 10
-148.7060476361612871
 20
102.6482183984357022
 30
0.0
 40
0.0999999996751644
210
0.0
220
-0.0000000000000002
230
-1.0
 50
180.0075964557136103
 51
181.3379948536689881
  0
LINE
  5
1203
  8
0
  6
VERDECKT
 62
     1
 10
72.8116643351636839
 20
102.6482051401194013
 30
-0.0000000000000228
 11
72.8088559850606316
 21
123.8299999999999983
 31
-0.0000000000000275
210
0.0
220
1.0
230
-0.0000000000000002
  0
LINE
  5
1204
  8
0
  6
VERDECKT
 62
     1
 10
148.8060476349575083
 20
102.6482051401194013
 30
-0.0000000000000228
 11
148.8088559850606032
 21
123.8299999999999983
 31
-0.0000000000000275
210
0.0
220
1.0
230
-0.0000000000000002
  0
ARC
  5
1205
  8
0
  6
VERDECKT
 62
     1
 10
-70.4088559755814032
 20
137.134088972699999
 30
0.0
 40
0.0999999905207716
210
0.0
220
-0.0000000000000002
230
-1.0
 50
359.8302933546190729
 51
0.0000000080282416
  0
ARC
  5
1206
  8
0
  6
VERDECKT
 62
     1
 10
-151.208855994539789
 20
137.134088972699999
 30
0.0
 40
0.0999999905207574
210
0.0
220
-0.0000000000000002
230
-1.0
 50
179.999999991971805
 51
180.1697066453808134
  0
ARC
  5
1207
  8
0
  6
VERDECKT
 62
     1
 10
-93.725581049588456
 20
137.2031519056077116
 30
0.0
 40
23.4168273447199518
210
0.0
220
-0.0000000000000002
230
-1.0
 50
338.8244420646050798
 51
359.8302933626869731
  0
ARC
  5
1208
  8
0
  6
VERDECKT
 62
     1
 10
-127.8921309205319972
 20
137.2031519056079105
 30
0.0
 40
23.4168273447207618
210
0.0
220
-0.0000000000000002
230
-1.0
 50
180.1697066373133964
 51
201.1755579353946075
  0
LINE
  5
1209
  8
0
  6
VERDECKT
 62
     1
 10
151.3088559850606032
 20
141.9510775928812905
 30
-0.0000000000000315
 11
151.3088559850606032
 21
137.1340889727140109
 31
-0.0000000000000304
210
0.0
220
1.0
230
-0.0000000000000002
  0
LINE
  5
120A
  8
0
  6
VERDECKT
 62
     1
 10
70.3088559850606316
 20
141.9510775928812905
 30
-0.0000000000000315
 11
70.3088559850606316
 21
137.1340889727140109
 31
-0.0000000000000304
210
0.0
220
1.0
230
-0.0000000000000002
  0
LINE
  5
120B
  8
0
  6
VERDECKT
 62
     1
 10
147.3088559850606032
 20
92.1934003354313774
 30
-0.0000000000000205
 11
147.3088559850606032
 21
-109.4999999999999005
 31
0.0000000000000243
210
0.0
220
1.0
230
-0.0000000000000002
  0
LINE
  5
120C
  8
0
  6
VERDECKT
 62
     1
 10
74.3088559850606316
 20
92.1934003354313774
 30
-0.0000000000000205
 11
74.3088559850606316
 21
-109.4999999999995026
 31
0.0000000000000243
210
0.0
220
1.0
230
-0.0000000000000002
  0
ARC
  5
120D
  8
0
  6
VERDECKT
 62
     1
 10
-82.9088559850632834
 20
-144.1245158909815984
 30
0.0
 40
7.0000000000026299
210
0.0
220
-0.0000000000000002
230
-1.0
 50
354.9999999999997726
 51
359.9999999999985789
  0
ARC
  5
120E
  8
0
  6
VERDECKT
 62
     1
 10
-138.7088559850731997
 20
-144.124515890982309
 30
0.0
 40
6.9999999999874092
210
0.0
220
-0.0000000000000002
230
-1.0
 50
179.9999999999959925
 51
185.0000000000055138
  0
LINE
  5
120F
  8
0
  6
VERDECKT
 62
     1
 10
76.6148770333379048
 20
-152.5
 30
0.0000000000000339
 11
75.9354930984184335
 21
-144.7346060902154079
 31
0.0000000000000321
210
0.0
220
1.0
230
-0.0000000000000002
  0
LINE
  5
1210
  8
0
  6
VERDECKT
 62
     1
 10
145.0028349367833016
 20
-152.5
 30
0.0000000000000339
 11
145.6822188717027871
 21
-144.7346060902154932
 31
0.0000000000000321
210
0.0
220
1.0
230
-0.0000000000000002
  0
LINE
  5
1211
  8
0
  6
VERDECKT
 62
     1
 10
145.7088559850606089
 20
92.1934003354313063
 30
-0.0000000000000205
 11
145.7088559850606089
 21
-144.1245158909817974
 31
0.000000000000032
210
0.0
220
1.0
230
-0.0000000000000002
  0
LINE
  5
1212
  8
0
  6
VERDECKT
 62
     1
 10
75.9088559850606543
 20
92.1934003354313063
 30
-0.0000000000000205
 11
75.9088559850606543
 21
-144.1245158909817974
 31
0.000000000000032
210
0.0
220
1.0
230
-0.0000000000000002
  0
LINE
  5
1213
  8
0
  6
VERDECKT
 62
     1
 10
152.9088559850605975
 20
141.9510775928812905
 30
-0.0000000000000315
 11
152.9088559850605975
 21
137.131719951819008
 31
-0.0000000000000304
210
0.0
220
1.0
230
-0.0000000000000002
  0
LINE
  5
1214
  8
0
  6
VERDECKT
 62
     1
 10
68.7088559850606089
 20
141.9510775928812905
 30
-0.0000000000000315
 11
68.7088559850606089
 21
137.131719951819008
 31
-0.0000000000000304
210
0.0
220
1.0
230
-0.0000000000000002
  0
ARC
  5
1215
  8
0
  6
VERDECKT
 62
     1
 10
-93.7088559850701444
 20
137.2000000000016087
 30
0.0
 40
25.000093243135229
210
0.0
220
-0.0000000000000002
230
-1.0
 50
338.816845606967604
 51
359.8435140456671775
  0
ARC
  5
1216
  8
0
  6
VERDECKT
 62
     1
 10
-127.9088559850511047
 20
137.2000000000016087
 30
0.0
 40
25.000093243135229
210
0.0
220
-0.0000000000000002
230
-1.0
 50
180.1564859543327088
 51
201.183154393032396
  0
ARC
  5
1217
  8
0
  6
VERDECKT
 62
     1
 10
-59.2088559850624208
 20
123.8300000000002967
 30
0.0
 40
11.9999999999981899
210
0.0
220
-0.0000000000000002
230
-1.0
 50
158.8168456069653018
 51
180.0000000000011937
  0
ARC
  5
1218
  8
0
  6
VERDECKT
 62
     1
 10
-162.4088559850588922
 20
123.8300000000002967
 30
0.0
 40
11.9999999999982894
210
0.0
220
-0.0000000000000002
230
-1.0
 50
359.9999999999988063
 51
21.1831543930345987
  0
LINE
  5
1219
  8
0
  6
VERDECKT
 62
     1
 10
150.4088559850605975
 20
123.8299999999999983
 30
-0.0000000000000275
 11
150.4088559850605975
 21
102.8887264174170042
 31
-0.0000000000000228
210
0.0
220
1.0
230
-0.0000000000000002
  0
LINE
  5
121A
  8
0
  6
VERDECKT
 62
     1
 10
71.2088559850606089
 20
123.8299999999999983
 30
-0.0000000000000275
 11
71.2088559850606089
 21
102.8887264174170042
 31
-0.0000000000000228
210
0.0
220
1.0
230
-0.0000000000000002
  0
ARC
  5
121B
  8
0
  6
VERDECKT
 62
     1
 10
-83.2088559850610636
 20
102.8887264174171037
 30
0.0
 40
12.0000000000004601
210
0.0
220
-0.0000000000000002
230
-1.0
 50
327.671935877838223
 51
359.9999999999993179
  0
ARC
  5
121C
  8
0
  6
VERDECKT
 62
     1
 10
-138.4088559850601996
 20
102.8887264174171037
 30
0.0
 40
12.0000000000004494
210
0.0
220
-0.0000000000000002
230
-1.0
 50
180.0000000000005969
 51
212.3280641221618055
  0
ARC
  5
121D
  8
0
  6
VERDECKT
 62
     1
 10
-66.3088559850610437
 20
92.1934003354315621
 30
0.0
 40
7.9999999999995843
210
0.0
220
-0.0000000000000002
230
-1.0
 50
147.6719358778368019
 51
180.0000000000013074
  0
ARC
  5
121E
  8
0
  6
VERDECKT
 62
     1
 10
-155.3088559850602053
 20
92.1934003354315621
 30
0.0
 40
7.9999999999995728
210
0.0
220
-0.0000000000000002
230
-1.0
 50
0.0
 51
32.3280641221645766
  0
ARC
  5
121F
  8
0
  6
VERDECKT
 62
     1
 10
-66.3088559850597932
 20
92.1934003354311216
 30
0.0
 40
9.6000000000008612
210
0.0
220
-0.0000000000000002
230
-1.0
 50
147.6719358778385072
 51
179.9999999999988063
  0
ARC
  5
1220
  8
0
  6
VERDECKT
 62
     1
 10
-155.3088559850615127
 20
92.1934003354310931
 30
0.0
 40
9.6000000000009322
210
0.0
220
-0.0000000000000002
230
-1.0
 50
0.0000000000011959
 51
32.3280641221612868
  0
ARC
  5
1221
  8
0
  6
VERDECKT
 62
     1
 10
-83.2088559850617031
 20
102.8887264174173026
 30
0.0
 40
10.4000000000011301
210
0.0
220
-0.0000000000000002
230
-1.0
 50
327.671935877839303
 51
358.6620051487176966
  0
ARC
  5
1222
  8
0
  6
VERDECKT
 62
     1
 10
-138.4088559850594891
 20
102.8887264174173026
 30
0.0
 40
10.4000000000011301
210
0.0
220
-0.0000000000000002
230
-1.0
 50
181.3379948512821898
 51
212.3280641221606118
  0
ARC
  5
1223
  8
0
  6
VERDECKT
 62
     1
 10
-59.199206355623879
 20
123.828195589128299
 30
0.0
 40
13.6096497490540198
210
0.0
220
-0.0000000000000002
230
-1.0
 50
158.8244420646024082
 51
179.9924035423638884
  0
ARC
  5
1224
  8
0
  6
VERDECKT
 62
     1
 10
-162.4185056144974908
 20
123.828195589128299
 30
0.0
 40
13.6096497490542205
210
0.0
220
-0.0000000000000002
230
-1.0
 50
0.0075964576361942
 51
21.1755579353973999
  0
ARC
  5
1225
  8
0
  6
VERDECKT
 62
     1
 10
-93.7088559850598699
 20
141.9510775928816031
 30
0.0
 40
23.3999999999992312
210
0.0
220
-0.0000000000000002
230
-1.0
 50
359.9999999999992042
 51
25.0000000000001315
  0
ARC
  5
1226
  8
0
  6
VERDECKT
 62
     1
 10
-127.908855985060498
 20
141.9510775928814894
 30
0.0
 40
23.4000000000001016
210
0.0
220
-0.0000000000000002
230
-1.0
 50
155.0000000000003979
 51
180.000000000000199
  0
LINE
  5
1227
  8
0
  6
VERDECKT
 62
     1
 10
148.8088559850606032
 20
152.5
 30
-0.0000000000000339
 11
149.1164582017183022
 21
151.8403449176136917
 31
-0.0000000000000337
210
0.0
220
1.0
230
-0.0000000000000002
  0
LINE
  5
1228
  8
0
  6
VERDECKT
 62
     1
 10
72.8088559850606316
 20
152.5
 30
-0.0000000000000339
 11
72.5012537684029894
 21
151.8403449176136917
 31
-0.0000000000000337
210
0.0
220
1.0
230
-0.0000000000000002
  0
ARC
  5
1229
  8
0
  6
VERDECKT
 62
     1
 10
-93.708855985061291
 20
141.9510775928808926
 30
0.0
 40
25.0000000000006715
210
0.0
220
-0.0000000000000002
230
-1.0
 50
0.0000000000010432
 51
24.958196312315831
  0
ARC
  5
122A
  8
0
  6
VERDECKT
 62
     1
 10
-127.9088559850597022
 20
141.9510775928808073
 30
0.0
 40
25.0000000000009592
210
0.0
220
-0.0000000000000002
230
-1.0
 50
155.0418036876841938
 51
179.9999999999986926
  0
LINE
  5
122B
  8
0
  6
VERDECKT
 62
     1
 10
162.8088559850606032
 20
79.5000000000000142
 30
-0.0000000000000177
 11
162.8088559850606032
 21
71.5000000000000142
 31
-0.0000000000000159
210
0.0
220
1.0
230
-0.0000000000000002
  0
LINE
  5
122C
  8
0
  6
VERDECKT
 62
     1
 10
58.8088559850606316
 20
79.5000000000000142
 30
-0.0000000000000177
 11
58.8088559850606316
 21
71.5000000000000142
 31
-0.0000000000000159
210
0.0
220
1.0
230
-0.0000000000000002
  0
LINE
  5
122D
  8
0
  6
VERDECKT
 62
     1
 10
61.3088559850606316
 20
138.5
 30
-0.0000000000000308
 11
160.3088559850606032
 21
138.5
 31
-0.0000000000000308
210
0.0
220
1.0
230
-0.0000000000000002
  0
ARC
  5
122E
  8
0
  6
VERDECKT
 62
     1
 10
-93.7088559850607936
 20
141.9510775928812052
 30
0.0
 40
25.0000000000000391
210
0.0
220
-0.0000000000000002
230
-1.0
 50
359.9999999999993179
 51
24.9581963123155006
  0
ARC
  5
122F
  8
0
  6
VERDECKT
 62
     1
 10
-127.9088559850599012
 20
141.9510775928810062
 30
0.0
 40
25.0000000000006288
210
0.0
220
-0.0000000000000002
230
-1.0
 50
155.0418036876847054
 51
180.000000000000199
  0
LINE
  5
1230
  8
0
  6
VERDECKT
 62
     1
 10
152.9088559850605122
 20
141.9510775928808926
 30
-0.0000000000000315
 11
152.9088559850605122
 21
138.5
 31
-0.0000000000000308
210
0.0
220
1.0
230
-0.0000000000000002
  0
LINE
  5
1231
  8
0
  6
VERDECKT
 62
     1
 10
68.7088559850607226
 20
141.9510775928808926
 30
-0.0000000000000315
 11
68.7088559850607226
 21
138.5
 31
-0.0000000000000308
210
0.0
220
1.0
230
-0.0000000000000002
  0
LINE
  5
1232
  8
0
  6
VERDECKT
 62
     1
 10
61.3088559850606316
 20
138.5
 30
-0.0000000000000308
 11
61.3088559850606316
 21
152.5
 31
-0.0000000000000339
210
0.0
220
1.0
230
-0.0000000000000002
  0
LINE
  5
1233
  8
0
  6
VERDECKT
 62
     1
 10
160.3088559850606032
 20
138.5
 30
-0.0000000000000308
 11
160.3088559850606032
 21
152.5
 31
-0.0000000000000339
210
0.0
220
1.0
230
-0.0000000000000002
  0
LINE
  5
1234
  8
0
  6
VERDECKT
 62
     1
 10
150.2088559850606941
 20
-101.5
 30
0.0000000000000225
 11
71.4088559850610949
 21
-101.4999999999995026
 31
0.0000000000000225
210
0.0
220
1.0
230
-0.0000000000000002
  0
LINE
  5
1235
  8
0
  6
VERDECKT
 62
     1
 10
160.3088559850608874
 20
-91.49999999999973
 30
0.0000000000000203
 11
61.3088559850609869
 21
-91.49999999999973
 31
0.0000000000000203
210
0.0
220
1.0
230
-0.0000000000000002
  0
LINE
  5
1236
  8
0
  6
VERDECKT
 62
     1
 10
74.3088559850614558
 20
-101.4999999999996021
 30
0.0000000000000225
 11
74.3088559850615127
 21
-91.4999999999995737
 31
0.0000000000000203
210
0.0
220
1.0
230
-0.0000000000000002
  0
LINE
  5
1237
  8
0
  6
VERDECKT
 62
     1
 10
147.3088559850604042
 20
-101.5
 30
0.0000000000000225
 11
147.3088559850604042
 21
-91.5000000000000142
 31
0.0000000000000203
210
0.0
220
1.0
230
-0.0000000000000002
  0
LINE
  5
1238
  8
0
  6
VERDECKT
 62
     1
 10
150.2088559850606941
 20
-101.5
 30
0.0000000000000225
 11
154.8276581385777888
 21
-109.5
 31
0.0000000000000243
210
0.0
220
1.0
230
-0.0000000000000002
  0
LINE
  5
1239
  8
0
  6
VERDECKT
 62
     1
 10
71.4088559850611091
 20
-101.4999999999995026
 30
0.0000000000000225
 11
66.7900538315439007
 21
-109.4999999999995026
 31
0.0000000000000243
210
0.0
220
1.0
230
-0.0000000000000002
  0
LINE
  5
123A
  8
0
  6
VERDECKT
 62
     1
 10
61.3088559850609727
 20
-107.4999999999997016
 30
0.0000000000000239
 11
61.3088559850609727
 21
-91.49999999999973
 31
0.0000000000000203
210
0.0
220
1.0
230
-0.0000000000000002
  0
LINE
  5
123B
  8
0
  6
VERDECKT
 62
     1
 10
160.3088559850608874
 20
-107.4999999999997016
 30
0.0000000000000239
 11
160.3088559850608874
 21
-91.49999999999973
 31
0.0000000000000203
210
0.0
220
1.0
230
-0.0000000000000002
  0
LINE
  5
123C
  8
0
  6
VERDECKT
 62
     1
 10
61.3088559850606316
 20
-107.5
 30
0.0000000000000239
 11
61.3088559850606316
 21
152.5
 31
-0.0000000000000339
210
0.0
220
1.0
230
-0.0000000000000002
  0
LINE
  5
123D
  8
0
  6
VERDECKT
 62
     1
 10
160.3088559850606032
 20
-107.5
 30
0.0000000000000239
 11
160.3088559850606032
 21
152.5
 31
-0.0000000000000339
210
0.0
220
1.0
230
-0.0000000000000002
  0
LINE
  5
123E
  8
0
  6
VERDECKT
 62
     1
 10
161.8088559850606032
 20
87.5000000000000284
 30
-0.0000000000000194
 11
161.8088559850606032
 21
71.5000000000000284
 31
-0.0000000000000159
210
0.0
220
1.0
230
-0.0000000000000002
  0
LINE
  5
123F
  8
0
  6
VERDECKT
 62
     1
 10
59.8088559850606316
 20
87.5000000000000284
 30
-0.0000000000000194
 11
59.8088559850606316
 21
71.5000000000000284
 31
-0.0000000000000159
210
0.0
220
1.0
230
-0.0000000000000002
  0
LINE
  5
1240
  8
0
  6
VERDECKT
 62
     1
 10
162.8088559850606032
 20
87.5000000000000142
 30
-0.0000000000000194
 11
162.8088559850606032
 21
79.5000000000000142
 31
-0.0000000000000177
210
0.0
220
1.0
230
-0.0000000000000002
  0
LINE
  5
1241
  8
0
  6
VERDECKT
 62
     1
 10
58.8088559850606316
 20
87.5000000000000142
 30
-0.0000000000000194
 11
58.8088559850606316
 21
79.5000000000000142
 31
-0.0000000000000177
210
0.0
220
1.0
230
-0.0000000000000002
  0
ENDBLK
  5
1243
  8
0
  0
ENDSEC
  0
SECTION
  2
ENTITIES
  0
TEXT
  5
8F
  8
VOLL
 10
78.076754716981128
 20
31.025947764705851
 30
0.0
 40
1.8
  1

  7
GREEKS
  0
INSERT
  5
A48
  8
ADSK_ASSOC_ENTITY_BACKUPS
  2
*S2
 10
0.0
 20
0.0
 30
0.0
  0
INSERT
  5
11D3
  8
STEMPEL
  2
A$C521F7727
 10
211.6563998818004109
 20
-280.7805161655451229
 30
-16.7221307127979415
  0
INSERT
  5
1244
  8
STEMPEL
  2
A$CCD71D3B2
 10
211.7111864137312978
 20
230.5498323754100056
 30
-16.7221307127979486
  0
VIEWPORT
  5
935
 67
     1
  8
0
 10
128.9787758655355958
 20
142.2077142791156064
 30
0.0
 40
533.9969448798290159
 41
299.1239570917758783
 68
     1
 69
     1
1001
ACAD
1000
MVIEW
1002
{
1070
    16
1010
0.0
1020
0.0
1030
0.0
1010
0.0
1020
0.0
1030
1.0
1040
0.0
1040
299.1239570917758783
1040
128.9787758655355958
1040
142.2077142791156064
1040
50.0
1040
0.0
1040
0.0
1070
     0
1070
  1500
1070
     1
1070
     1
1070
     0
1070
     0
1070
     0
1070
     0
1040
0.0
1040
0.0
1040
0.0
1040
10.0
1040
10.0
1040
10.0
1040
10.0
1070
     0
1002
{
1002
}
1002
}
  0
ENDSEC
  0
EOF
