  0
SECTION
  2
HEADER
  9
$ACADVER
  1
AC1009
  9
$INSBASE
 10
0.0
 20
0.0
 30
0.0
  9
$EXTMIN
 10
-122.571643746064197
 20
-295.0944177487137949
 30
-0.0000018439109351
  9
$EXTMAX
 10
122.5202651892768984
 20
330.0310185646936247
 30
0.0000000768832602
  9
$LIMMIN
 10
0.0
 20
0.0
  9
$LIMMAX
 10
419.9999999999998863
 20
594.0
  9
$ORTHOMODE
 70
     1
  9
$REGENMODE
 70
     1
  9
$FILLMODE
 70
     1
  9
$QTEXTMODE
 70
     0
  9
$MIRRTEXT
 70
     1
  9
$DRAGMODE
 70
     2
  9
$LTSCALE
 40
20.0
  9
$OSMODE
 70
  2559
  9
$ATTMODE
 70
     1
  9
$TEXTSIZE
 40
3.5
  9
$TRACEWID
 40
0.5
  9
$TEXTSTYLE
  7
STANDARD
  9
$CLAYER
  8
STEMPEL
  9
$CELTYPE
  6
BYLAYER
  9
$CECOLOR
 62
   256
  9
$DIMSCALE
 40
2.0
  9
$DIMASZ
 40
3.5
  9
$DIMEXO
 40
1.0
  9
$DIMDLI
 40
7.0
  9
$DIMRND
 40
0.0
  9
$DIMDLE
 40
0.0
  9
$DIMEXE
 40
1.0
  9
$DIMTP
 40
1.5
  9
$DIMTM
 40
0.000000001
  9
$DIMTXT
 40
3.5
  9
$DIMCEN
 40
1.5
  9
$DIMTSZ
 40
0.0
  9
$DIMTOL
 70
     0
  9
$DIMLIM
 70
     0
  9
$DIMTIH
 70
     0
  9
$DIMTOH
 70
     0
  9
$DIMSE1
 70
     0
  9
$DIMSE2
 70
     0
  9
$DIMTAD
 70
     1
  9
$DIMZIN
 70
     8
  9
$DIMBLK
  1

  9
$DIMASO
 70
     1
  9
$DIMSHO
 70
     0
  9
$DIMPOST
  1

  9
$DIMAPOST
  1

  9
$DIMALT
 70
     0
  9
$DIMALTD
 70
     2
  9
$DIMALTF
 40
25.3999999999999986
  9
$DIMLFAC
 40
1.0
  9
$DIMTOFL
 70
     1
  9
$DIMTVP
 40
0.0
  9
$DIMTIX
 70
     0
  9
$DIMSOXD
 70
     0
  9
$DIMSAH
 70
     0
  9
$DIMBLK1
  1

  9
$DIMBLK2
  1

  9
$DIMSTYLE
  2
STANDARD
  9
$DIMCLRD
 70
     0
  9
$DIMCLRE
 70
     0
  9
$DIMCLRT
 70
     1
  9
$DIMTFAC
 40
0.5
  9
$DIMGAP
 40
1.5
  9
$LUNITS
 70
     2
  9
$LUPREC
 70
     2
  9
$SKETCHINC
 40
1.0
  9
$FILLETRAD
 40
0.0
  9
$AUNITS
 70
     0
  9
$AUPREC
 70
     0
  9
$MENU
  1
ACAD
  9
$ELEVATION
 40
0.0
  9
$PELEVATION
 40
0.0
  9
$THICKNESS
 40
0.0
  9
$LIMCHECK
 70
     0
  9
$BLIPMODE
 70
     0
  9
$CHAMFERA
 40
0.0
  9
$CHAMFERB
 40
0.0
  9
$SKPOLY
 70
     0
  9
$TDCREATE
 40
2455397.8646990740671754
  9
$TDUPDATE
 40
2458389.6243750001303852
  9
$TDINDWG
 40
0.1297336921
  9
$TDUSRTIMER
 40
0.1297336921
  9
$USRTIMER
 70
     1
  9
$ANGBASE
 50
0.0
  9
$ANGDIR
 70
     0
  9
$PDMODE
 70
     0
  9
$PDSIZE
 40
0.0
  9
$PLINEWID
 40
0.0
  9
$COORDS
 70
     1
  9
$SPLFRAME
 70
     0
  9
$SPLINETYPE
 70
     6
  9
$SPLINESEGS
 70
     8
  9
$ATTDIA
 70
     1
  9
$ATTREQ
 70
     1
  9
$HANDLING
 70
     1
  9
$HANDSEED
  5
26EE
  9
$SURFTAB1
 70
     6
  9
$SURFTAB2
 70
     6
  9
$SURFTYPE
 70
     6
  9
$SURFU
 70
     6
  9
$SURFV
 70
     6
  9
$UCSNAME
  2

  9
$UCSORG
 10
0.0
 20
0.0
 30
0.0
  9
$UCSXDIR
 10
1.0
 20
0.0
 30
0.0
  9
$UCSYDIR
 10
0.0
 20
1.0
 30
0.0
  9
$PUCSNAME
  2

  9
$PUCSORG
 10
0.0
 20
0.0
 30
0.0
  9
$PUCSXDIR
 10
1.0
 20
0.0
 30
0.0
  9
$PUCSYDIR
 10
0.0
 20
1.0
 30
0.0
  9
$USERI1
 70
     0
  9
$USERI2
 70
     0
  9
$USERI3
 70
     0
  9
$USERI4
 70
     0
  9
$USERI5
 70
     0
  9
$USERR1
 40
0.0
  9
$USERR2
 40
0.0
  9
$USERR3
 40
0.0
  9
$USERR4
 40
0.0
  9
$USERR5
 40
0.0
  9
$WORLDVIEW
 70
     1
  9
$SHADEDGE
 70
     3
  9
$SHADEDIF
 70
    70
  9
$TILEMODE
 70
     1
  9
$MAXACTVP
 70
    16
  9
$PLIMCHECK
 70
     0
  9
$PEXTMIN
 10
-0.1890718712180117
 20
-0.1350719987210702
 30
-0.0000000000000058
  9
$PEXTMAX
 10
10.0227198969744702
 20
14.4325514075293597
 30
0.0000000000000104
  9
$PLIMMIN
 10
-0.2500002402958907
 20
-0.2499999962453767
  9
$PLIMMAX
 10
10.7499995194082203
 20
8.2499997634587334
  9
$UNITMODE
 70
     0
  9
$VISRETAIN
 70
     0
  9
$PLINEGEN
 70
     0
  9
$PSLTSCALE
 70
     0
  0
ENDSEC
  0
SECTION
  2
TABLES
  0
TABLE
  2
VPORT
 70
     1
  0
VPORT
  2
*ACTIVE
 70
     0
 10
0.0
 20
0.0
 11
1.0
 21
1.0
 12
-0.0064250572021933
 22
-86.2763361276546448
 13
0.0
 23
0.0
 14
1.0
 24
1.0
 15
10.0
 25
10.0
 16
-0.0000000000002939
 26
0.0
 36
1323.3851257656299367
 17
-0.0192642211914063
 27
103.7446365356445028
 37
-0.000000000000023
 40
628.3121420210371753
 41
1.868197278911564
 42
50.0
 43
0.0
 44
0.0
 50
0.0
 51
0.0
 71
     0
 72
  1500
 73
     1
 74
     0
 75
     0
 76
     0
 77
     0
 78
     0
  0
ENDTAB
  0
TABLE
  2
LTYPE
 70
     3
  0
LTYPE
  2
CONTINUOUS
 70
     0
  3
Solid line
 72
    65
 73
     0
 40
0.0
  0
LTYPE
  2
PHANTOM2
 70
     0
  3
Phantom (.5x) ___ _ _ ___ _ _ ___ _ _ ___ _ _
 72
    65
 73
     6
 40
1.25
 49
0.625
 49
-0.125
 49
0.125
 49
-0.125
 49
0.125
 49
-0.125
  0
LTYPE
  2
VERDECKT
 70
     0
  3
_ _ _ _ _ _ _ _ _ _ _ _ _ _ _ _ _ _ _ _ _ _ _
 72
    65
 73
     2
 40
0.375
 49
0.25
 49
-0.125
  0
ENDTAB
  0
TABLE
  2
LAYER
 70
     6
  0
LAYER
  2
0
 70
     0
 62
     7
  6
CONTINUOUS
  0
LAYER
  2
VOLL
 70
     0
 62
     1
  6
CONTINUOUS
  0
LAYER
  2
BEM
 70
     0
 62
     7
  6
CONTINUOUS
  0
LAYER
  2
STEMPEL
 70
     0
 62
     3
  6
CONTINUOUS
  0
LAYER
  2
TEXT
 70
     0
 62
     7
  6
CONTINUOUS
  0
LAYER
  2
DEFPOINTS
 70
     0
 62
     7
  6
CONTINUOUS
  0
ENDTAB
  0
TABLE
  2
STYLE
 70
     2
  0
STYLE
  2
STANDARD
 70
     0
 40
0.0
 41
0.8
 50
0.0
 71
     0
 42
3.5
  3
simplex.shx
  4

  0
STYLE
  2
GREEKS
 70
     0
 40
0.0
 41
0.8
 50
0.0
 71
     0
 42
2.5
  3
SIMPLEX.shx
  4

  0
ENDTAB
  0
TABLE
  2
VIEW
 70
     0
  0
ENDTAB
  0
TABLE
  2
UCS
 70
     0
  0
ENDTAB
  0
TABLE
  2
APPID
 70
    10
  0
APPID
  2
ACAD
 70
     0
  0
APPID
  2
ACAD_NAV_VCDISPLAY
 70
     0
  0
APPID
  2
ACAD_EXEMPT_FROM_CAD_STANDARDS
 70
     0
  0
APPID
  2
ACAD_MLEADERVER
 70
     0
  0
APPID
  2
ACAD_PSEXT
 70
     0
  0
APPID
  2
ACAD_DSTYLE_DIMJAG
 70
     0
  0
APPID
  2
ACAD_DSTYLE_DIMTALN
 70
     0
  0
APPID
  2
ACAECLAYERSTANDARD
 70
     0
  0
APPID
  2
ACCMTRANSPARENCY
 70
     0
  0
APPID
  2
ACAD_OBJECT_CHANGE_GUID
 70
     0
  0
ENDTAB
  0
TABLE
  2
DIMSTYLE
 70
     1
  0
DIMSTYLE
  2
STANDARD
 70
     0
  3

  4

  5

  6

  7

 40
1.0
 41
0.18
 42
0.0625
 43
0.38
 44
0.18
 45
0.0
 46
0.0
 47
0.0
 48
0.0
140
0.18
141
0.09
142
0.0
143
25.3999999999999986
144
1.0
145
0.0
146
1.0
147
0.09
 71
     0
 72
     0
 73
     1
 74
     1
 75
     0
 76
     0
 77
     0
 78
     0
170
     0
171
     2
172
     0
173
     0
174
     0
175
     0
176
     0
177
     0
178
     0
  0
ENDTAB
  0
ENDSEC
  0
SECTION
  2
BLOCKS
  0
BLOCK
  8
0
  2
$MODEL_SPACE
 70
     0
 10
0.0
 20
0.0
 30
0.0
  3
$MODEL_SPACE
  1

  0
ENDBLK
  5
36
  8
0
  0
BLOCK
 67
     1
  8
0
  2
$PAPER_SPACE
 70
     0
 10
0.0
 20
0.0
 30
0.0
  3
$PAPER_SPACE
  1

  0
ENDBLK
  5
34
 67
     1
  8
0
  0
BLOCK
  8
0
  2
A$C2B3D6D54
 70
     0
 10
0.0
 20
0.0
 30
0.0
  3
A$C2B3D6D54
  1

  0
POLYLINE
  5
2415
  8
0
  6
CONTINUOUS
 62
     3
 10
122.5000000000000284
 20
-0.0000000000000716
 30
0.0000000000000245
 66
     1
 70
     8
  0
VERTEX
  8
0
  5
24E6
 10
122.500
 20
-7.16114e-14
 30
2.45035e-14
  70
    32
  0
VERTEX
  8
0
  5
24E7
 10
122.352
 20
-6.01166
 30
2.44740e-14
  70
    32
  0
VERTEX
  8
0
  5
24E8
 10
121.910
 20
-12.0088
 30
2.43855e-14
  70
    32
  0
VERTEX
  8
0
  5
24E9
 10
121.174
 20
-17.9771
 30
2.42383e-14
  70
    32
  0
VERTEX
  8
0
  5
24EA
 10
120.146
 20
-23.9020
 30
2.40327e-14
  70
    32
  0
VERTEX
  8
0
  5
24EB
 10
118.828
 20
-29.7694
 30
2.37692e-14
  70
    32
  0
VERTEX
  8
0
  5
24EC
 10
117.224
 20
-35.5650
 30
2.34484e-14
  70
    32
  0
VERTEX
  8
0
  5
24ED
 10
115.338
 20
-41.2750
 30
2.30712e-14
  70
    32
  0
VERTEX
  8
0
  5
24EE
 10
113.174
 20
-46.8855
 30
2.26383e-14
  70
    32
  0
VERTEX
  8
0
  5
24EF
 10
110.737
 20
-52.3831
 30
2.21509e-14
  70
    32
  0
VERTEX
  8
0
  5
24F0
 10
108.033
 20
-57.7544
 30
2.16102e-14
  70
    32
  0
VERTEX
  8
0
  5
24F1
 10
105.069
 20
-62.9867
 30
2.10174e-14
  70
    32
  0
VERTEX
  8
0
  5
24F2
 10
101.852
 20
-68.0672
 30
2.03739e-14
  70
    32
  0
VERTEX
  8
0
  5
24F3
 10
98.3894
 20
-72.9837
 30
1.96814e-14
  70
    32
  0
VERTEX
  8
0
  5
24F4
 10
94.6898
 20
-77.7244
 30
1.89415e-14
  70
    32
  0
VERTEX
  8
0
  5
24F5
 10
90.7619
 20
-82.2779
 30
1.81559e-14
  70
    32
  0
VERTEX
  8
0
  5
24F6
 10
86.6154
 20
-86.6331
 30
1.73266e-14
  70
    32
  0
VERTEX
  8
0
  5
24F7
 10
82.2602
 20
-90.7796
 30
1.64556e-14
  70
    32
  0
VERTEX
  8
0
  5
24F8
 10
77.7067
 20
-94.7075
 30
1.55449e-14
  70
    32
  0
VERTEX
  8
0
  5
24F9
 10
72.9660
 20
-98.4071
 30
1.45967e-14
  70
    32
  0
VERTEX
  8
0
  5
24FA
 10
68.0495
 20
-101.870
 30
1.36134e-14
  70
    32
  0
VERTEX
  8
0
  5
24FB
 10
62.9690
 20
-105.087
 30
1.25973e-14
  70
    32
  0
VERTEX
  8
0
  5
24FC
 10
57.7367
 20
-108.051
 30
1.15509e-14
  70
    32
  0
VERTEX
  8
0
  5
24FD
 10
52.3654
 20
-110.755
 30
1.04766e-14
  70
    32
  0
VERTEX
  8
0
  5
24FE
 10
46.8678
 20
-113.192
 30
9.37710e-15
  70
    32
  0
VERTEX
  8
0
  5
24FF
 10
41.2573
 20
-115.356
 30
8.25499e-15
  70
    32
  0
VERTEX
  8
0
  5
2500
 10
35.5473
 20
-117.242
 30
7.11300e-15
  70
    32
  0
VERTEX
  8
0
  5
2501
 10
29.7517
 20
-118.846
 30
5.95387e-15
  70
    32
  0
VERTEX
  8
0
  5
2502
 10
23.8843
 20
-120.164
 30
4.78040e-15
  70
    32
  0
VERTEX
  8
0
  5
2503
 10
17.9594
 20
-121.192
 30
3.59542e-15
  70
    32
  0
VERTEX
  8
0
  5
2504
 10
11.9911
 20
-121.928
 30
2.40177e-15
  70
    32
  0
VERTEX
  8
0
  5
2505
 10
5.99397
 20
-122.370
 30
1.20233e-15
  70
    32
  0
VERTEX
  8
0
  5
2506
 10
-0.0176928
 20
-122.518
 30
-1.63226e-29
  70
    32
  0
VERTEX
  8
0
  5
2507
 10
-6.02935
 20
-122.370
 30
-1.20233e-15
  70
    32
  0
VERTEX
  8
0
  5
2508
 10
-12.0265
 20
-121.928
 30
-2.40177e-15
  70
    32
  0
VERTEX
  8
0
  5
2509
 10
-17.9948
 20
-121.192
 30
-3.59542e-15
  70
    32
  0
VERTEX
  8
0
  5
250A
 10
-23.9197
 20
-120.164
 30
-4.78040e-15
  70
    32
  0
VERTEX
  8
0
  5
250B
 10
-29.7871
 20
-118.846
 30
-5.95387e-15
  70
    32
  0
VERTEX
  8
0
  5
250C
 10
-35.5827
 20
-117.242
 30
-7.11300e-15
  70
    32
  0
VERTEX
  8
0
  5
250D
 10
-41.2927
 20
-115.356
 30
-8.25499e-15
  70
    32
  0
VERTEX
  8
0
  5
250E
 10
-46.9032
 20
-113.192
 30
-9.37710e-15
  70
    32
  0
VERTEX
  8
0
  5
250F
 10
-52.4008
 20
-110.755
 30
-1.04766e-14
  70
    32
  0
VERTEX
  8
0
  5
2510
 10
-57.7721
 20
-108.051
 30
-1.15509e-14
  70
    32
  0
VERTEX
  8
0
  5
2511
 10
-63.0044
 20
-105.087
 30
-1.25973e-14
  70
    32
  0
VERTEX
  8
0
  5
2512
 10
-68.0849
 20
-101.870
 30
-1.36134e-14
  70
    32
  0
VERTEX
  8
0
  5
2513
 10
-73.0014
 20
-98.4071
 30
-1.45967e-14
  70
    32
  0
VERTEX
  8
0
  5
2514
 10
-77.7421
 20
-94.7075
 30
-1.55449e-14
  70
    32
  0
VERTEX
  8
0
  5
2515
 10
-82.2955
 20
-90.7796
 30
-1.64556e-14
  70
    32
  0
VERTEX
  8
0
  5
2516
 10
-86.6508
 20
-86.6331
 30
-1.73266e-14
  70
    32
  0
VERTEX
  8
0
  5
2517
 10
-90.7973
 20
-82.2779
 30
-1.81559e-14
  70
    32
  0
VERTEX
  8
0
  5
2518
 10
-94.7252
 20
-77.7244
 30
-1.89415e-14
  70
    32
  0
VERTEX
  8
0
  5
2519
 10
-98.4248
 20
-72.9837
 30
-1.96814e-14
  70
    32
  0
VERTEX
  8
0
  5
251A
 10
-101.887
 20
-68.0672
 30
-2.03739e-14
  70
    32
  0
VERTEX
  8
0
  5
251B
 10
-105.105
 20
-62.9867
 30
-2.10174e-14
  70
    32
  0
VERTEX
  8
0
  5
251C
 10
-108.069
 20
-57.7544
 30
-2.16102e-14
  70
    32
  0
VERTEX
  8
0
  5
251D
 10
-110.772
 20
-52.3831
 30
-2.21509e-14
  70
    32
  0
VERTEX
  8
0
  5
251E
 10
-113.209
 20
-46.8855
 30
-2.26383e-14
  70
    32
  0
VERTEX
  8
0
  5
251F
 10
-115.373
 20
-41.2750
 30
-2.30712e-14
  70
    32
  0
VERTEX
  8
0
  5
2520
 10
-117.260
 20
-35.5650
 30
-2.34484e-14
  70
    32
  0
VERTEX
  8
0
  5
2521
 10
-118.864
 20
-29.7694
 30
-2.37692e-14
  70
    32
  0
VERTEX
  8
0
  5
2522
 10
-120.181
 20
-23.9020
 30
-2.40327e-14
  70
    32
  0
VERTEX
  8
0
  5
2523
 10
-121.209
 20
-17.9771
 30
-2.42383e-14
  70
    32
  0
VERTEX
  8
0
  5
2524
 10
-121.945
 20
-12.0088
 30
-2.43855e-14
  70
    32
  0
VERTEX
  8
0
  5
2525
 10
-122.388
 20
-6.01166
 30
-2.44740e-14
  70
    32
  0
VERTEX
  8
0
  5
2526
 10
-122.535
 20
8.88111e-14
 30
-2.45035e-14
  70
    32
  0
VERTEX
  8
0
  5
2527
 10
-122.388
 20
6.01166
 30
-2.44740e-14
  70
    32
  0
VERTEX
  8
0
  5
2528
 10
-121.945
 20
12.0088
 30
-2.43855e-14
  70
    32
  0
VERTEX
  8
0
  5
2529
 10
-121.209
 20
17.9771
 30
-2.42383e-14
  70
    32
  0
VERTEX
  8
0
  5
252A
 10
-120.181
 20
23.9020
 30
-2.40327e-14
  70
    32
  0
VERTEX
  8
0
  5
252B
 10
-118.864
 20
29.7694
 30
-2.37692e-14
  70
    32
  0
VERTEX
  8
0
  5
252C
 10
-117.260
 20
35.5650
 30
-2.34484e-14
  70
    32
  0
VERTEX
  8
0
  5
252D
 10
-115.373
 20
41.2750
 30
-2.30712e-14
  70
    32
  0
VERTEX
  8
0
  5
252E
 10
-113.209
 20
46.8855
 30
-2.26383e-14
  70
    32
  0
VERTEX
  8
0
  5
252F
 10
-110.772
 20
52.3831
 30
-2.21509e-14
  70
    32
  0
VERTEX
  8
0
  5
2530
 10
-108.069
 20
57.7544
 30
-2.16102e-14
  70
    32
  0
VERTEX
  8
0
  5
2531
 10
-105.105
 20
62.9867
 30
-2.10174e-14
  70
    32
  0
VERTEX
  8
0
  5
2532
 10
-101.887
 20
68.0672
 30
-2.03739e-14
  70
    32
  0
VERTEX
  8
0
  5
2533
 10
-98.4248
 20
72.9837
 30
-1.96814e-14
  70
    32
  0
VERTEX
  8
0
  5
2534
 10
-94.7252
 20
77.7244
 30
-1.89415e-14
  70
    32
  0
VERTEX
  8
0
  5
2535
 10
-90.7973
 20
82.2779
 30
-1.81559e-14
  70
    32
  0
VERTEX
  8
0
  5
2536
 10
-86.6508
 20
86.6331
 30
-1.73266e-14
  70
    32
  0
VERTEX
  8
0
  5
2537
 10
-82.2955
 20
90.7796
 30
-1.64556e-14
  70
    32
  0
VERTEX
  8
0
  5
2538
 10
-77.7421
 20
94.7075
 30
-1.55449e-14
  70
    32
  0
VERTEX
  8
0
  5
2539
 10
-73.0014
 20
98.4071
 30
-1.45967e-14
  70
    32
  0
VERTEX
  8
0
  5
253A
 10
-68.0849
 20
101.870
 30
-1.36134e-14
  70
    32
  0
VERTEX
  8
0
  5
253B
 10
-63.0044
 20
105.087
 30
-1.25973e-14
  70
    32
  0
VERTEX
  8
0
  5
253C
 10
-57.7721
 20
108.051
 30
-1.15509e-14
  70
    32
  0
VERTEX
  8
0
  5
253D
 10
-52.4008
 20
110.755
 30
-1.04766e-14
  70
    32
  0
VERTEX
  8
0
  5
253E
 10
-46.9032
 20
113.192
 30
-9.37710e-15
  70
    32
  0
VERTEX
  8
0
  5
253F
 10
-41.2927
 20
115.356
 30
-8.25499e-15
  70
    32
  0
VERTEX
  8
0
  5
2540
 10
-35.5827
 20
117.242
 30
-7.11300e-15
  70
    32
  0
VERTEX
  8
0
  5
2541
 10
-29.7871
 20
118.846
 30
-5.95387e-15
  70
    32
  0
VERTEX
  8
0
  5
2542
 10
-23.9197
 20
120.164
 30
-4.78040e-15
  70
    32
  0
VERTEX
  8
0
  5
2543
 10
-17.9948
 20
121.192
 30
-3.59542e-15
  70
    32
  0
VERTEX
  8
0
  5
2544
 10
-12.0265
 20
121.928
 30
-2.40177e-15
  70
    32
  0
VERTEX
  8
0
  5
2545
 10
-6.02935
 20
122.370
 30
-1.20233e-15
  70
    32
  0
VERTEX
  8
0
  5
2546
 10
-0.0176928
 20
122.518
 30
1.87627e-29
  70
    32
  0
VERTEX
  8
0
  5
2547
 10
5.99397
 20
122.370
 30
1.20233e-15
  70
    32
  0
VERTEX
  8
0
  5
2548
 10
11.9911
 20
121.928
 30
2.40177e-15
  70
    32
  0
VERTEX
  8
0
  5
2549
 10
17.9594
 20
121.192
 30
3.59542e-15
  70
    32
  0
VERTEX
  8
0
  5
254A
 10
23.8843
 20
120.164
 30
4.78040e-15
  70
    32
  0
VERTEX
  8
0
  5
254B
 10
29.7517
 20
118.846
 30
5.95387e-15
  70
    32
  0
VERTEX
  8
0
  5
254C
 10
35.5473
 20
117.242
 30
7.11300e-15
  70
    32
  0
VERTEX
  8
0
  5
254D
 10
41.2573
 20
115.356
 30
8.25499e-15
  70
    32
  0
VERTEX
  8
0
  5
254E
 10
46.8678
 20
113.192
 30
9.37710e-15
  70
    32
  0
VERTEX
  8
0
  5
254F
 10
52.3654
 20
110.755
 30
1.04766e-14
  70
    32
  0
VERTEX
  8
0
  5
2550
 10
57.7367
 20
108.051
 30
1.15509e-14
  70
    32
  0
VERTEX
  8
0
  5
2551
 10
62.9690
 20
105.087
 30
1.25973e-14
  70
    32
  0
VERTEX
  8
0
  5
2552
 10
68.0495
 20
101.870
 30
1.36134e-14
  70
    32
  0
VERTEX
  8
0
  5
2553
 10
72.9660
 20
98.4071
 30
1.45967e-14
  70
    32
  0
VERTEX
  8
0
  5
2554
 10
77.7067
 20
94.7075
 30
1.55449e-14
  70
    32
  0
VERTEX
  8
0
  5
2555
 10
82.2602
 20
90.7796
 30
1.64556e-14
  70
    32
  0
VERTEX
  8
0
  5
2556
 10
86.6154
 20
86.6331
 30
1.73266e-14
  70
    32
  0
VERTEX
  8
0
  5
2557
 10
90.7619
 20
82.2779
 30
1.81559e-14
  70
    32
  0
VERTEX
  8
0
  5
2558
 10
94.6898
 20
77.7244
 30
1.89415e-14
  70
    32
  0
VERTEX
  8
0
  5
2559
 10
98.3894
 20
72.9837
 30
1.96814e-14
  70
    32
  0
VERTEX
  8
0
  5
255A
 10
101.852
 20
68.0672
 30
2.03739e-14
  70
    32
  0
VERTEX
  8
0
  5
255B
 10
105.069
 20
62.9867
 30
2.10174e-14
  70
    32
  0
VERTEX
  8
0
  5
255C
 10
108.033
 20
57.7544
 30
2.16102e-14
  70
    32
  0
VERTEX
  8
0
  5
255D
 10
110.737
 20
52.3831
 30
2.21509e-14
  70
    32
  0
VERTEX
  8
0
  5
255E
 10
113.174
 20
46.8855
 30
2.26383e-14
  70
    32
  0
VERTEX
  8
0
  5
255F
 10
115.338
 20
41.2750
 30
2.30712e-14
  70
    32
  0
VERTEX
  8
0
  5
2560
 10
117.224
 20
35.5650
 30
2.34484e-14
  70
    32
  0
VERTEX
  8
0
  5
2561
 10
118.828
 20
29.7694
 30
2.37692e-14
  70
    32
  0
VERTEX
  8
0
  5
2562
 10
120.146
 20
23.9020
 30
2.40327e-14
  70
    32
  0
VERTEX
  8
0
  5
2563
 10
121.174
 20
17.9771
 30
2.42383e-14
  70
    32
  0
VERTEX
  8
0
  5
2564
 10
121.910
 20
12.0088
 30
2.43855e-14
  70
    32
  0
VERTEX
  8
0
  5
2565
 10
122.352
 20
6.01166
 30
2.44740e-14
  70
    32
  0
VERTEX
  8
0
  5
2566
 10
122.500
 20
-7.16114e-14
 30
2.45035e-14
  70
    32
  0
SEQEND
  8
0
  5
2567
  0
POLYLINE
  5
2416
  8
0
  6
CONTINUOUS
 62
     3
 10
122.5000000000000142
 20
-0.0000000000000721
 30
0.0000000000000245
 66
     1
 70
     8
  0
VERTEX
  8
0
  5
2568
 10
122.500
 20
-7.21125e-14
 30
2.45039e-14
  70
    32
  0
VERTEX
  8
0
  5
2569
 10
122.352
 20
-6.01174
 30
2.44743e-14
  70
    32
  0
VERTEX
  8
0
  5
256A
 10
121.910
 20
-12.0090
 30
2.43859e-14
  70
    32
  0
VERTEX
  8
0
  5
256B
 10
121.174
 20
-17.9773
 30
2.42386e-14
  70
    32
  0
VERTEX
  8
0
  5
256C
 10
120.146
 20
-23.9023
 30
2.40330e-14
  70
    32
  0
VERTEX
  8
0
  5
256D
 10
118.828
 20
-29.7698
 30
2.37695e-14
  70
    32
  0
VERTEX
  8
0
  5
256E
 10
117.224
 20
-35.5655
 30
2.34487e-14
  70
    32
  0
VERTEX
  8
0
  5
256F
 10
115.338
 20
-41.2755
 30
2.30715e-14
  70
    32
  0
VERTEX
  8
0
  5
2570
 10
113.174
 20
-46.8861
 30
2.26386e-14
  70
    32
  0
VERTEX
  8
0
  5
2571
 10
110.737
 20
-52.3837
 30
2.21512e-14
  70
    32
  0
VERTEX
  8
0
  5
2572
 10
108.033
 20
-57.7552
 30
2.16105e-14
  70
    32
  0
VERTEX
  8
0
  5
2573
 10
105.069
 20
-62.9875
 30
2.10177e-14
  70
    32
  0
VERTEX
  8
0
  5
2574
 10
101.852
 20
-68.0681
 30
2.03742e-14
  70
    32
  0
VERTEX
  8
0
  5
2575
 10
98.3891
 20
-72.9846
 30
1.96817e-14
  70
    32
  0
VERTEX
  8
0
  5
2576
 10
94.6894
 20
-77.7254
 30
1.89417e-14
  70
    32
  0
VERTEX
  8
0
  5
2577
 10
90.7615
 20
-82.2789
 30
1.81562e-14
  70
    32
  0
VERTEX
  8
0
  5
2578
 10
86.6149
 20
-86.6342
 30
1.73268e-14
  70
    32
  0
VERTEX
  8
0
  5
2579
 10
82.2596
 20
-90.7808
 30
1.64558e-14
  70
    32
  0
VERTEX
  8
0
  5
257A
 10
77.7061
 20
-94.7087
 30
1.55451e-14
  70
    32
  0
VERTEX
  8
0
  5
257B
 10
72.9654
 20
-98.4084
 30
1.45969e-14
  70
    32
  0
VERTEX
  8
0
  5
257C
 10
68.0488
 20
-101.871
 30
1.36136e-14
  70
    32
  0
VERTEX
  8
0
  5
257D
 10
62.9682
 20
-105.088
 30
1.25975e-14
  70
    32
  0
VERTEX
  8
0
  5
257E
 10
57.7359
 20
-108.052
 30
1.15510e-14
  70
    32
  0
VERTEX
  8
0
  5
257F
 10
52.3645
 20
-110.756
 30
1.04767e-14
  70
    32
  0
VERTEX
  8
0
  5
2580
 10
46.8668
 20
-113.193
 30
9.37722e-15
  70
    32
  0
VERTEX
  8
0
  5
2581
 10
41.2562
 20
-115.357
 30
8.25510e-15
  70
    32
  0
VERTEX
  8
0
  5
2582
 10
35.5462
 20
-117.244
 30
7.11309e-15
  70
    32
  0
VERTEX
  8
0
  5
2583
 10
29.7505
 20
-118.848
 30
5.95395e-15
  70
    32
  0
VERTEX
  8
0
  5
2584
 10
23.8831
 20
-120.165
 30
4.78046e-15
  70
    32
  0
VERTEX
  8
0
  5
2585
 10
17.9580
 20
-121.193
 30
3.59546e-15
  70
    32
  0
VERTEX
  8
0
  5
2586
 10
11.9897
 20
-121.929
 30
2.40180e-15
  70
    32
  0
VERTEX
  8
0
  5
2587
 10
5.99247
 20
-122.372
 30
1.20235e-15
  70
    32
  0
VERTEX
  8
0
  5
2588
 10
-0.0192659
 20
-122.519
 30
-1.63228e-29
  70
    32
  0
VERTEX
  8
0
  5
2589
 10
-6.03100
 20
-122.372
 30
-1.20235e-15
  70
    32
  0
VERTEX
  8
0
  5
258A
 10
-12.0283
 20
-121.929
 30
-2.40180e-15
  70
    32
  0
VERTEX
  8
0
  5
258B
 10
-17.9966
 20
-121.193
 30
-3.59546e-15
  70
    32
  0
VERTEX
  8
0
  5
258C
 10
-23.9216
 20
-120.165
 30
-4.78046e-15
  70
    32
  0
VERTEX
  8
0
  5
258D
 10
-29.7890
 20
-118.848
 30
-5.95395e-15
  70
    32
  0
VERTEX
  8
0
  5
258E
 10
-35.5847
 20
-117.244
 30
-7.11309e-15
  70
    32
  0
VERTEX
  8
0
  5
258F
 10
-41.2948
 20
-115.357
 30
-8.25510e-15
  70
    32
  0
VERTEX
  8
0
  5
2590
 10
-46.9054
 20
-113.193
 30
-9.37722e-15
  70
    32
  0
VERTEX
  8
0
  5
2591
 10
-52.4030
 20
-110.756
 30
-1.04767e-14
  70
    32
  0
VERTEX
  8
0
  5
2592
 10
-57.7744
 20
-108.052
 30
-1.15510e-14
  70
    32
  0
VERTEX
  8
0
  5
2593
 10
-63.0068
 20
-105.088
 30
-1.25975e-14
  70
    32
  0
VERTEX
  8
0
  5
2594
 10
-68.0873
 20
-101.871
 30
-1.36136e-14
  70
    32
  0
VERTEX
  8
0
  5
2595
 10
-73.0039
 20
-98.4084
 30
-1.45969e-14
  70
    32
  0
VERTEX
  8
0
  5
2596
 10
-77.7447
 20
-94.7087
 30
-1.55451e-14
  70
    32
  0
VERTEX
  8
0
  5
2597
 10
-82.2982
 20
-90.7808
 30
-1.64558e-14
  70
    32
  0
VERTEX
  8
0
  5
2598
 10
-86.6535
 20
-86.6342
 30
-1.73268e-14
  70
    32
  0
VERTEX
  8
0
  5
2599
 10
-90.8001
 20
-82.2789
 30
-1.81562e-14
  70
    32
  0
VERTEX
  8
0
  5
259A
 10
-94.7279
 20
-77.7254
 30
-1.89417e-14
  70
    32
  0
VERTEX
  8
0
  5
259B
 10
-98.4277
 20
-72.9846
 30
-1.96817e-14
  70
    32
  0
VERTEX
  8
0
  5
259C
 10
-101.890
 20
-68.0681
 30
-2.03742e-14
  70
    32
  0
VERTEX
  8
0
  5
259D
 10
-105.108
 20
-62.9875
 30
-2.10177e-14
  70
    32
  0
VERTEX
  8
0
  5
259E
 10
-108.072
 20
-57.7552
 30
-2.16105e-14
  70
    32
  0
VERTEX
  8
0
  5
259F
 10
-110.775
 20
-52.3837
 30
-2.21512e-14
  70
    32
  0
VERTEX
  8
0
  5
25A0
 10
-113.212
 20
-46.8861
 30
-2.26386e-14
  70
    32
  0
VERTEX
  8
0
  5
25A1
 10
-115.377
 20
-41.2755
 30
-2.30715e-14
  70
    32
  0
VERTEX
  8
0
  5
25A2
 10
-117.263
 20
-35.5655
 30
-2.34487e-14
  70
    32
  0
VERTEX
  8
0
  5
25A3
 10
-118.867
 20
-29.7698
 30
-2.37695e-14
  70
    32
  0
VERTEX
  8
0
  5
25A4
 10
-120.184
 20
-23.9023
 30
-2.40330e-14
  70
    32
  0
VERTEX
  8
0
  5
25A5
 10
-121.212
 20
-17.9773
 30
-2.42386e-14
  70
    32
  0
VERTEX
  8
0
  5
25A6
 10
-121.949
 20
-12.0090
 30
-2.43859e-14
  70
    32
  0
VERTEX
  8
0
  5
25A7
 10
-122.391
 20
-6.01174
 30
-2.44743e-14
  70
    32
  0
VERTEX
  8
0
  5
25A8
 10
-122.539
 20
8.83121e-14
 30
-2.45039e-14
  70
    32
  0
VERTEX
  8
0
  5
25A9
 10
-122.391
 20
6.01174
 30
-2.44743e-14
  70
    32
  0
VERTEX
  8
0
  5
25AA
 10
-121.949
 20
12.0090
 30
-2.43859e-14
  70
    32
  0
VERTEX
  8
0
  5
25AB
 10
-121.212
 20
17.9773
 30
-2.42386e-14
  70
    32
  0
VERTEX
  8
0
  5
25AC
 10
-120.184
 20
23.9023
 30
-2.40330e-14
  70
    32
  0
VERTEX
  8
0
  5
25AD
 10
-118.867
 20
29.7698
 30
-2.37695e-14
  70
    32
  0
VERTEX
  8
0
  5
25AE
 10
-117.263
 20
35.5655
 30
-2.34487e-14
  70
    32
  0
VERTEX
  8
0
  5
25AF
 10
-115.377
 20
41.2755
 30
-2.30715e-14
  70
    32
  0
VERTEX
  8
0
  5
25B0
 10
-113.212
 20
46.8861
 30
-2.26386e-14
  70
    32
  0
VERTEX
  8
0
  5
25B1
 10
-110.775
 20
52.3837
 30
-2.21512e-14
  70
    32
  0
VERTEX
  8
0
  5
25B2
 10
-108.072
 20
57.7552
 30
-2.16105e-14
  70
    32
  0
VERTEX
  8
0
  5
25B3
 10
-105.108
 20
62.9875
 30
-2.10177e-14
  70
    32
  0
VERTEX
  8
0
  5
25B4
 10
-101.890
 20
68.0681
 30
-2.03742e-14
  70
    32
  0
VERTEX
  8
0
  5
25B5
 10
-98.4277
 20
72.9846
 30
-1.96817e-14
  70
    32
  0
VERTEX
  8
0
  5
25B6
 10
-94.7279
 20
77.7254
 30
-1.89417e-14
  70
    32
  0
VERTEX
  8
0
  5
25B7
 10
-90.8001
 20
82.2789
 30
-1.81562e-14
  70
    32
  0
VERTEX
  8
0
  5
25B8
 10
-86.6535
 20
86.6342
 30
-1.73268e-14
  70
    32
  0
VERTEX
  8
0
  5
25B9
 10
-82.2982
 20
90.7808
 30
-1.64558e-14
  70
    32
  0
VERTEX
  8
0
  5
25BA
 10
-77.7447
 20
94.7087
 30
-1.55451e-14
  70
    32
  0
VERTEX
  8
0
  5
25BB
 10
-73.0039
 20
98.4084
 30
-1.45969e-14
  70
    32
  0
VERTEX
  8
0
  5
25BC
 10
-68.0873
 20
101.871
 30
-1.36136e-14
  70
    32
  0
VERTEX
  8
0
  5
25BD
 10
-63.0068
 20
105.088
 30
-1.25975e-14
  70
    32
  0
VERTEX
  8
0
  5
25BE
 10
-57.7744
 20
108.052
 30
-1.15510e-14
  70
    32
  0
VERTEX
  8
0
  5
25BF
 10
-52.4030
 20
110.756
 30
-1.04767e-14
  70
    32
  0
VERTEX
  8
0
  5
25C0
 10
-46.9054
 20
113.193
 30
-9.37722e-15
  70
    32
  0
VERTEX
  8
0
  5
25C1
 10
-41.2948
 20
115.357
 30
-8.25510e-15
  70
    32
  0
VERTEX
  8
0
  5
25C2
 10
-35.5847
 20
117.244
 30
-7.11309e-15
  70
    32
  0
VERTEX
  8
0
  5
25C3
 10
-29.7890
 20
118.848
 30
-5.95395e-15
  70
    32
  0
VERTEX
  8
0
  5
25C4
 10
-23.9216
 20
120.165
 30
-4.78046e-15
  70
    32
  0
VERTEX
  8
0
  5
25C5
 10
-17.9966
 20
121.193
 30
-3.59546e-15
  70
    32
  0
VERTEX
  8
0
  5
25C6
 10
-12.0283
 20
121.929
 30
-2.40180e-15
  70
    32
  0
VERTEX
  8
0
  5
25C7
 10
-6.03100
 20
122.372
 30
-1.20235e-15
  70
    32
  0
VERTEX
  8
0
  5
25C8
 10
-0.0192659
 20
122.519
 30
1.87629e-29
  70
    32
  0
VERTEX
  8
0
  5
25C9
 10
5.99247
 20
122.372
 30
1.20235e-15
  70
    32
  0
VERTEX
  8
0
  5
25CA
 10
11.9897
 20
121.929
 30
2.40180e-15
  70
    32
  0
VERTEX
  8
0
  5
25CB
 10
17.9580
 20
121.193
 30
3.59546e-15
  70
    32
  0
VERTEX
  8
0
  5
25CC
 10
23.8831
 20
120.165
 30
4.78046e-15
  70
    32
  0
VERTEX
  8
0
  5
25CD
 10
29.7505
 20
118.848
 30
5.95395e-15
  70
    32
  0
VERTEX
  8
0
  5
25CE
 10
35.5462
 20
117.244
 30
7.11309e-15
  70
    32
  0
VERTEX
  8
0
  5
25CF
 10
41.2562
 20
115.357
 30
8.25510e-15
  70
    32
  0
VERTEX
  8
0
  5
25D0
 10
46.8668
 20
113.193
 30
9.37722e-15
  70
    32
  0
VERTEX
  8
0
  5
25D1
 10
52.3645
 20
110.756
 30
1.04767e-14
  70
    32
  0
VERTEX
  8
0
  5
25D2
 10
57.7359
 20
108.052
 30
1.15510e-14
  70
    32
  0
VERTEX
  8
0
  5
25D3
 10
62.9682
 20
105.088
 30
1.25975e-14
  70
    32
  0
VERTEX
  8
0
  5
25D4
 10
68.0488
 20
101.871
 30
1.36136e-14
  70
    32
  0
VERTEX
  8
0
  5
25D5
 10
72.9654
 20
98.4084
 30
1.45969e-14
  70
    32
  0
VERTEX
  8
0
  5
25D6
 10
77.7061
 20
94.7087
 30
1.55451e-14
  70
    32
  0
VERTEX
  8
0
  5
25D7
 10
82.2596
 20
90.7808
 30
1.64558e-14
  70
    32
  0
VERTEX
  8
0
  5
25D8
 10
86.6149
 20
86.6342
 30
1.73268e-14
  70
    32
  0
VERTEX
  8
0
  5
25D9
 10
90.7615
 20
82.2789
 30
1.81562e-14
  70
    32
  0
VERTEX
  8
0
  5
25DA
 10
94.6894
 20
77.7254
 30
1.89417e-14
  70
    32
  0
VERTEX
  8
0
  5
25DB
 10
98.3891
 20
72.9846
 30
1.96817e-14
  70
    32
  0
VERTEX
  8
0
  5
25DC
 10
101.852
 20
68.0681
 30
2.03742e-14
  70
    32
  0
VERTEX
  8
0
  5
25DD
 10
105.069
 20
62.9875
 30
2.10177e-14
  70
    32
  0
VERTEX
  8
0
  5
25DE
 10
108.033
 20
57.7552
 30
2.16105e-14
  70
    32
  0
VERTEX
  8
0
  5
25DF
 10
110.737
 20
52.3837
 30
2.21512e-14
  70
    32
  0
VERTEX
  8
0
  5
25E0
 10
113.174
 20
46.8861
 30
2.26386e-14
  70
    32
  0
VERTEX
  8
0
  5
25E1
 10
115.338
 20
41.2755
 30
2.30715e-14
  70
    32
  0
VERTEX
  8
0
  5
25E2
 10
117.224
 20
35.5655
 30
2.34487e-14
  70
    32
  0
VERTEX
  8
0
  5
25E3
 10
118.828
 20
29.7698
 30
2.37695e-14
  70
    32
  0
VERTEX
  8
0
  5
25E4
 10
120.146
 20
23.9023
 30
2.40330e-14
  70
    32
  0
VERTEX
  8
0
  5
25E5
 10
121.174
 20
17.9773
 30
2.42386e-14
  70
    32
  0
VERTEX
  8
0
  5
25E6
 10
121.910
 20
12.0090
 30
2.43859e-14
  70
    32
  0
VERTEX
  8
0
  5
25E7
 10
122.352
 20
6.01174
 30
2.44743e-14
  70
    32
  0
VERTEX
  8
0
  5
25E8
 10
122.500
 20
-7.21125e-14
 30
2.45039e-14
  70
    32
  0
SEQEND
  8
0
  5
25E9
  0
CIRCLE
  5
2417
  8
0
  6
CONTINUOUS
 62
     3
 10
0.0
 20
0.0
 30
0.0
 40
75.2406771356230593
  0
CIRCLE
  5
2418
  8
0
  6
CONTINUOUS
 62
     3
 10
0.0000000000000538
 20
0.0000000000000148
 30
0.0
 40
77.0
  0
CIRCLE
  5
2419
  8
0
  6
CONTINUOUS
 62
     3
 10
0.0000000000000607
 20
0.0000000000000167
 30
0.0
 40
82.0
  0
CIRCLE
  5
241A
  8
0
  6
CONTINUOUS
 62
     3
 10
0.0000000000000733
 20
0.0000000000000202
 30
0.0
 40
84.0000000000001137
  0
CIRCLE
  5
241B
  8
0
  6
CONTINUOUS
 62
     3
 10
0.0000000000000733
 20
0.0000000000000202
 30
0.0
 40
86.7584447974063551
  0
CIRCLE
  5
241C
  8
0
  6
CONTINUOUS
 62
     3
 10
0.0000000000000698
 20
0.0000000000000192
 30
0.0
 40
90.5
  0
CIRCLE
  5
241D
  8
0
  6
CONTINUOUS
 62
     3
 10
0.0000000000000662
 20
0.0000000000000182
 30
0.0
 40
90.5000474056391937
  0
CIRCLE
  5
241E
  8
0
  6
VERDECKT
 62
     1
 10
0.0000000000000515
 20
0.0000000000000142
 30
0.0
 40
122.5
  0
CIRCLE
  5
241F
  8
0
  6
VERDECKT
 62
     1
 10
0.0000000000000515
 20
0.0000000000000142
 30
0.0
 40
80.5
  0
POLYLINE
  5
2420
  8
0
  6
VERDECKT
 62
     1
 10
80.5000000000000426
 20
-0.000000000000042
 30
0.0000000000000161
 66
     1
 70
     8
  0
VERTEX
  8
0
  5
25EA
 10
80.5000
 20
-4.20232e-14
 30
1.61035e-14
  70
    32
  0
VERTEX
  8
0
  5
25EB
 10
80.4030
 20
-3.95082
 30
1.60841e-14
  70
    32
  0
VERTEX
  8
0
  5
25EC
 10
80.1123
 20
-7.89211
 30
1.60260e-14
  70
    32
  0
VERTEX
  8
0
  5
25ED
 10
79.6285
 20
-11.8144
 30
1.59292e-14
  70
    32
  0
VERTEX
  8
0
  5
25EE
 10
78.9529
 20
-15.7082
 30
1.57941e-14
  70
    32
  0
VERTEX
  8
0
  5
25EF
 10
78.0870
 20
-19.5642
 30
1.56209e-14
  70
    32
  0
VERTEX
  8
0
  5
25F0
 10
77.0329
 20
-23.3731
 30
1.54101e-14
  70
    32
  0
VERTEX
  8
0
  5
25F1
 10
75.7933
 20
-27.1256
 30
1.51622e-14
  70
    32
  0
VERTEX
  8
0
  5
25F2
 10
74.3710
 20
-30.8128
 30
1.48777e-14
  70
    32
  0
VERTEX
  8
0
  5
25F3
 10
72.7694
 20
-34.4258
 30
1.45574e-14
  70
    32
  0
VERTEX
  8
0
  5
25F4
 10
70.9926
 20
-37.9558
 30
1.42021e-14
  70
    32
  0
VERTEX
  8
0
  5
25F5
 10
69.0446
 20
-41.3944
 30
1.38125e-14
  70
    32
  0
VERTEX
  8
0
  5
25F6
 10
66.9303
 20
-44.7332
 30
1.33896e-14
  70
    32
  0
VERTEX
  8
0
  5
25F7
 10
64.6547
 20
-47.9643
 30
1.29345e-14
  70
    32
  0
VERTEX
  8
0
  5
25F8
 10
62.2233
 20
-51.0799
 30
1.24482e-14
  70
    32
  0
VERTEX
  8
0
  5
25F9
 10
59.6420
 20
-54.0724
 30
1.19319e-14
  70
    32
  0
VERTEX
  8
0
  5
25FA
 10
56.9169
 20
-56.9346
 30
1.13869e-14
  70
    32
  0
VERTEX
  8
0
  5
25FB
 10
54.0547
 20
-59.6597
 30
1.08145e-14
  70
    32
  0
VERTEX
  8
0
  5
25FC
 10
51.0622
 20
-62.2410
 30
1.02160e-14
  70
    32
  0
VERTEX
  8
0
  5
25FD
 10
47.9466
 20
-64.6724
 30
9.59287e-15
  70
    32
  0
VERTEX
  8
0
  5
25FE
 10
44.7155
 20
-66.9480
 30
8.94665e-15
  70
    32
  0
VERTEX
  8
0
  5
25FF
 10
41.3767
 20
-69.0623
 30
8.27887e-15
  70
    32
  0
VERTEX
  8
0
  5
2600
 10
37.9381
 20
-71.0103
 30
7.59116e-15
  70
    32
  0
VERTEX
  8
0
  5
2601
 10
34.4081
 20
-72.7871
 30
6.88515e-15
  70
    32
  0
VERTEX
  8
0
  5
2602
 10
30.7951
 20
-74.3887
 30
6.16256e-15
  70
    32
  0
VERTEX
  8
0
  5
2603
 10
27.1079
 20
-75.8110
 30
5.42512e-15
  70
    32
  0
VERTEX
  8
0
  5
2604
 10
23.3554
 20
-77.0506
 30
4.67461e-15
  70
    32
  0
VERTEX
  8
0
  5
2605
 10
19.5465
 20
-78.1047
 30
3.91284e-15
  70
    32
  0
VERTEX
  8
0
  5
2606
 10
15.6905
 20
-78.9706
 30
3.14164e-15
  70
    32
  0
VERTEX
  8
0
  5
2607
 10
11.7967
 20
-79.6462
 30
2.36288e-15
  70
    32
  0
VERTEX
  8
0
  5
2608
 10
7.87442
 20
-80.1300
 30
1.57842e-15
  70
    32
  0
VERTEX
  8
0
  5
2609
 10
3.93312
 20
-80.4207
 30
7.90163e-16
  70
    32
  0
VERTEX
  8
0
  5
260A
 10
-0.0176944
 20
-80.5177
 30
-1.07271e-29
  70
    32
  0
VERTEX
  8
0
  5
260B
 10
-3.96851
 20
-80.4207
 30
-7.90163e-16
  70
    32
  0
VERTEX
  8
0
  5
260C
 10
-7.90981
 20
-80.1300
 30
-1.57842e-15
  70
    32
  0
VERTEX
  8
0
  5
260D
 10
-11.8321
 20
-79.6462
 30
-2.36288e-15
  70
    32
  0
VERTEX
  8
0
  5
260E
 10
-15.7259
 20
-78.9706
 30
-3.14164e-15
  70
    32
  0
VERTEX
  8
0
  5
260F
 10
-19.5819
 20
-78.1047
 30
-3.91284e-15
  70
    32
  0
VERTEX
  8
0
  5
2610
 10
-23.3907
 20
-77.0506
 30
-4.67461e-15
  70
    32
  0
VERTEX
  8
0
  5
2611
 10
-27.1433
 20
-75.8110
 30
-5.42512e-15
  70
    32
  0
VERTEX
  8
0
  5
2612
 10
-30.8305
 20
-74.3887
 30
-6.16256e-15
  70
    32
  0
VERTEX
  8
0
  5
2613
 10
-34.4434
 20
-72.7871
 30
-6.88515e-15
  70
    32
  0
VERTEX
  8
0
  5
2614
 10
-37.9735
 20
-71.0103
 30
-7.59116e-15
  70
    32
  0
VERTEX
  8
0
  5
2615
 10
-41.4121
 20
-69.0623
 30
-8.27887e-15
  70
    32
  0
VERTEX
  8
0
  5
2616
 10
-44.7509
 20
-66.9480
 30
-8.94665e-15
  70
    32
  0
VERTEX
  8
0
  5
2617
 10
-47.9820
 20
-64.6724
 30
-9.59287e-15
  70
    32
  0
VERTEX
  8
0
  5
2618
 10
-51.0976
 20
-62.2410
 30
-1.02160e-14
  70
    32
  0
VERTEX
  8
0
  5
2619
 10
-54.0901
 20
-59.6597
 30
-1.08145e-14
  70
    32
  0
VERTEX
  8
0
  5
261A
 10
-56.9523
 20
-56.9346
 30
-1.13869e-14
  70
    32
  0
VERTEX
  8
0
  5
261B
 10
-59.6774
 20
-54.0724
 30
-1.19319e-14
  70
    32
  0
VERTEX
  8
0
  5
261C
 10
-62.2587
 20
-51.0799
 30
-1.24482e-14
  70
    32
  0
VERTEX
  8
0
  5
261D
 10
-64.6901
 20
-47.9643
 30
-1.29345e-14
  70
    32
  0
VERTEX
  8
0
  5
261E
 10
-66.9657
 20
-44.7332
 30
-1.33896e-14
  70
    32
  0
VERTEX
  8
0
  5
261F
 10
-69.0800
 20
-41.3944
 30
-1.38125e-14
  70
    32
  0
VERTEX
  8
0
  5
2620
 10
-71.0280
 20
-37.9558
 30
-1.42021e-14
  70
    32
  0
VERTEX
  8
0
  5
2621
 10
-72.8048
 20
-34.4258
 30
-1.45574e-14
  70
    32
  0
VERTEX
  8
0
  5
2622
 10
-74.4063
 20
-30.8128
 30
-1.48777e-14
  70
    32
  0
VERTEX
  8
0
  5
2623
 10
-75.8287
 20
-27.1256
 30
-1.51622e-14
  70
    32
  0
VERTEX
  8
0
  5
2624
 10
-77.0683
 20
-23.3731
 30
-1.54101e-14
  70
    32
  0
VERTEX
  8
0
  5
2625
 10
-78.1224
 20
-19.5642
 30
-1.56209e-14
  70
    32
  0
VERTEX
  8
0
  5
2626
 10
-78.9883
 20
-15.7082
 30
-1.57941e-14
  70
    32
  0
VERTEX
  8
0
  5
2627
 10
-79.6639
 20
-11.8144
 30
-1.59292e-14
  70
    32
  0
VERTEX
  8
0
  5
2628
 10
-80.1477
 20
-7.89211
 30
-1.60260e-14
  70
    32
  0
VERTEX
  8
0
  5
2629
 10
-80.4384
 20
-3.95082
 30
-1.60841e-14
  70
    32
  0
VERTEX
  8
0
  5
262A
 10
-80.5354
 20
6.34053e-14
 30
-1.61035e-14
  70
    32
  0
VERTEX
  8
0
  5
262B
 10
-80.4384
 20
3.95082
 30
-1.60841e-14
  70
    32
  0
VERTEX
  8
0
  5
262C
 10
-80.1477
 20
7.89211
 30
-1.60260e-14
  70
    32
  0
VERTEX
  8
0
  5
262D
 10
-79.6639
 20
11.8144
 30
-1.59292e-14
  70
    32
  0
VERTEX
  8
0
  5
262E
 10
-78.9883
 20
15.7082
 30
-1.57941e-14
  70
    32
  0
VERTEX
  8
0
  5
262F
 10
-78.1224
 20
19.5642
 30
-1.56209e-14
  70
    32
  0
VERTEX
  8
0
  5
2630
 10
-77.0683
 20
23.3731
 30
-1.54101e-14
  70
    32
  0
VERTEX
  8
0
  5
2631
 10
-75.8287
 20
27.1256
 30
-1.51622e-14
  70
    32
  0
VERTEX
  8
0
  5
2632
 10
-74.4063
 20
30.8128
 30
-1.48777e-14
  70
    32
  0
VERTEX
  8
0
  5
2633
 10
-72.8048
 20
34.4258
 30
-1.45574e-14
  70
    32
  0
VERTEX
  8
0
  5
2634
 10
-71.0280
 20
37.9558
 30
-1.42021e-14
  70
    32
  0
VERTEX
  8
0
  5
2635
 10
-69.0800
 20
41.3944
 30
-1.38125e-14
  70
    32
  0
VERTEX
  8
0
  5
2636
 10
-66.9657
 20
44.7332
 30
-1.33896e-14
  70
    32
  0
VERTEX
  8
0
  5
2637
 10
-64.6901
 20
47.9643
 30
-1.29345e-14
  70
    32
  0
VERTEX
  8
0
  5
2638
 10
-62.2587
 20
51.0799
 30
-1.24482e-14
  70
    32
  0
VERTEX
  8
0
  5
2639
 10
-59.6774
 20
54.0724
 30
-1.19319e-14
  70
    32
  0
VERTEX
  8
0
  5
263A
 10
-56.9523
 20
56.9346
 30
-1.13869e-14
  70
    32
  0
VERTEX
  8
0
  5
263B
 10
-54.0901
 20
59.6597
 30
-1.08145e-14
  70
    32
  0
VERTEX
  8
0
  5
263C
 10
-51.0976
 20
62.2410
 30
-1.02160e-14
  70
    32
  0
VERTEX
  8
0
  5
263D
 10
-47.9820
 20
64.6724
 30
-9.59287e-15
  70
    32
  0
VERTEX
  8
0
  5
263E
 10
-44.7509
 20
66.9480
 30
-8.94665e-15
  70
    32
  0
VERTEX
  8
0
  5
263F
 10
-41.4121
 20
69.0623
 30
-8.27887e-15
  70
    32
  0
VERTEX
  8
0
  5
2640
 10
-37.9735
 20
71.0103
 30
-7.59116e-15
  70
    32
  0
VERTEX
  8
0
  5
2641
 10
-34.4434
 20
72.7871
 30
-6.88515e-15
  70
    32
  0
VERTEX
  8
0
  5
2642
 10
-30.8305
 20
74.3887
 30
-6.16256e-15
  70
    32
  0
VERTEX
  8
0
  5
2643
 10
-27.1433
 20
75.8110
 30
-5.42512e-15
  70
    32
  0
VERTEX
  8
0
  5
2644
 10
-23.3907
 20
77.0506
 30
-4.67461e-15
  70
    32
  0
VERTEX
  8
0
  5
2645
 10
-19.5819
 20
78.1047
 30
-3.91284e-15
  70
    32
  0
VERTEX
  8
0
  5
2646
 10
-15.7259
 20
78.9706
 30
-3.14164e-15
  70
    32
  0
VERTEX
  8
0
  5
2647
 10
-11.8321
 20
79.6462
 30
-2.36288e-15
  70
    32
  0
VERTEX
  8
0
  5
2648
 10
-7.90981
 20
80.1300
 30
-1.57842e-15
  70
    32
  0
VERTEX
  8
0
  5
2649
 10
-3.96851
 20
80.4207
 30
-7.90163e-16
  70
    32
  0
VERTEX
  8
0
  5
264A
 10
-0.0176944
 20
80.5177
 30
1.23307e-29
  70
    32
  0
VERTEX
  8
0
  5
264B
 10
3.93312
 20
80.4207
 30
7.90163e-16
  70
    32
  0
VERTEX
  8
0
  5
264C
 10
7.87442
 20
80.1300
 30
1.57842e-15
  70
    32
  0
VERTEX
  8
0
  5
264D
 10
11.7967
 20
79.6462
 30
2.36288e-15
  70
    32
  0
VERTEX
  8
0
  5
264E
 10
15.6905
 20
78.9706
 30
3.14164e-15
  70
    32
  0
VERTEX
  8
0
  5
264F
 10
19.5465
 20
78.1047
 30
3.91284e-15
  70
    32
  0
VERTEX
  8
0
  5
2650
 10
23.3554
 20
77.0506
 30
4.67461e-15
  70
    32
  0
VERTEX
  8
0
  5
2651
 10
27.1079
 20
75.8110
 30
5.42512e-15
  70
    32
  0
VERTEX
  8
0
  5
2652
 10
30.7951
 20
74.3887
 30
6.16256e-15
  70
    32
  0
VERTEX
  8
0
  5
2653
 10
34.4081
 20
72.7871
 30
6.88515e-15
  70
    32
  0
VERTEX
  8
0
  5
2654
 10
37.9381
 20
71.0103
 30
7.59116e-15
  70
    32
  0
VERTEX
  8
0
  5
2655
 10
41.3767
 20
69.0623
 30
8.27887e-15
  70
    32
  0
VERTEX
  8
0
  5
2656
 10
44.7155
 20
66.9480
 30
8.94665e-15
  70
    32
  0
VERTEX
  8
0
  5
2657
 10
47.9466
 20
64.6724
 30
9.59287e-15
  70
    32
  0
VERTEX
  8
0
  5
2658
 10
51.0622
 20
62.2410
 30
1.02160e-14
  70
    32
  0
VERTEX
  8
0
  5
2659
 10
54.0547
 20
59.6597
 30
1.08145e-14
  70
    32
  0
VERTEX
  8
0
  5
265A
 10
56.9169
 20
56.9346
 30
1.13869e-14
  70
    32
  0
VERTEX
  8
0
  5
265B
 10
59.6420
 20
54.0724
 30
1.19319e-14
  70
    32
  0
VERTEX
  8
0
  5
265C
 10
62.2233
 20
51.0799
 30
1.24482e-14
  70
    32
  0
VERTEX
  8
0
  5
265D
 10
64.6547
 20
47.9643
 30
1.29345e-14
  70
    32
  0
VERTEX
  8
0
  5
265E
 10
66.9303
 20
44.7332
 30
1.33896e-14
  70
    32
  0
VERTEX
  8
0
  5
265F
 10
69.0446
 20
41.3944
 30
1.38125e-14
  70
    32
  0
VERTEX
  8
0
  5
2660
 10
70.9926
 20
37.9558
 30
1.42021e-14
  70
    32
  0
VERTEX
  8
0
  5
2661
 10
72.7694
 20
34.4258
 30
1.45574e-14
  70
    32
  0
VERTEX
  8
0
  5
2662
 10
74.3710
 20
30.8128
 30
1.48777e-14
  70
    32
  0
VERTEX
  8
0
  5
2663
 10
75.7933
 20
27.1256
 30
1.51622e-14
  70
    32
  0
VERTEX
  8
0
  5
2664
 10
77.0329
 20
23.3731
 30
1.54101e-14
  70
    32
  0
VERTEX
  8
0
  5
2665
 10
78.0870
 20
19.5642
 30
1.56209e-14
  70
    32
  0
VERTEX
  8
0
  5
2666
 10
78.9529
 20
15.7082
 30
1.57941e-14
  70
    32
  0
VERTEX
  8
0
  5
2667
 10
79.6285
 20
11.8144
 30
1.59292e-14
  70
    32
  0
VERTEX
  8
0
  5
2668
 10
80.1123
 20
7.89211
 30
1.60260e-14
  70
    32
  0
VERTEX
  8
0
  5
2669
 10
80.4030
 20
3.95082
 30
1.60841e-14
  70
    32
  0
VERTEX
  8
0
  5
266A
 10
80.5000
 20
-4.20232e-14
 30
1.61035e-14
  70
    32
  0
SEQEND
  8
0
  5
266B
  0
POLYLINE
  5
2421
  8
0
  6
VERDECKT
 62
     1
 10
80.5000000000000711
 20
-0.0000000000000425
 30
0.0000000000000161
 66
     1
 70
     8
  0
VERTEX
  8
0
  5
266C
 10
80.5000
 20
-4.25243e-14
 30
1.61039e-14
  70
    32
  0
VERTEX
  8
0
  5
266D
 10
80.4030
 20
-3.95089
 30
1.60845e-14
  70
    32
  0
VERTEX
  8
0
  5
266E
 10
80.1123
 20
-7.89227
 30
1.60263e-14
  70
    32
  0
VERTEX
  8
0
  5
266F
 10
79.6285
 20
-11.8146
 30
1.59296e-14
  70
    32
  0
VERTEX
  8
0
  5
2670
 10
78.9528
 20
-15.7085
 30
1.57944e-14
  70
    32
  0
VERTEX
  8
0
  5
2671
 10
78.0869
 20
-19.5646
 30
1.56212e-14
  70
    32
  0
VERTEX
  8
0
  5
2672
 10
77.0329
 20
-23.3735
 30
1.54104e-14
  70
    32
  0
VERTEX
  8
0
  5
2673
 10
75.7932
 20
-27.1261
 30
1.51625e-14
  70
    32
  0
VERTEX
  8
0
  5
2674
 10
74.3708
 20
-30.8134
 30
1.48780e-14
  70
    32
  0
VERTEX
  8
0
  5
2675
 10
72.7693
 20
-34.4264
 30
1.45577e-14
  70
    32
  0
VERTEX
  8
0
  5
2676
 10
70.9924
 20
-37.9565
 30
1.42023e-14
  70
    32
  0
VERTEX
  8
0
  5
2677
 10
69.0444
 20
-41.3952
 30
1.38127e-14
  70
    32
  0
VERTEX
  8
0
  5
2678
 10
66.9301
 20
-44.7341
 30
1.33899e-14
  70
    32
  0
VERTEX
  8
0
  5
2679
 10
64.6544
 20
-47.9653
 30
1.29347e-14
  70
    32
  0
VERTEX
  8
0
  5
267A
 10
62.2230
 20
-51.0809
 30
1.24484e-14
  70
    32
  0
VERTEX
  8
0
  5
267B
 10
59.6416
 20
-54.0734
 30
1.19322e-14
  70
    32
  0
VERTEX
  8
0
  5
267C
 10
56.9165
 20
-56.9357
 30
1.13871e-14
  70
    32
  0
VERTEX
  8
0
  5
267D
 10
54.0542
 20
-59.6608
 30
1.08147e-14
  70
    32
  0
VERTEX
  8
0
  5
267E
 10
51.0616
 20
-62.2422
 30
1.02162e-14
  70
    32
  0
VERTEX
  8
0
  5
267F
 10
47.9460
 20
-64.6737
 30
9.59305e-15
  70
    32
  0
VERTEX
  8
0
  5
2680
 10
44.7148
 20
-66.9493
 30
8.94682e-15
  70
    32
  0
VERTEX
  8
0
  5
2681
 10
41.3759
 20
-69.0637
 30
8.27904e-15
  70
    32
  0
VERTEX
  8
0
  5
2682
 10
37.9373
 20
-71.0117
 30
7.59130e-15
  70
    32
  0
VERTEX
  8
0
  5
2683
 10
34.4072
 20
-72.7886
 30
6.88528e-15
  70
    32
  0
VERTEX
  8
0
  5
2684
 10
30.7941
 20
-74.3901
 30
6.16268e-15
  70
    32
  0
VERTEX
  8
0
  5
2685
 10
27.1069
 20
-75.8124
 30
5.42522e-15
  70
    32
  0
VERTEX
  8
0
  5
2686
 10
23.3542
 20
-77.0521
 30
4.67470e-15
  70
    32
  0
VERTEX
  8
0
  5
2687
 10
19.5453
 20
-78.1062
 30
3.91292e-15
  70
    32
  0
VERTEX
  8
0
  5
2688
 10
15.6893
 20
-78.9721
 30
3.14171e-15
  70
    32
  0
VERTEX
  8
0
  5
2689
 10
11.7954
 20
-79.6478
 30
2.36293e-15
  70
    32
  0
VERTEX
  8
0
  5
268A
 10
7.87300
 20
-80.1315
 30
1.57845e-15
  70
    32
  0
VERTEX
  8
0
  5
268B
 10
3.93163
 20
-80.4223
 30
7.90179e-16
  70
    32
  0
VERTEX
  8
0
  5
268C
 10
-0.0192675
 20
-80.5193
 30
-1.07273e-29
  70
    32
  0
VERTEX
  8
0
  5
268D
 10
-3.97016
 20
-80.4223
 30
-7.90179e-16
  70
    32
  0
VERTEX
  8
0
  5
268E
 10
-7.91154
 20
-80.1315
 30
-1.57845e-15
  70
    32
  0
VERTEX
  8
0
  5
268F
 10
-11.8339
 20
-79.6478
 30
-2.36293e-15
  70
    32
  0
VERTEX
  8
0
  5
2690
 10
-15.7278
 20
-78.9721
 30
-3.14171e-15
  70
    32
  0
VERTEX
  8
0
  5
2691
 10
-19.5839
 20
-78.1062
 30
-3.91292e-15
  70
    32
  0
VERTEX
  8
0
  5
2692
 10
-23.3928
 20
-77.0521
 30
-4.67470e-15
  70
    32
  0
VERTEX
  8
0
  5
2693
 10
-27.1454
 20
-75.8124
 30
-5.42522e-15
  70
    32
  0
VERTEX
  8
0
  5
2694
 10
-30.8327
 20
-74.3901
 30
-6.16268e-15
  70
    32
  0
VERTEX
  8
0
  5
2695
 10
-34.4457
 20
-72.7886
 30
-6.88528e-15
  70
    32
  0
VERTEX
  8
0
  5
2696
 10
-37.9758
 20
-71.0117
 30
-7.59130e-15
  70
    32
  0
VERTEX
  8
0
  5
2697
 10
-41.4144
 20
-69.0637
 30
-8.27904e-15
  70
    32
  0
VERTEX
  8
0
  5
2698
 10
-44.7534
 20
-66.9493
 30
-8.94682e-15
  70
    32
  0
VERTEX
  8
0
  5
2699
 10
-47.9845
 20
-64.6737
 30
-9.59305e-15
  70
    32
  0
VERTEX
  8
0
  5
269A
 10
-51.1002
 20
-62.2422
 30
-1.02162e-14
  70
    32
  0
VERTEX
  8
0
  5
269B
 10
-54.0927
 20
-59.6608
 30
-1.08147e-14
  70
    32
  0
VERTEX
  8
0
  5
269C
 10
-56.9550
 20
-56.9357
 30
-1.13871e-14
  70
    32
  0
VERTEX
  8
0
  5
269D
 10
-59.6801
 20
-54.0734
 30
-1.19322e-14
  70
    32
  0
VERTEX
  8
0
  5
269E
 10
-62.2615
 20
-51.0809
 30
-1.24484e-14
  70
    32
  0
VERTEX
  8
0
  5
269F
 10
-64.6929
 20
-47.9653
 30
-1.29347e-14
  70
    32
  0
VERTEX
  8
0
  5
26A0
 10
-66.9686
 20
-44.7341
 30
-1.33899e-14
  70
    32
  0
VERTEX
  8
0
  5
26A1
 10
-69.0829
 20
-41.3952
 30
-1.38127e-14
  70
    32
  0
VERTEX
  8
0
  5
26A2
 10
-71.0309
 20
-37.9565
 30
-1.42023e-14
  70
    32
  0
VERTEX
  8
0
  5
26A3
 10
-72.8078
 20
-34.4264
 30
-1.45577e-14
  70
    32
  0
VERTEX
  8
0
  5
26A4
 10
-74.4094
 20
-30.8134
 30
-1.48780e-14
  70
    32
  0
VERTEX
  8
0
  5
26A5
 10
-75.8317
 20
-27.1261
 30
-1.51625e-14
  70
    32
  0
VERTEX
  8
0
  5
26A6
 10
-77.0714
 20
-23.3735
 30
-1.54104e-14
  70
    32
  0
VERTEX
  8
0
  5
26A7
 10
-78.1255
 20
-19.5646
 30
-1.56212e-14
  70
    32
  0
VERTEX
  8
0
  5
26A8
 10
-78.9914
 20
-15.7085
 30
-1.57944e-14
  70
    32
  0
VERTEX
  8
0
  5
26A9
 10
-79.6670
 20
-11.8146
 30
-1.59296e-14
  70
    32
  0
VERTEX
  8
0
  5
26AA
 10
-80.1508
 20
-7.89227
 30
-1.60263e-14
  70
    32
  0
VERTEX
  8
0
  5
26AB
 10
-80.4415
 20
-3.95089
 30
-1.60845e-14
  70
    32
  0
VERTEX
  8
0
  5
26AC
 10
-80.5385
 20
6.29062e-14
 30
-1.61039e-14
  70
    32
  0
VERTEX
  8
0
  5
26AD
 10
-80.4415
 20
3.95089
 30
-1.60845e-14
  70
    32
  0
VERTEX
  8
0
  5
26AE
 10
-80.1508
 20
7.89227
 30
-1.60263e-14
  70
    32
  0
VERTEX
  8
0
  5
26AF
 10
-79.6670
 20
11.8146
 30
-1.59296e-14
  70
    32
  0
VERTEX
  8
0
  5
26B0
 10
-78.9914
 20
15.7085
 30
-1.57944e-14
  70
    32
  0
VERTEX
  8
0
  5
26B1
 10
-78.1255
 20
19.5646
 30
-1.56212e-14
  70
    32
  0
VERTEX
  8
0
  5
26B2
 10
-77.0714
 20
23.3735
 30
-1.54104e-14
  70
    32
  0
VERTEX
  8
0
  5
26B3
 10
-75.8317
 20
27.1261
 30
-1.51625e-14
  70
    32
  0
VERTEX
  8
0
  5
26B4
 10
-74.4094
 20
30.8134
 30
-1.48780e-14
  70
    32
  0
VERTEX
  8
0
  5
26B5
 10
-72.8078
 20
34.4264
 30
-1.45577e-14
  70
    32
  0
VERTEX
  8
0
  5
26B6
 10
-71.0309
 20
37.9565
 30
-1.42023e-14
  70
    32
  0
VERTEX
  8
0
  5
26B7
 10
-69.0829
 20
41.3952
 30
-1.38127e-14
  70
    32
  0
VERTEX
  8
0
  5
26B8
 10
-66.9686
 20
44.7341
 30
-1.33899e-14
  70
    32
  0
VERTEX
  8
0
  5
26B9
 10
-64.6929
 20
47.9653
 30
-1.29347e-14
  70
    32
  0
VERTEX
  8
0
  5
26BA
 10
-62.2615
 20
51.0809
 30
-1.24484e-14
  70
    32
  0
VERTEX
  8
0
  5
26BB
 10
-59.6801
 20
54.0734
 30
-1.19322e-14
  70
    32
  0
VERTEX
  8
0
  5
26BC
 10
-56.9550
 20
56.9357
 30
-1.13871e-14
  70
    32
  0
VERTEX
  8
0
  5
26BD
 10
-54.0927
 20
59.6608
 30
-1.08147e-14
  70
    32
  0
VERTEX
  8
0
  5
26BE
 10
-51.1002
 20
62.2422
 30
-1.02162e-14
  70
    32
  0
VERTEX
  8
0
  5
26BF
 10
-47.9845
 20
64.6737
 30
-9.59305e-15
  70
    32
  0
VERTEX
  8
0
  5
26C0
 10
-44.7534
 20
66.9493
 30
-8.94682e-15
  70
    32
  0
VERTEX
  8
0
  5
26C1
 10
-41.4144
 20
69.0637
 30
-8.27904e-15
  70
    32
  0
VERTEX
  8
0
  5
26C2
 10
-37.9758
 20
71.0117
 30
-7.59130e-15
  70
    32
  0
VERTEX
  8
0
  5
26C3
 10
-34.4457
 20
72.7886
 30
-6.88528e-15
  70
    32
  0
VERTEX
  8
0
  5
26C4
 10
-30.8327
 20
74.3901
 30
-6.16268e-15
  70
    32
  0
VERTEX
  8
0
  5
26C5
 10
-27.1454
 20
75.8124
 30
-5.42522e-15
  70
    32
  0
VERTEX
  8
0
  5
26C6
 10
-23.3928
 20
77.0521
 30
-4.67470e-15
  70
    32
  0
VERTEX
  8
0
  5
26C7
 10
-19.5839
 20
78.1062
 30
-3.91292e-15
  70
    32
  0
VERTEX
  8
0
  5
26C8
 10
-15.7278
 20
78.9721
 30
-3.14171e-15
  70
    32
  0
VERTEX
  8
0
  5
26C9
 10
-11.8339
 20
79.6478
 30
-2.36293e-15
  70
    32
  0
VERTEX
  8
0
  5
26CA
 10
-7.91154
 20
80.1315
 30
-1.57845e-15
  70
    32
  0
VERTEX
  8
0
  5
26CB
 10
-3.97016
 20
80.4223
 30
-7.90179e-16
  70
    32
  0
VERTEX
  8
0
  5
26CC
 10
-0.0192675
 20
80.5193
 30
1.23309e-29
  70
    32
  0
VERTEX
  8
0
  5
26CD
 10
3.93163
 20
80.4223
 30
7.90179e-16
  70
    32
  0
VERTEX
  8
0
  5
26CE
 10
7.87300
 20
80.1315
 30
1.57845e-15
  70
    32
  0
VERTEX
  8
0
  5
26CF
 10
11.7954
 20
79.6478
 30
2.36293e-15
  70
    32
  0
VERTEX
  8
0
  5
26D0
 10
15.6893
 20
78.9721
 30
3.14171e-15
  70
    32
  0
VERTEX
  8
0
  5
26D1
 10
19.5453
 20
78.1062
 30
3.91292e-15
  70
    32
  0
VERTEX
  8
0
  5
26D2
 10
23.3542
 20
77.0521
 30
4.67470e-15
  70
    32
  0
VERTEX
  8
0
  5
26D3
 10
27.1069
 20
75.8124
 30
5.42522e-15
  70
    32
  0
VERTEX
  8
0
  5
26D4
 10
30.7941
 20
74.3901
 30
6.16268e-15
  70
    32
  0
VERTEX
  8
0
  5
26D5
 10
34.4072
 20
72.7886
 30
6.88528e-15
  70
    32
  0
VERTEX
  8
0
  5
26D6
 10
37.9373
 20
71.0117
 30
7.59130e-15
  70
    32
  0
VERTEX
  8
0
  5
26D7
 10
41.3759
 20
69.0637
 30
8.27904e-15
  70
    32
  0
VERTEX
  8
0
  5
26D8
 10
44.7148
 20
66.9493
 30
8.94682e-15
  70
    32
  0
VERTEX
  8
0
  5
26D9
 10
47.9460
 20
64.6737
 30
9.59305e-15
  70
    32
  0
VERTEX
  8
0
  5
26DA
 10
51.0616
 20
62.2422
 30
1.02162e-14
  70
    32
  0
VERTEX
  8
0
  5
26DB
 10
54.0542
 20
59.6608
 30
1.08147e-14
  70
    32
  0
VERTEX
  8
0
  5
26DC
 10
56.9165
 20
56.9357
 30
1.13871e-14
  70
    32
  0
VERTEX
  8
0
  5
26DD
 10
59.6416
 20
54.0734
 30
1.19322e-14
  70
    32
  0
VERTEX
  8
0
  5
26DE
 10
62.2230
 20
51.0809
 30
1.24484e-14
  70
    32
  0
VERTEX
  8
0
  5
26DF
 10
64.6544
 20
47.9653
 30
1.29347e-14
  70
    32
  0
VERTEX
  8
0
  5
26E0
 10
66.9301
 20
44.7341
 30
1.33899e-14
  70
    32
  0
VERTEX
  8
0
  5
26E1
 10
69.0444
 20
41.3952
 30
1.38127e-14
  70
    32
  0
VERTEX
  8
0
  5
26E2
 10
70.9924
 20
37.9565
 30
1.42023e-14
  70
    32
  0
VERTEX
  8
0
  5
26E3
 10
72.7693
 20
34.4264
 30
1.45577e-14
  70
    32
  0
VERTEX
  8
0
  5
26E4
 10
74.3708
 20
30.8134
 30
1.48780e-14
  70
    32
  0
VERTEX
  8
0
  5
26E5
 10
75.7932
 20
27.1261
 30
1.51625e-14
  70
    32
  0
VERTEX
  8
0
  5
26E6
 10
77.0329
 20
23.3735
 30
1.54104e-14
  70
    32
  0
VERTEX
  8
0
  5
26E7
 10
78.0869
 20
19.5646
 30
1.56212e-14
  70
    32
  0
VERTEX
  8
0
  5
26E8
 10
78.9528
 20
15.7085
 30
1.57944e-14
  70
    32
  0
VERTEX
  8
0
  5
26E9
 10
79.6285
 20
11.8146
 30
1.59296e-14
  70
    32
  0
VERTEX
  8
0
  5
26EA
 10
80.1123
 20
7.89227
 30
1.60263e-14
  70
    32
  0
VERTEX
  8
0
  5
26EB
 10
80.4030
 20
3.95089
 30
1.60845e-14
  70
    32
  0
VERTEX
  8
0
  5
26EC
 10
80.5000
 20
-4.25243e-14
 30
1.61039e-14
  70
    32
  0
SEQEND
  8
0
  5
26ED
  0
CIRCLE
  5
2422
  8
0
  6
VERDECKT
 62
     1
 10
0.0
 20
0.0
 30
0.0
 40
77.7502267294814828
  0
CIRCLE
  5
2423
  8
0
  6
VERDECKT
 62
     1
 10
0.0000000000000698
 20
0.0000000000000192
 30
0.0
 40
88.0
  0
CIRCLE
  5
2424
  8
0
  6
VERDECKT
 62
     1
 10
0.0000000000000607
 20
0.0000000000000167
 30
0.0
 40
84.5000000000000142
  0
CIRCLE
  5
2425
  8
0
  6
VERDECKT
 62
     1
 10
0.0000000000000538
 20
0.0000000000000148
 30
0.0
 40
79.5
  0
CIRCLE
  5
2426
  8
0
  6
VERDECKT
 62
     1
 10
0.0000000000000662
 20
0.0000000000000182
 30
0.0
 40
88.0000474056390942
  0
ENDBLK
  5
2428
  8
0
  0
BLOCK
  8
0
  2
A$C72F100DE
 70
     0
 10
0.0
 20
0.0
 30
0.0
  3
A$C72F100DE
  1

  0
LINE
  5
242C
  8
0
  6
CONTINUOUS
 62
     3
 10
-122.5
 20
232.0
 30
-0.0000000000000515
 11
122.5
 21
232.0
 31
-0.0000000000000515
210
0.0
220
1.0
230
-0.0000000000000002
  0
LINE
  5
242D
  8
0
  6
CONTINUOUS
 62
     3
 10
-122.5
 20
224.0
 30
-0.0000000000000497
 11
122.5
 21
224.0
 31
-0.0000000000000497
210
0.0
220
1.0
230
-0.0000000000000002
  0
LINE
  5
242E
  8
0
  6
CONTINUOUS
 62
     3
 10
122.5
 20
232.0
 30
-0.0000000000000515
 11
122.5
 21
224.0
 31
-0.0000000000000497
210
0.0
220
1.0
230
-0.0000000000000002
  0
LINE
  5
242F
  8
0
  6
CONTINUOUS
 62
     3
 10
-122.5
 20
232.0
 30
-0.0000000000000515
 11
-122.5
 21
224.0
 31
-0.0000000000000497
210
0.0
220
1.0
230
-0.0000000000000002
  0
LINE
  5
2430
  8
0
  6
CONTINUOUS
 62
     3
 10
-122.5353856132286978
 20
240.0481836057919054
 30
-0.0000000000000533
 11
122.5
 21
240.0
 31
-0.0000000000000533
210
0.0
220
1.0
230
-0.0000000000000002
  0
LINE
  5
2431
  8
0
  6
CONTINUOUS
 62
     3
 10
-122.5385318431535069
 20
232.0481842244645065
 30
-0.0000000000000515
 11
122.5
 21
232.0
 31
-0.0000000000000515
210
0.0
220
1.0
230
-0.0000000000000002
  0
LINE
  5
2432
  8
0
  6
CONTINUOUS
 62
     3
 10
-80.5385350911851816
 20
232.0316665173592128
 30
-0.0000000000000515
 11
80.5000000000000142
 21
232.0
 31
-0.0000000000000515
210
0.0
220
1.0
230
-0.0000000000000002
  0
LINE
  5
2433
  8
0
  6
CONTINUOUS
 62
     3
 10
122.5
 20
240.0
 30
-0.0000000000000533
 11
122.5
 21
232.0
 31
-0.0000000000000515
210
0.0
220
1.0
230
-0.0000000000000002
  0
LINE
  5
2434
  8
0
  6
CONTINUOUS
 62
     3
 10
-122.5353856132286978
 20
240.0481836057919054
 30
-0.0000000000000533
 11
-122.5385318431535069
 21
232.0481842244645918
 31
-0.0000000000000515
210
0.0
220
1.0
230
-0.0000000000000002
  0
LINE
  5
2435
  8
0
  6
CONTINUOUS
 62
     3
 10
-80.5385350911851958
 20
232.0316665173590991
 30
-0.0000000000000515
 11
-122.5385318431535069
 21
232.0481842244645918
 31
-0.0000000000000515
210
0.0
220
1.0
230
-0.0000000000000002
  0
LINE
  5
2436
  8
0
  6
CONTINUOUS
 62
     3
 10
-77.7502267294814828
 20
0.0
 30
0.0
 11
77.7502267294814828
 21
0.0
 31
0.0
210
0.0
220
1.0
230
-0.0000000000000002
  0
LINE
  5
2437
  8
0
  6
CONTINUOUS
 62
     3
 10
-86.7584447974063551
 20
330.0000000000001137
 30
-0.0000000000000733
 11
86.7584447974063551
 21
330.0000000000001137
 31
-0.0000000000000733
210
0.0
220
1.0
230
-0.0000000000000002
  0
LINE
  5
2438
  8
0
  6
CONTINUOUS
 62
     3
 10
-79.5000000000002274
 20
12.5752205073652608
 30
-0.0000000000000028
 11
79.5000000000002274
 21
12.5752205073652608
 31
-0.0000000000000028
210
0.0
220
1.0
230
-0.0000000000000002
  0
LINE
  5
2439
  8
0
  6
CONTINUOUS
 62
     3
 10
86.7584447974063551
 20
330.0000000000001137
 30
-0.0000000000000733
 11
87.2207725462835839
 21
329.0085349429890016
 31
-0.0000000000000731
210
0.0
220
1.0
230
-0.0000000000000002
  0
LINE
  5
243A
  8
0
  6
CONTINUOUS
 62
     3
 10
-86.7584447974063551
 20
330.0000000000001137
 30
-0.0000000000000733
 11
-87.2207725462835839
 21
329.0085349429890016
 31
-0.0000000000000731
210
0.0
220
1.0
230
-0.0000000000000002
  0
ARC
  5
243B
  8
0
  6
CONTINUOUS
 62
     3
 10
55.4999999999990408
 20
314.2168957820659898
 30
0.0
 40
35.0000000000009592
210
0.0
220
-0.0000000000000002
230
-1.0
 50
0.0000000000001908
 51
24.9999999999965183
  0
ARC
  5
243C
  8
0
  6
CONTINUOUS
 62
     3
 10
-55.4999999999990266
 20
314.2168957820659898
 30
0.0
 40
35.0000000000009805
210
0.0
220
-0.0000000000000002
230
-1.0
 50
155.0000000000034959
 51
179.999999999999801
  0
LINE
  5
243D
  8
0
  6
CONTINUOUS
 62
     3
 10
90.5
 20
314.2168957820662172
 30
-0.0000000000000698
 11
90.5
 21
298.0526055291678063
 31
-0.0000000000000662
210
0.0
220
1.0
230
-0.0000000000000002
  0
LINE
  5
243E
  8
0
  6
CONTINUOUS
 62
     3
 10
-90.5
 20
314.2168957820662172
 30
-0.0000000000000698
 11
-90.5
 21
298.0526055291678063
 31
-0.0000000000000662
210
0.0
220
1.0
230
-0.0000000000000002
  0
ARC
  5
243F
  8
0
  6
CONTINUOUS
 62
     3
 10
55.5000000000011084
 20
297.9949999999996066
 30
0.0
 40
35.0000474056380924
210
0.0
220
-0.0000000000000002
230
-1.0
 50
332.4728163794443958
 51
0.0943014490765391
  0
ARC
  5
2440
  8
0
  6
CONTINUOUS
 62
     3
 10
-55.5000000000011084
 20
297.9949999999996066
 30
0.0
 40
35.0000474056381066
210
0.0
220
-0.0000000000000002
230
-1.0
 50
179.9056985509234039
 51
207.5271836205556042
  0
ARC
  5
2441
  8
0
  6
CONTINUOUS
 62
     3
 10
102.4999999999945999
 20
273.50000000000108
 30
0.0
 40
17.9999999999946105
210
0.0
220
-0.0000000000000002
230
-1.0
 50
152.472816379449597
 51
180.0000000000038938
  0
ARC
  5
2442
  8
0
  6
CONTINUOUS
 62
     3
 10
-102.4999999999945999
 20
273.50000000000108
 30
0.0
 40
17.9999999999946105
210
0.0
220
-0.0000000000000002
230
-1.0
 50
359.999999999996021
 51
27.5271836205503497
  0
LINE
  5
2443
  8
0
  6
CONTINUOUS
 62
     3
 10
84.5000000000000142
 20
273.4999999999997726
 30
-0.0000000000000607
 11
84.5000000000000142
 21
258.4409715080669798
 31
-0.0000000000000574
210
0.0
220
1.0
230
-0.0000000000000002
  0
LINE
  5
2444
  8
0
  6
CONTINUOUS
 62
     3
 10
-84.5000000000000142
 20
273.4999999999997726
 30
-0.0000000000000607
 11
-84.5000000000000142
 21
258.4409715080669798
 31
-0.0000000000000574
210
0.0
220
1.0
230
-0.0000000000000002
  0
ARC
  5
2445
  8
0
  6
CONTINUOUS
 62
     3
 10
66.5000000000003979
 20
258.4409715080668093
 30
0.0
 40
17.9999999999995808
210
0.0
220
-0.0000000000000002
230
-1.0
 50
325.2280559680502279
 51
0.0000000000005471
  0
ARC
  5
2446
  8
0
  6
CONTINUOUS
 62
     3
 10
-66.5000000000005116
 20
258.4409715080668093
 30
0.0
 40
17.9999999999994706
210
0.0
220
-0.0000000000000002
230
-1.0
 50
179.9999999999994031
 51
214.7719440319498858
  0
ARC
  5
2447
  8
0
  6
CONTINUOUS
 62
     3
 10
89.4999999999984936
 20
242.472252085396093
 30
0.0
 40
9.9999999999984972
210
0.0
220
-0.0000000000000002
230
-1.0
 50
145.2280559680503131
 51
180.0000000000025011
  0
ARC
  5
2448
  8
0
  6
CONTINUOUS
 62
     3
 10
-89.4999999999983658
 20
242.4722520853962067
 30
0.0
 40
9.9999999999983782
210
0.0
220
-0.0000000000000002
230
-1.0
 50
359.9999999999973284
 51
34.7719440319499569
  0
LINE
  5
2449
  8
0
  6
CONTINUOUS
 62
     3
 10
79.5000000000001137
 20
242.4722520853956951
 30
-0.0000000000000538
 11
79.5000000000001137
 21
240.0084554932500112
 31
-0.0000000000000533
210
0.0
220
1.0
230
-0.0000000000000002
  0
LINE
  5
244A
  8
0
  6
CONTINUOUS
 62
     3
 10
79.5000000000001137
 20
232.0001966393780037
 30
-0.0000000000000515
 11
79.5000000000001137
 21
232.0
 31
-0.0000000000000515
210
0.0
220
1.0
230
-0.0000000000000002
  0
LINE
  5
244B
  8
0
  6
CONTINUOUS
 62
     3
 10
79.5000000000001137
 20
224.0
 30
-0.0000000000000497
 11
79.5000000000001137
 21
12.5752205073652608
 31
-0.0000000000000028
210
0.0
220
1.0
230
-0.0000000000000002
  0
LINE
  5
244C
  8
0
  6
CONTINUOUS
 62
     3
 10
-79.5000000000001137
 20
242.4722520853956951
 30
-0.0000000000000538
 11
-79.5000000000001137
 21
240.039721154337002
 31
-0.0000000000000533
210
0.0
220
1.0
230
-0.0000000000000002
  0
LINE
  5
244D
  8
0
  6
CONTINUOUS
 62
     3
 10
-79.5000000000001137
 20
232.0314623004649093
 30
-0.0000000000000515
 11
-79.5000000000001137
 21
232.0
 31
-0.0000000000000515
210
0.0
220
1.0
230
-0.0000000000000002
  0
LINE
  5
244E
  8
0
  6
CONTINUOUS
 62
     3
 10
-79.5000000000001137
 20
224.0
 30
-0.0000000000000497
 11
-79.5000000000001137
 21
12.5752205073652608
 31
-0.0000000000000028
210
0.0
220
1.0
230
-0.0000000000000002
  0
LINE
  5
244F
  8
0
  6
CONTINUOUS
 62
     3
 10
-77.7502267294814828
 20
0.0000000000000009
 30
0.0
 11
-79.5000000000002274
 21
12.5752205073652608
 31
-0.0000000000000028
210
0.0
220
1.0
230
-0.0000000000000002
  0
LINE
  5
2450
  8
0
  6
CONTINUOUS
 62
     3
 10
77.7502267294814828
 20
0.0000000000000009
 30
0.0
 11
79.5000000000002274
 21
12.5752205073652608
 31
-0.0000000000000028
210
0.0
220
1.0
230
-0.0000000000000002
  0
LINE
  5
2451
  8
0
  6
VERDECKT
 62
     1
 10
80.5
 20
232.0
 30
-0.0000000000000515
 11
80.5
 21
224.0
 31
-0.0000000000000497
210
0.0
220
1.0
230
-0.0000000000000002
  0
LINE
  5
2452
  8
0
  6
VERDECKT
 62
     1
 10
-80.5
 20
232.0
 30
-0.0000000000000515
 11
-80.5
 21
224.0
 31
-0.0000000000000497
210
0.0
220
1.0
230
-0.0000000000000002
  0
LINE
  5
2453
  8
0
  6
VERDECKT
 62
     1
 10
-80.5353888612603441
 20
240.0316658986864127
 30
-0.0000000000000533
 11
80.5
 21
240.0
 31
-0.0000000000000533
210
0.0
220
1.0
230
-0.0000000000000002
  0
LINE
  5
2454
  8
0
  6
VERDECKT
 62
     1
 10
-80.5353888612603583
 20
240.0316658986864127
 30
-0.0000000000000533
 11
-122.5353856132286978
 21
240.0481836057917917
 31
-0.0000000000000533
210
0.0
220
1.0
230
-0.0000000000000002
  0
LINE
  5
2455
  8
0
  6
VERDECKT
 62
     1
 10
80.5
 20
239.9999999999998863
 30
-0.0000000000000533
 11
122.5
 21
240.0
 31
-0.0000000000000533
210
0.0
220
1.0
230
-0.0000000000000002
  0
LINE
  5
2456
  8
0
  6
VERDECKT
 62
     1
 10
80.5000000000000142
 20
240.0
 30
-0.0000000000000533
 11
80.5000000000000142
 21
232.0
 31
-0.0000000000000515
210
0.0
220
1.0
230
-0.0000000000000002
  0
LINE
  5
2457
  8
0
  6
VERDECKT
 62
     1
 10
-80.5353888612603583
 20
240.0316658986864127
 30
-0.0000000000000533
 11
-80.5385350911851816
 21
232.0316665173592128
 31
-0.0000000000000515
210
0.0
220
1.0
230
-0.0000000000000002
  0
LINE
  5
2458
  8
0
  6
VERDECKT
 62
     1
 10
-77.0000000000000853
 20
12.6843728646364298
 30
-0.0000000000000028
 11
77.0000000000000853
 21
12.6843728646364298
 31
-0.0000000000000028
210
0.0
220
1.0
230
-0.0000000000000002
  0
LINE
  5
2459
  8
0
  6
VERDECKT
 62
     1
 10
-75.2406771356230593
 20
-0.0000000000000009
 30
0.0
 11
-77.0000000000001137
 21
12.6843728646364298
 31
-0.0000000000000028
210
0.0
220
1.0
230
-0.0000000000000002
  0
LINE
  5
245A
  8
0
  6
VERDECKT
 62
     1
 10
75.2406771356230593
 20
-0.0000000000000009
 30
0.0
 11
77.0000000000001137
 21
12.6843728646364298
 31
-0.0000000000000028
210
0.0
220
1.0
230
-0.0000000000000002
  0
LINE
  5
245B
  8
0
  6
VERDECKT
 62
     1
 10
77.0000000000001137
 20
242.4722520853956951
 30
-0.0000000000000538
 11
77.0000000000001137
 21
12.6843728646364298
 31
-0.0000000000000028
210
0.0
220
1.0
230
-0.0000000000000002
  0
LINE
  5
245C
  8
0
  6
VERDECKT
 62
     1
 10
-77.0000000000001137
 20
242.4722520853956951
 30
-0.0000000000000538
 11
-77.0000000000001137
 21
12.6843728646364298
 31
-0.0000000000000028
210
0.0
220
1.0
230
-0.0000000000000002
  0
ARC
  5
245D
  8
0
  6
VERDECKT
 62
     1
 10
89.5000000000001705
 20
242.4722520853954961
 30
0.0
 40
12.5000000000001901
210
0.0
220
-0.0000000000000002
230
-1.0
 50
145.2280559680517911
 51
179.9999999999988916
  0
ARC
  5
245E
  8
0
  6
VERDECKT
 62
     1
 10
-89.5000000000001705
 20
242.4722520853954961
 30
0.0
 40
12.5000000000001794
210
0.0
220
-0.0000000000000002
230
-1.0
 50
0.0000000000010432
 51
34.7719440319481805
  0
ARC
  5
245F
  8
0
  6
VERDECKT
 62
     1
 10
66.5
 20
258.440971508066923
 30
0.0
 40
15.5
210
0.0
220
-0.0000000000000002
230
-1.0
 50
325.2280559680510237
 51
0.0000000000004262
  0
ARC
  5
2460
  8
0
  6
VERDECKT
 62
     1
 10
-66.5000000000000142
 20
258.440971508066923
 30
0.0
 40
15.4999999999999805
210
0.0
220
-0.0000000000000002
230
-1.0
 50
179.9999999999996021
 51
214.7719440319488911
  0
LINE
  5
2461
  8
0
  6
VERDECKT
 62
     1
 10
82.0
 20
273.4999999999997726
 30
-0.0000000000000607
 11
82.0
 21
258.4409715080669798
 31
-0.0000000000000574
210
0.0
220
1.0
230
-0.0000000000000002
  0
LINE
  5
2462
  8
0
  6
VERDECKT
 62
     1
 10
-82.0
 20
273.4999999999997726
 30
-0.0000000000000607
 11
-82.0
 21
258.4409715080669798
 31
-0.0000000000000574
210
0.0
220
1.0
230
-0.0000000000000002
  0
ARC
  5
2463
  8
0
  6
VERDECKT
 62
     1
 10
102.4999999999951967
 20
273.50000000000108
 30
0.0
 40
20.4999999999952216
210
0.0
220
-0.0000000000000002
230
-1.0
 50
152.4728163794497107
 51
180.0000000000034106
  0
ARC
  5
2464
  8
0
  6
VERDECKT
 62
     1
 10
-102.4999999999951967
 20
273.50000000000108
 30
0.0
 40
20.4999999999952216
210
0.0
220
-0.0000000000000002
230
-1.0
 50
359.9999999999964757
 51
27.5271836205503213
  0
ARC
  5
2465
  8
0
  6
VERDECKT
 62
     1
 10
55.4999999999965397
 20
297.9950000000005161
 30
0.0
 40
32.5000474056425688
210
0.0
220
-0.0000000000000002
230
-1.0
 50
332.4728163794467832
 51
0.0978612342198344
  0
ARC
  5
2466
  8
0
  6
VERDECKT
 62
     1
 10
-55.4999999999965468
 20
297.9950000000005161
 30
0.0
 40
32.5000474056425617
210
0.0
220
-0.0000000000000002
230
-1.0
 50
179.9021387657801085
 51
207.527183620553302
  0
LINE
  5
2467
  8
0
  6
VERDECKT
 62
     1
 10
88.0
 20
314.2168957820659898
 30
-0.0000000000000698
 11
88.0
 21
298.0505100782638124
 31
-0.0000000000000662
210
0.0
220
1.0
230
-0.0000000000000002
  0
LINE
  5
2468
  8
0
  6
VERDECKT
 62
     1
 10
-88.0
 20
314.2168957820659898
 30
-0.0000000000000698
 11
-88.0
 21
298.0505100782638124
 31
-0.0000000000000662
210
0.0
220
1.0
230
-0.0000000000000002
  0
ARC
  5
2469
  8
0
  6
VERDECKT
 62
     1
 10
55.4999999999964828
 20
314.2168957820654214
 30
0.0
 40
32.5000000000035314
210
0.0
220
-0.0000000000000002
230
-1.0
 50
0.0000000000012086
 51
24.9999999999958185
  0
ARC
  5
246A
  8
0
  6
VERDECKT
 62
     1
 10
-55.4999999999964828
 20
314.2168957820654214
 30
0.0
 40
32.5000000000035385
210
0.0
220
-0.0000000000000002
230
-1.0
 50
155.0000000000042064
 51
179.9999999999988063
  0
LINE
  5
246B
  8
0
  6
VERDECKT
 62
     1
 10
84.0000000000001563
 20
330.0000000000001137
 30
-0.0000000000000733
 11
84.9550030786918455
 21
327.9519892886373782
 31
-0.0000000000000728
210
0.0
220
1.0
230
-0.0000000000000002
  0
LINE
  5
246C
  8
0
  6
VERDECKT
 62
     1
 10
-84.0000000000001563
 20
330.0000000000001137
 30
-0.0000000000000733
 11
-84.9550030786918455
 21
327.9519892886373782
 31
-0.0000000000000728
210
0.0
220
1.0
230
-0.0000000000000002
  0
LINE
  5
246D
  8
0
  6
VERDECKT
 62
     1
 10
79.5000000000001137
 20
240.0084554932500112
 30
-0.0000000000000533
 11
79.5000000000001137
 21
232.0001966393780037
 31
-0.0000000000000515
210
0.0
220
1.0
230
-0.0000000000000002
  0
LINE
  5
246E
  8
0
  6
VERDECKT
 62
     1
 10
79.5000000000001137
 20
232.0
 30
-0.0000000000000515
 11
79.5000000000001137
 21
224.0
 31
-0.0000000000000497
210
0.0
220
1.0
230
-0.0000000000000002
  0
LINE
  5
246F
  8
0
  6
VERDECKT
 62
     1
 10
-79.5000000000001137
 20
240.039721154337002
 30
-0.0000000000000533
 11
-79.5000000000001137
 21
232.0314623004649093
 31
-0.0000000000000515
210
0.0
220
1.0
230
-0.0000000000000002
  0
LINE
  5
2470
  8
0
  6
VERDECKT
 62
     1
 10
-79.5000000000001137
 20
232.0
 30
-0.0000000000000515
 11
-79.5000000000001137
 21
224.0
 31
-0.0000000000000497
210
0.0
220
1.0
230
-0.0000000000000002
  0
ENDBLK
  5
2472
  8
0
  0
ENDSEC
  0
SECTION
  2
ENTITIES
  0
TEXT
  5
8F
  8
VOLL
 10
78.076754716981128
 20
31.025947764705851
 30
0.0
 40
1.8
  1

  7
GREEKS
  0
TEXT
  5
41E
  8
VOLL
 10
215.158822220035205
 20
289.1472996291067261
 30
0.0
 40
1.8
  1

 50
90.0
  7
GREEKS
  0
TEXT
  5
41F
  8
VOLL
 10
209.8667055043158882
 20
378.8134735547798186
 30
0.0
 40
1.8
  1

 50
90.0
  7
GREEKS
  0
TEXT
  5
420
  8
TEXT
 10
204.3084699710902896
 20
710.645741758372651
 30
0.0
 40
2.5
  1
  
 50
90.0
  7
GREEKS
 72
     1
 11
204.3084699710902896
 21
712.9076465202775807
 31
0.0
  0
TEXT
  5
421
  8
BEM
 10
68.7495879406881443
 20
954.7654590708546039
 30
0.0
 40
2.5
  1
 
 50
90.0
 72
     4
 11
68.7495879406881443
 21
955.8964114518071256
 31
0.0
  0
TEXT
  5
422
  8
BEM
 10
186.229991313154386
 20
520.4548032007043048
 30
0.0
 40
2.5
  1

 50
90.0
  7
GREEKS
  0
TEXT
  5
423
  8
VOLL
 10
206.4132519701896058
 20
506.3886101809828801
 30
0.0
 40
1.8
  1

 50
90.0
  7
GREEKS
  0
TEXT
  5
424
  8
BEM
 10
201.6875276469689879
 20
540.8766750202674984
 30
0.0
 40
2.5
  1

 50
90.0
 41
0.8
  7
GREEKS
  0
TEXT
  5
425
  8
BEM
 10
206.3812962010210867
 20
540.8766750202674984
 30
0.0
 40
2.5
  1

 50
90.0
 41
0.8
  7
GREEKS
  0
TEXT
  5
426
  8
BEM
 10
211.6191400196846075
 20
540.8766750202674984
 30
0.0
 40
2.5
  1

 50
90.0
 41
0.8
  7
GREEKS
  0
TEXT
  5
427
  8
BEM
 10
216.1243289697821979
 20
540.8037305428931631
 30
0.0
 40
1.8
  1

 50
90.0
 41
0.8
  7
GREEKS
  0
TEXT
  5
428
  8
BEM
 10
190.5327398735570057
 20
528.1201596632818109
 30
0.0
 40
2.0
  1

 50
90.0
 41
0.8
  7
GREEKS
 72
     1
 11
190.5327398735570057
 21
528.1201596632818109
 31
0.0
  0
TEXT
  5
429
  8
TEXT
 10
200.8550164369640925
 20
838.2208783845755988
 30
0.0
 40
2.5
  1
  
 50
90.0
  7
GREEKS
 72
     1
 11
200.8550164369640925
 21
840.4827831464805286
 31
0.0
  0
TEXT
  5
42A
  8
BEM
 10
65.2961344065618619
 20
1082.3405956970580064
 30
0.0
 40
2.5
  1
 
 50
90.0
 72
     4
 11
65.2961344065618619
 21
1083.4715480780100734
 31
0.0
  0
TEXT
  5
42D
  8
VOLL
 10
198.9617379082004049
 20
431.105374576267991
 30
0.0
 40
1.8
  1

 50
90.0
  7
GREEKS
  0
TEXT
  5
42E
  8
TEXT
 10
193.4035023749748916
 20
762.9376427798609939
 30
0.0
 40
2.5
  1
  
 50
90.0
  7
GREEKS
 72
     1
 11
193.4035023749748916
 21
765.1995475417658099
 31
0.0
  0
TEXT
  5
42F
  8
BEM
 10
57.8446203445726894
 20
1007.0573600923429467
 30
0.0
 40
2.5
  1
 
 50
90.0
 72
     4
 11
57.8446203445726894
 21
1008.1883124732950137
 31
0.0
  0
TEXT
  5
430
  8
BEM
 10
178.6283270185238052
 20
586.2449767330640498
 30
0.0
 40
2.5
  1

 50
90.0
  7
GREEKS
  0
TEXT
  5
431
  8
VOLL
 10
198.8115876755589966
 20
572.1787837133424546
 30
0.0
 40
1.8
  1

 50
90.0
  7
GREEKS
  0
TEXT
  5
432
  8
BEM
 10
194.0858633523382935
 20
606.6668485526271297
 30
0.0
 40
2.5
  1

 50
90.0
 41
0.8
  7
GREEKS
  0
TEXT
  5
433
  8
BEM
 10
198.7796319063905059
 20
606.6668485526271297
 30
0.0
 40
2.5
  1

 50
90.0
 41
0.8
  7
GREEKS
  0
TEXT
  5
434
  8
BEM
 10
204.0174757250539983
 20
606.6668485526271297
 30
0.0
 40
2.5
  1

 50
90.0
 41
0.8
  7
GREEKS
  0
TEXT
  5
435
  8
BEM
 10
208.5226646751517023
 20
606.5939040752526807
 30
0.0
 40
1.8
  1

 50
90.0
 41
0.8
  7
GREEKS
  0
TEXT
  5
436
  8
BEM
 10
182.9310755789263112
 20
593.9103331956415559
 30
0.0
 40
2.0
  1

 50
90.0
 41
0.8
  7
GREEKS
 72
     1
 11
182.9310755789263112
 21
593.9103331956415559
 31
0.0
  0
TEXT
  5
437
  8
TEXT
 10
193.253352142333398
 20
904.0110519169353438
 30
0.0
 40
2.5
  1
  
 50
90.0
  7
GREEKS
 72
     1
 11
193.253352142333398
 21
906.2729566788402735
 31
0.0
  0
TEXT
  5
438
  8
BEM
 10
57.6944701119312526
 20
1148.1307692294180924
 30
0.0
 40
2.5
  1
 
 50
90.0
 72
     4
 11
57.6944701119312526
 21
1149.261721610369932
 31
0.0
  0
TEXT
  5
439
  8
VOLL
 10
210.7774474339489075
 20
367.0831631495116767
 30
0.0
 40
1.8
  1

 50
90.0
  7
GREEKS
  0
TEXT
  5
43A
  8
TEXT
 10
205.2192119007233941
 20
698.9154313531045091
 30
0.0
 40
2.5
  1
  
 50
90.0
  7
GREEKS
 72
     1
 11
205.2192119007233941
 21
701.1773361150093251
 31
0.0
  0
TEXT
  5
43B
  8
BEM
 10
69.6603298703211919
 20
943.0351486655864619
 30
0.0
 40
2.5
  1
 
 50
90.0
 72
     4
 11
69.6603298703211919
 21
944.1661010465389836
 31
0.0
  0
TEXT
  5
43C
  8
BEM
 10
170.6242167353632908
 20
532.4287762291615991
 30
0.0
 40
2.5
  1

 50
90.0
  7
GREEKS
  0
TEXT
  5
43D
  8
VOLL
 10
190.8074773923983116
 20
518.3625832094401176
 30
0.0
 40
1.8
  1

 50
90.0
  7
GREEKS
  0
TEXT
  5
43E
  8
BEM
 10
186.0817530691778074
 20
552.8506480487247927
 30
0.0
 40
2.5
  1

 50
90.0
 41
0.8
  7
GREEKS
  0
TEXT
  5
43F
  8
BEM
 10
190.7755216232299063
 20
552.8506480487247927
 30
0.0
 40
2.5
  1

 50
90.0
 41
0.8
  7
GREEKS
  0
TEXT
  5
440
  8
BEM
 10
196.0133654418933986
 20
552.8506480487247927
 30
0.0
 40
2.5
  1

 50
90.0
 41
0.8
  7
GREEKS
  0
TEXT
  5
441
  8
BEM
 10
200.5185543919911026
 20
552.7777035713503437
 30
0.0
 40
1.8
  1

 50
90.0
 41
0.8
  7
GREEKS
  0
TEXT
  5
442
  8
BEM
 10
174.9269652957657968
 20
540.0941326917391052
 30
0.0
 40
2.0
  1

 50
90.0
 41
0.8
  7
GREEKS
 72
     1
 11
174.9269652957657968
 21
540.0941326917391052
 31
0.0
  0
TEXT
  5
443
  8
TEXT
 10
185.2492418591727983
 20
850.1948514130328931
 30
0.0
 40
2.5
  1
  
 50
90.0
  7
GREEKS
 72
     1
 11
185.2492418591727983
 21
852.4567561749378228
 31
0.0
  0
TEXT
  5
444
  8
BEM
 10
49.6903598287706316
 20
1094.3145687255150733
 30
0.0
 40
2.5
  1
 
 50
90.0
 72
     4
 11
49.6903598287706316
 21
1095.4455211064669129
 31
0.0
  0
TEXT
  5
445
  8
VOLL
 10
205.6590040564464061
 20
694.6647394026227857
 30
0.0
 40
1.8
  1

 50
90.0
  7
GREEKS
  0
TEXT
  5
446
  8
VOLL
 10
200.3668873407270894
 20
784.3309133282961056
 30
0.0
 40
1.8
  1

 50
90.0
  7
GREEKS
  0
TEXT
  5
447
  8
TEXT
 10
194.8086518075014908
 20
1116.1631815318889949
 30
0.0
 40
2.5
  1
  
 50
90.0
  7
GREEKS
 72
     1
 11
194.8086518075014908
 21
1118.4250862937940383
 31
0.0
  0
TEXT
  5
448
  8
BEM
 10
59.2497697770994023
 20
1360.2828988443709477
 30
0.0
 40
2.5
  1
 
 50
90.0
 72
     4
 11
59.2497697770994023
 21
1361.4138512253230147
 31
0.0
  0
TEXT
  5
449
  8
BEM
 10
176.7301731495657009
 20
925.9722429742206486
 30
0.0
 40
2.5
  1

 50
90.0
  7
GREEKS
  0
TEXT
  5
44A
  8
VOLL
 10
196.913433806600807
 20
911.9060499544990535
 30
0.0
 40
1.8
  1

 50
90.0
  7
GREEKS
  0
TEXT
  5
44B
  8
BEM
 10
192.1877094833801891
 20
946.3941147937838423
 30
0.0
 40
2.5
  1

 50
90.0
 41
0.8
  7
GREEKS
  0
TEXT
  5
44C
  8
BEM
 10
196.8814780374322879
 20
946.3941147937838423
 30
0.0
 40
2.5
  1

 50
90.0
 41
0.8
  7
GREEKS
  0
TEXT
  5
44D
  8
BEM
 10
202.119321856095894
 20
946.3941147937838423
 30
0.0
 40
2.5
  1

 50
90.0
 41
0.8
  7
GREEKS
  0
TEXT
  5
44E
  8
BEM
 10
206.6245108061935127
 20
946.3211703164092796
 30
0.0
 40
1.8
  1

 50
90.0
 41
0.8
  7
GREEKS
  0
TEXT
  5
44F
  8
BEM
 10
181.0329217099682069
 20
933.6375994367980411
 30
0.0
 40
2.0
  1

 50
90.0
 41
0.8
  7
GREEKS
 72
     1
 11
181.0329217099682069
 21
933.6375994367980411
 31
0.0
  0
TEXT
  5
450
  8
TEXT
 10
191.3551982733752936
 20
1243.7383181580919427
 30
0.0
 40
2.5
  1
  
 50
90.0
  7
GREEKS
 72
     1
 11
191.3551982733752936
 21
1246.0002229199969861
 31
0.0
  0
TEXT
  5
451
  8
BEM
 10
55.7963162429730914
 20
1487.8580354705738955
 30
0.0
 40
2.5
  1
 
 50
90.0
 72
     4
 11
55.7963162429730914
 21
1488.9889878515259625
 31
0.0
  0
TEXT
  5
452
  8
VOLL
 10
228.6080769489470015
 20
702.5780540944062977
 30
0.0
 40
1.8
  1

 50
90.0
  7
GREEKS
  0
TEXT
  5
453
  8
VOLL
 10
223.3159602332277132
 20
792.2442280200793903
 30
0.0
 40
1.8
  1

 50
90.0
  7
GREEKS
  0
TEXT
  5
454
  8
TEXT
 10
217.7577247000021998
 20
1124.0764962236719384
 30
0.0
 40
2.5
  1
  
 50
90.0
  7
GREEKS
 72
     1
 11
217.7577247000021998
 21
1126.3384009855769818
 31
0.0
  0
TEXT
  5
455
  8
BEM
 10
82.1988426695999266
 20
1368.1962135361538913
 30
0.0
 40
2.5
  1
 
 50
90.0
 72
     4
 11
82.1988426695999266
 21
1369.3271659171070951
 31
0.0
  0
TEXT
  5
456
  8
BEM
 10
199.679246042066211
 20
933.8855576660037059
 30
0.0
 40
2.5
  1

 50
90.0
  7
GREEKS
  0
TEXT
  5
457
  8
VOLL
 10
219.8625066991012886
 20
919.8193646462824518
 30
0.0
 40
1.8
  1

 50
90.0
  7
GREEKS
  0
TEXT
  5
458
  8
BEM
 10
215.1367823758808129
 20
954.3074294855668995
 30
0.0
 40
2.5
  1

 50
90.0
 41
0.8
  7
GREEKS
  0
TEXT
  5
459
  8
BEM
 10
219.8305509299329117
 20
954.3074294855668995
 30
0.0
 40
2.5
  1

 50
90.0
 41
0.8
  7
GREEKS
  0
TEXT
  5
45A
  8
BEM
 10
225.068394748596404
 20
954.3074294855668995
 30
0.0
 40
2.5
  1

 50
90.0
 41
0.8
  7
GREEKS
  0
TEXT
  5
45B
  8
BEM
 10
229.5735836986939944
 20
954.2344850081925642
 30
0.0
 40
1.8
  1

 50
90.0
 41
0.8
  7
GREEKS
  0
TEXT
  5
45C
  8
BEM
 10
203.9819946024688022
 20
941.5509141285815531
 30
0.0
 40
2.0
  1

 50
90.0
 41
0.8
  7
GREEKS
 72
     1
 11
203.9819946024688022
 21
941.5509141285815531
 31
0.0
  0
TEXT
  5
45D
  8
TEXT
 10
214.3042711658758037
 20
1251.6516328498751136
 30
0.0
 40
2.5
  1
  
 50
90.0
  7
GREEKS
 72
     1
 11
214.3042711658758037
 21
1253.9135376117799296
 31
0.0
  0
TEXT
  5
45E
  8
BEM
 10
78.7453891354736015
 20
1495.7713501623570664
 30
0.0
 40
2.5
  1
 
 50
90.0
 72
     4
 11
78.7453891354736015
 21
1496.902302543308906
 31
0.0
  0
TEXT
  5
45F
  8
VOLL
 10
212.4109926371122015
 20
844.5361290415675057
 30
0.0
 40
1.8
  1

 50
90.0
  7
GREEKS
  0
TEXT
  5
460
  8
TEXT
 10
206.8527571038866881
 20
1176.3683972451599402
 30
0.0
 40
2.5
  1
  
 50
90.0
  7
GREEKS
 72
     1
 11
206.8527571038866881
 21
1178.6303020070649836
 31
0.0
  0
TEXT
  5
461
  8
BEM
 10
71.2938750734844575
 20
1420.488114557641893
 30
0.0
 40
2.5
  1
 
 50
90.0
 72
     4
 11
71.2938750734844575
 21
1421.6190669385950969
 31
0.0
  0
TEXT
  5
462
  8
BEM
 10
192.0775817474356018
 20
999.6757311983634509
 30
0.0
 40
2.5
  1

 50
90.0
  7
GREEKS
  0
TEXT
  5
463
  8
VOLL
 10
212.2608424044707931
 20
985.6095381786419694
 30
0.0
 40
1.8
  1

 50
90.0
  7
GREEKS
  0
TEXT
  5
464
  8
BEM
 10
207.5351180812502037
 20
1020.0976030179259624
 30
0.0
 40
2.5
  1

 50
90.0
 41
0.8
  7
GREEKS
  0
TEXT
  5
465
  8
BEM
 10
212.2288866353023025
 20
1020.0976030179259624
 30
0.0
 40
2.5
  1

 50
90.0
 41
0.8
  7
GREEKS
  0
TEXT
  5
466
  8
BEM
 10
217.4667304539659085
 20
1020.0976030179259624
 30
0.0
 40
2.5
  1

 50
90.0
 41
0.8
  7
GREEKS
  0
TEXT
  5
467
  8
BEM
 10
221.9719194040634989
 20
1020.0246585405519681
 30
0.0
 40
1.8
  1

 50
90.0
 41
0.8
  7
GREEKS
  0
TEXT
  5
468
  8
BEM
 10
196.380330307838193
 20
1007.341087660940957
 30
0.0
 40
2.0
  1

 50
90.0
 41
0.8
  7
GREEKS
 72
     1
 11
196.380330307838193
 21
1007.341087660940957
 31
0.0
  0
TEXT
  5
469
  8
TEXT
 10
206.7026068712451945
 20
1317.4418063822349723
 30
0.0
 40
2.5
  1
  
 50
90.0
  7
GREEKS
 72
     1
 11
206.7026068712451945
 21
1319.7037111441400157
 31
0.0
  0
TEXT
  5
46A
  8
BEM
 10
71.1437248408430776
 20
1561.5615236947169251
 30
0.0
 40
2.5
  1
 
 50
90.0
 72
     4
 11
71.1437248408430776
 21
1562.6924760756689921
 31
0.0
  0
TEXT
  5
46B
  8
VOLL
 10
17.7487631573062501
 20
475.1532693546834025
 30
0.0
 40
1.8
  1

 50
90.0
  7
GREEKS
  0
TEXT
  5
46C
  8
VOLL
 10
12.4566464415869405
 20
564.8194432803566087
 30
0.0
 40
1.8
  1

 50
90.0
  7
GREEKS
  0
TEXT
  5
46D
  8
TEXT
 10
6.8984109083614271
 20
896.651711483949498
 30
0.0
 40
2.5
  1
  
 50
90.0
  7
GREEKS
 72
     1
 11
6.8984109083614271
 21
898.9136162458542003
 31
0.0
  0
TEXT
  5
46E
  8
BEM
 10
-128.6604711220406898
 20
1140.7714287964311097
 30
0.0
 40
2.5
  1
 
 50
90.0
 72
     4
 11
-128.6604711220406898
 21
1141.9023811773840862
 31
0.0
  0
TEXT
  5
46F
  8
BEM
 10
-11.1800677495744498
 20
706.4607729262810381
 30
0.0
 40
2.5
  1

 50
90.0
  7
GREEKS
  0
TEXT
  5
470
  8
VOLL
 10
9.0031929074606296
 20
692.3945799065595565
 30
0.0
 40
1.8
  1

 50
90.0
  7
GREEKS
  0
TEXT
  5
471
  8
BEM
 10
4.2774685842400677
 20
726.8826447458442317
 30
0.0
 40
2.5
  1

 50
90.0
 41
0.8
  7
GREEKS
  0
TEXT
  5
472
  8
BEM
 10
8.9712371382921674
 20
726.8826447458442317
 30
0.0
 40
2.5
  1

 50
90.0
 41
0.8
  7
GREEKS
  0
TEXT
  5
473
  8
BEM
 10
14.20908095695569
 20
726.8826447458442317
 30
0.0
 40
2.5
  1

 50
90.0
 41
0.8
  7
GREEKS
  0
TEXT
  5
474
  8
BEM
 10
18.7142699070533283
 20
726.809700268469669
 30
0.0
 40
1.8
  1

 50
90.0
 41
0.8
  7
GREEKS
  0
TEXT
  5
475
  8
BEM
 10
-6.8773191891719421
 20
714.1261293888585442
 30
0.0
 40
2.0
  1

 50
90.0
 41
0.8
  7
GREEKS
 72
     1
 11
-6.8773191891719421
 21
714.1261293888585442
 31
0.0
  0
TEXT
  5
476
  8
TEXT
 10
3.4449573742351731
 20
1024.2268481101521047
 30
0.0
 40
2.5
  1
  
 50
90.0
  7
GREEKS
 72
     1
 11
3.4449573742351731
 21
1026.4887528720569208
 31
0.0
  0
TEXT
  5
477
  8
BEM
 10
-132.1139246561670006
 20
1268.346565422634967
 30
0.0
 40
2.5
  1
 
 50
90.0
 72
     4
 11
-132.1139246561670006
 21
1269.477517803587034
 31
0.0
  0
TEXT
  5
478
  8
VOLL
 10
1.551678845471542
 20
617.1113443018448379
 30
0.0
 40
1.8
  1

 50
90.0
  7
GREEKS
  0
TEXT
  5
479
  8
TEXT
 10
-4.00655668775397
 20
948.9436125054377271
 30
0.0
 40
2.5
  1
  
 50
90.0
  7
GREEKS
 72
     1
 11
-4.00655668775397
 21
951.2055172673425432
 31
0.0
  0
TEXT
  5
47A
  8
BEM
 10
-139.5654387181562015
 20
1193.0633298179191115
 30
0.0
 40
2.5
  1
 
 50
90.0
 72
     4
 11
-139.5654387181562015
 21
1194.194282198872088
 31
0.0
  0
TEXT
  5
47B
  8
BEM
 10
-18.7817320442050502
 20
772.2509464586406693
 30
0.0
 40
2.5
  1

 50
90.0
  7
GREEKS
  0
TEXT
  5
47C
  8
VOLL
 10
1.401528612830077
 20
758.1847534389193015
 30
0.0
 40
1.8
  1

 50
90.0
  7
GREEKS
  0
TEXT
  5
47D
  8
BEM
 10
-3.3241957103905402
 20
792.672818278203863
 30
0.0
 40
2.5
  1

 50
90.0
 41
0.8
  7
GREEKS
  0
TEXT
  5
47E
  8
BEM
 10
1.369572843661615
 20
792.672818278203863
 30
0.0
 40
2.5
  1

 50
90.0
 41
0.8
  7
GREEKS
  0
TEXT
  5
47F
  8
BEM
 10
6.6074166623251349
 20
792.672818278203863
 30
0.0
 40
2.5
  1

 50
90.0
 41
0.8
  7
GREEKS
  0
TEXT
  5
480
  8
BEM
 10
11.1126056124227208
 20
792.599873800829414
 30
0.0
 40
1.8
  1

 50
90.0
 41
0.8
  7
GREEKS
  0
TEXT
  5
481
  8
BEM
 10
-14.4789834838025495
 20
779.9163029212181755
 30
0.0
 40
2.0
  1

 50
90.0
 41
0.8
  7
GREEKS
 72
     1
 11
-14.4789834838025495
 21
779.9163029212181755
 31
0.0
  0
TEXT
  5
482
  8
TEXT
 10
-4.1567069203954361
 20
1090.0170216425119634
 30
0.0
 40
2.5
  1
  
 50
90.0
  7
GREEKS
 72
     1
 11
-4.1567069203954361
 21
1092.2789264044170068
 31
0.0
  0
TEXT
  5
483
  8
BEM
 10
-139.7155889507976099
 20
1334.1367389549939162
 30
0.0
 40
2.5
  1
 
 50
90.0
 72
     4
 11
-139.7155889507976099
 21
1335.2676913359459832
 31
0.0
  0
TEXT
  5
484
  8
VOLL
 10
13.3673883712200396
 20
553.0891328750883531
 30
0.0
 40
1.8
  1

 50
90.0
  7
GREEKS
  0
TEXT
  5
485
  8
TEXT
 10
7.8091528379945307
 20
884.921401078681356
 30
0.0
 40
2.5
  1
  
 50
90.0
  7
GREEKS
 72
     1
 11
7.8091528379945307
 21
887.1833058405859447
 31
0.0
  0
TEXT
  5
486
  8
BEM
 10
-127.749729192407699
 20
1129.0411183911630815
 30
0.0
 40
2.5
  1
 
 50
90.0
 72
     4
 11
-127.749729192407699
 21
1130.1720707721149211
 31
0.0
  0
TEXT
  5
487
  8
BEM
 10
-26.7858423273656783
 20
718.4347459547383323
 30
0.0
 40
2.5
  1

 50
90.0
  7
GREEKS
  0
TEXT
  5
488
  8
VOLL
 10
-6.60258167033055
 20
704.3685529350168508
 30
0.0
 40
1.8
  1

 50
90.0
  7
GREEKS
  0
TEXT
  5
489
  8
BEM
 10
-11.3283059935511101
 20
738.856617774301526
 30
0.0
 40
2.5
  1

 50
90.0
 41
0.8
  7
GREEKS
  0
TEXT
  5
48A
  8
BEM
 10
-6.6345374394990131
 20
738.856617774301526
 30
0.0
 40
2.5
  1

 50
90.0
 41
0.8
  7
GREEKS
  0
TEXT
  5
48B
  8
BEM
 10
-1.3966936208354921
 20
738.856617774301526
 30
0.0
 40
2.5
  1

 50
90.0
 41
0.8
  7
GREEKS
  0
TEXT
  5
48C
  8
BEM
 10
3.108495329262154
 20
738.783673296927077
 30
0.0
 40
1.8
  1

 50
90.0
 41
0.8
  7
GREEKS
  0
TEXT
  5
48D
  8
BEM
 10
-22.4830937669631794
 20
726.1001024173158385
 30
0.0
 40
2.0
  1

 50
90.0
 41
0.8
  7
GREEKS
 72
     1
 11
-22.4830937669631794
 21
726.1001024173158385
 31
0.0
  0
TEXT
  5
48E
  8
TEXT
 10
-12.1608172035560607
 20
1036.2008211386100811
 30
0.0
 40
2.5
  1
  
 50
90.0
  7
GREEKS
 72
     1
 11
-12.1608172035560607
 21
1038.4627259005139877
 31
0.0
  0
TEXT
  5
48F
  8
BEM
 10
-147.7196992339582096
 20
1280.3205384510920339
 30
0.0
 40
2.5
  1
 
 50
90.0
 72
     4
 11
-147.7196992339582096
 21
1281.4514908320441009
 31
0.0
  0
TEXT
  5
490
  8
VOLL
 10
39.4048601658702182
 20
481.5546222872239923
 30
0.0
 40
1.8
  1

 50
90.0
  7
GREEKS
  0
TEXT
  5
491
  8
VOLL
 10
34.1127434501509015
 20
571.2207962128971985
 30
0.0
 40
1.8
  1

 50
90.0
  7
GREEKS
  0
TEXT
  5
492
  8
TEXT
 10
28.5545079169253917
 20
903.0530644164900878
 30
0.0
 40
2.5
  1
  
 50
90.0
  7
GREEKS
 72
     1
 11
28.5545079169253917
 21
905.3149691783950175
 31
0.0
  0
TEXT
  5
493
  8
BEM
 10
-107.0043741134767998
 20
1147.1727817289720406
 30
0.0
 40
2.5
  1
 
 50
90.0
 72
     4
 11
-107.0043741134767998
 21
1148.3037341099241075
 31
0.0
  0
TEXT
  5
494
  8
BEM
 10
10.4760292589895094
 20
712.8621258588217415
 30
0.0
 40
2.5
  1

 50
90.0
  7
GREEKS
  0
TEXT
  5
495
  8
VOLL
 10
30.6592899160246191
 20
698.7959328391001463
 30
0.0
 40
1.8
  1

 50
90.0
  7
GREEKS
  0
TEXT
  5
496
  8
BEM
 10
25.9335655928040296
 20
733.2839976783849352
 30
0.0
 40
2.5
  1

 50
90.0
 41
0.8
  7
GREEKS
  0
TEXT
  5
497
  8
BEM
 10
30.6273341468561604
 20
733.2839976783849352
 30
0.0
 40
2.5
  1

 50
90.0
 41
0.8
  7
GREEKS
  0
TEXT
  5
498
  8
BEM
 10
35.8651779655196776
 20
733.2839976783849352
 30
0.0
 40
2.5
  1

 50
90.0
 41
0.8
  7
GREEKS
  0
TEXT
  5
499
  8
BEM
 10
40.3703669156173177
 20
733.2110532010104862
 30
0.0
 40
1.8
  1

 50
90.0
 41
0.8
  7
GREEKS
  0
TEXT
  5
49A
  8
BEM
 10
14.7787778193920207
 20
720.5274823213992477
 30
0.0
 40
2.0
  1

 50
90.0
 41
0.8
  7
GREEKS
 72
     1
 11
14.7787778193920207
 21
720.5274823213992477
 31
0.0
  0
TEXT
  5
49B
  8
TEXT
 10
25.1010543827991306
 20
1030.6282010426930356
 30
0.0
 40
2.5
  1
  
 50
90.0
  7
GREEKS
 72
     1
 11
25.1010543827991306
 21
1032.890105804598079
 31
0.0
  0
TEXT
  5
49C
  8
BEM
 10
-110.4578276476030965
 20
1274.7479183551749884
 30
0.0
 40
2.5
  1
 
 50
90.0
 72
     4
 11
-110.4578276476030965
 21
1275.8788707361279648
 31
0.0
  0
TEXT
  5
49D
  8
VOLL
 10
23.2077758540355106
 20
623.5126972343854277
 30
0.0
 40
1.8
  1

 50
90.0
  7
GREEKS
  0
TEXT
  5
49E
  8
TEXT
 10
17.6495403208099901
 20
955.3449654379784306
 30
0.0
 40
2.5
  1
  
 50
90.0
  7
GREEKS
 72
     1
 11
17.6495403208099901
 21
957.6068701998832466
 31
0.0
  0
TEXT
  5
49F
  8
BEM
 10
-117.9093417095921978
 20
1199.4646827504600424
 30
0.0
 40
2.5
  1
 
 50
90.0
 72
     4
 11
-117.9093417095921978
 21
1200.5956351314121093
 31
0.0
  0
TEXT
  5
4A0
  8
BEM
 10
2.8743649643589029
 20
778.6522993911812591
 30
0.0
 40
2.5
  1

 50
90.0
  7
GREEKS
  0
TEXT
  5
4A1
  8
VOLL
 10
23.0576256213940383
 20
764.5861063714598913
 30
0.0
 40
1.8
  1

 50
90.0
  7
GREEKS
  0
TEXT
  5
4A2
  8
BEM
 10
18.3319012981734204
 20
799.0741712107444528
 30
0.0
 40
2.5
  1

 50
90.0
 41
0.8
  7
GREEKS
  0
TEXT
  5
4A3
  8
BEM
 10
23.0256698522255796
 20
799.0741712107444528
 30
0.0
 40
2.5
  1

 50
90.0
 41
0.8
  7
GREEKS
  0
TEXT
  5
4A4
  8
BEM
 10
28.2635136708891004
 20
799.0741712107444528
 30
0.0
 40
2.5
  1

 50
90.0
 41
0.8
  7
GREEKS
  0
TEXT
  5
4A5
  8
BEM
 10
32.7687026209867227
 20
799.0012267333701175
 30
0.0
 40
1.8
  1

 50
90.0
 41
0.8
  7
GREEKS
  0
TEXT
  5
4A6
  8
BEM
 10
7.1771135247614088
 20
786.3176558537588789
 30
0.0
 40
2.0
  1

 50
90.0
 41
0.8
  7
GREEKS
 72
     1
 11
7.1771135247614088
 21
786.3176558537588789
 31
0.0
  0
TEXT
  5
4A7
  8
TEXT
 10
17.4993900881685214
 20
1096.4183745750519847
 30
0.0
 40
2.5
  1
  
 50
90.0
  7
GREEKS
 72
     1
 11
17.4993900881685214
 21
1098.6802793369570281
 31
0.0
  0
TEXT
  5
4A8
  8
BEM
 10
-118.0594919422337057
 20
1340.5380918875350744
 30
0.0
 40
2.5
  1
 
 50
90.0
 72
     4
 11
-118.0594919422337057
 21
1341.669044268486914
 31
0.0
  0
TEXT
  5
4A9
  8
VOLL
 10
35.0234853797840131
 20
559.4904858076290566
 30
0.0
 40
1.8
  1

 50
90.0
  7
GREEKS
  0
TEXT
  5
4AA
  8
TEXT
 10
29.4652498465584713
 20
891.3227540112218321
 30
0.0
 40
2.5
  1
  
 50
90.0
  7
GREEKS
 72
     1
 11
29.4652498465584713
 21
893.5846587731266482
 31
0.0
  0
TEXT
  5
4AB
  8
BEM
 10
-106.0936321838436953
 20
1135.4424713237040123
 30
0.0
 40
2.5
  1
 
 50
90.0
 72
     4
 11
-106.0936321838436953
 21
1136.5734237046560793
 31
0.0
  0
TEXT
  5
4AC
  8
BEM
 10
-5.1297453188017244
 20
724.8360988872790358
 30
0.0
 40
2.5
  1

 50
90.0
  7
GREEKS
  0
TEXT
  5
4AD
  8
VOLL
 10
15.0535153382334101
 20
710.7699058675574406
 30
0.0
 40
1.8
  1

 50
90.0
  7
GREEKS
  0
TEXT
  5
4AE
  8
BEM
 10
10.3277910150128491
 20
745.2579707068422294
 30
0.0
 40
2.5
  1

 50
90.0
 41
0.8
  7
GREEKS
  0
TEXT
  5
4AF
  8
BEM
 10
15.0215595690649497
 20
745.2579707068422294
 30
0.0
 40
2.5
  1

 50
90.0
 41
0.8
  7
GREEKS
  0
TEXT
  5
4B0
  8
BEM
 10
20.2594033877284687
 20
745.2579707068422294
 30
0.0
 40
2.5
  1

 50
90.0
 41
0.8
  7
GREEKS
  0
TEXT
  5
4B1
  8
BEM
 10
24.7645923378261195
 20
745.1850262294676668
 30
0.0
 40
1.8
  1

 50
90.0
 41
0.8
  7
GREEKS
  0
TEXT
  5
4B2
  8
BEM
 10
-0.8269967583992183
 20
732.5014553498564283
 30
0.0
 40
2.0
  1

 50
90.0
 41
0.8
  7
GREEKS
 72
     1
 11
-0.8269967583992183
 21
732.5014553498564283
 31
0.0
  0
TEXT
  5
4B3
  8
TEXT
 10
9.4952798050078968
 20
1042.6021740711501025
 30
0.0
 40
2.5
  1
  
 50
90.0
  7
GREEKS
 72
     1
 11
9.4952798050078968
 21
1044.8640788330549185
 31
0.0
  0
TEXT
  5
4B4
  8
BEM
 10
-126.0636022253943054
 20
1286.7218913836320553
 30
0.0
 40
2.5
  1
 
 50
90.0
 72
     4
 11
-126.0636022253943054
 21
1287.8528437645850317
 31
0.0
  0
TEXT
  5
4B5
  8
VOLL
 10
54.6140751128223485
 20
837.8916246633752962
 30
0.0
 40
1.8
  1

 50
90.0
  7
GREEKS
  0
TEXT
  5
4B6
  8
TEXT
 10
49.0558395795968067
 20
1169.7238928669680718
 30
0.0
 40
2.5
  1
  
 50
90.0
  7
GREEKS
 72
     1
 11
49.0558395795968067
 21
1171.9857976288728878
 31
0.0
  0
TEXT
  5
4B7
  8
BEM
 10
-86.5030424508054239
 20
1413.8436101794509341
 30
0.0
 40
2.5
  1
 
 50
90.0
 72
     4
 11
-86.5030424508054239
 21
1414.974562560403001
 31
0.0
  0
TEXT
  5
4B8
  8
VOLL
 10
49.058519477751112
 20
995.4263417405370546
 30
0.0
 40
1.8
  1

 50
90.0
  7
GREEKS
  0
TEXT
  5
4B9
  8
BEM
 10
44.3327951545304799
 20
1029.9144065798220709
 30
0.0
 40
2.5
  1

 50
90.0
 41
0.8
  7
GREEKS
  0
TEXT
  5
4BA
  8
BEM
 10
49.0265637085826427
 20
1029.9144065798220709
 30
0.0
 40
2.5
  1

 50
90.0
 41
0.8
  7
GREEKS
  0
TEXT
  5
4BB
  8
BEM
 10
54.2644075272461635
 20
1029.9144065798220709
 30
0.0
 40
2.5
  1

 50
90.0
 41
0.8
  7
GREEKS
  0
TEXT
  5
4BC
  8
BEM
 10
58.7695964773437467
 20
1029.8414621024469398
 30
0.0
 40
1.8
  1

 50
90.0
 41
0.8
  7
GREEKS
  0
TEXT
  5
4BD
  8
TEXT
 10
43.50028394452562
 20
1327.2586099441300576
 30
0.0
 40
2.5
  1
  
 50
90.0
  7
GREEKS
 72
     1
 11
43.50028394452562
 21
1329.5205147060339641
 31
0.0
  0
TEXT
  5
4BE
  8
BEM
 10
-92.0585980858766533
 20
1571.3783272566120104
 30
0.0
 40
2.5
  1
 
 50
90.0
 72
     4
 11
-92.0585980858766533
 21
1572.5092796375640773
 31
0.0
  0
TEXT
  5
4BF
  8
VOLL
 10
-11.2607046829177708
 20
582.3759598849195527
 30
0.0
 40
1.8
  1

 50
90.0
  7
GREEKS
  0
TEXT
  5
4C0
  8
TEXT
 10
-16.8189402161432895
 20
914.2082280885125556
 30
0.0
 40
2.5
  1
  
 50
90.0
  7
GREEKS
 72
     1
 11
-16.8189402161432895
 21
916.4701328504173716
 31
0.0
  0
TEXT
  5
4C1
  8
BEM
 10
-152.3778222465456054
 20
1158.32794540099394
 30
0.0
 40
2.5
  1
 
 50
90.0
 72
     4
 11
-152.3778222465456054
 21
1159.4588977819469164
 31
0.0
  0
TEXT
  5
4C2
  8
BEM
 10
-24.2819018782955212
 20
1020.4728355115260001
 30
0.0
 40
2.5
  1

 50
90.0
  7
GREEKS
  0
TEXT
  5
4C3
  8
BEM
 10
-9.3434540259753476
 20
1041.034621571237949
 30
0.0
 40
2.5
  1

 50
90.0
 41
0.8
  7
GREEKS
  0
TEXT
  5
4C4
  8
BEM
 10
0.7349960387377337
 20
1040.8952915529509937
 30
0.0
 40
2.5
  1

 50
90.0
 41
0.8
  7
GREEKS
  0
TEXT
  5
4C5
  8
BEM
 10
-4.2107868975779752
 20
1040.9485514367140695
 30
0.0
 40
2.5
  1

 50
90.0
 41
0.8
  7
GREEKS
  0
TEXT
  5
4C6
  8
BEM
 10
5.829783678377737
 20
1040.991069474609958
 30
0.0
 40
1.8
  1

 50
90.0
 41
0.8
  7
GREEKS
  0
TEXT
  5
4C7
  8
BEM
 10
-19.6085608087905108
 20
1028.4187542310280605
 30
0.0
 40
2.0
  1

 50
90.0
 41
0.8
  7
GREEKS
 72
     1
 11
-19.6085608087905108
 21
1028.4187542310280605
 31
0.0
  0
TEXT
  5
4C8
  8
VOLL
 10
-5.5719394485323051
 20
761.613893755731965
 30
0.0
 40
1.8
  1

 50
90.0
  7
GREEKS
  0
TEXT
  5
4C9
  8
TEXT
 10
-11.1301749817577598
 20
1093.4461619593239448
 30
0.0
 40
2.5
  1
  
 50
90.0
  7
GREEKS
 72
     1
 11
-11.1301749817577598
 21
1095.7080667212289882
 31
0.0
  0
TEXT
  5
4CA
  8
BEM
 10
-146.6890570121599922
 20
1337.5658792718070345
 30
0.0
 40
2.5
  1
 
 50
90.0
 72
     4
 11
-146.6890570121599922
 21
1338.6968316527591014
 31
0.0
  0
TEXT
  5
4DE
  8
BEM
 10
-68.5108655493058905
 20
876.1029121338990535
 30
0.0
 40
2.5
  1

 50
90.0
  7
GREEKS
  0
TEXT
  5
4DF
  8
VOLL
 10
-48.3276048922707631
 20
862.0367191141776857
 30
0.0
 40
1.8
  1

 50
90.0
  7
GREEKS
  0
TEXT
  5
4E0
  8
BEM
 10
-53.053329215491317
 20
896.5247839534623608
 30
0.0
 40
2.5
  1

 50
90.0
 41
0.8
  7
GREEKS
  0
TEXT
  5
4E1
  8
BEM
 10
-48.3595606614392111
 20
896.5247839534623608
 30
0.0
 40
2.5
  1

 50
90.0
 41
0.8
  7
GREEKS
  0
TEXT
  5
4E2
  8
BEM
 10
-43.1217168427756903
 20
896.5247839534623608
 30
0.0
 40
2.5
  1

 50
90.0
 41
0.8
  7
GREEKS
  0
TEXT
  5
4E3
  8
BEM
 10
-38.616527892678107
 20
896.4518394760879119
 30
0.0
 40
1.8
  1

 50
90.0
 41
0.8
  7
GREEKS
  0
TEXT
  5
4E4
  8
BEM
 10
-64.2081169889033845
 20
883.768268596476787
 30
0.0
 40
2.0
  1

 50
90.0
 41
0.8
  7
GREEKS
 72
     1
 11
-64.2081169889033845
 21
883.768268596476787
 31
0.0
  0
TEXT
  5
4E5
  8
TEXT
 10
-53.885840425496319
 20
1193.8689873177700065
 30
0.0
 40
2.5
  1
  
 50
90.0
  7
GREEKS
 72
     1
 11
-53.885840425496319
 21
1196.1308920796750499
 31
0.0
  0
TEXT
  5
4E6
  8
BEM
 10
-189.4447224558984999
 20
1437.9887046302519593
 30
0.0
 40
2.5
  1
 
 50
90.0
 72
     4
 11
-189.4447224558984999
 21
1439.1196570112049358
 31
0.0
  0
TEXT
  5
4E7
  8
VOLL
 10
34.9605128464645531
 20
570.284511965063075
 30
0.0
 40
1.8
  1

 50
90.0
  7
GREEKS
  0
TEXT
  5
4E8
  8
VOLL
 10
29.6683961307452613
 20
659.9506858907361675
 30
0.0
 40
1.8
  1

 50
90.0
  7
GREEKS
  0
TEXT
  5
4E9
  8
TEXT
 10
24.1101605975197799
 20
991.7829540943292841
 30
0.0
 40
2.5
  1
  
 50
90.0
  7
GREEKS
 72
     1
 11
24.1101605975197799
 21
994.0448588562341001
 31
0.0
  0
TEXT
  5
4EA
  8
BEM
 10
-111.4487214328823939
 20
1235.9026714068108959
 30
0.0
 40
2.5
  1
 
 50
90.0
 72
     4
 11
-111.4487214328823939
 21
1237.0336237877640997
 31
0.0
  0
TEXT
  5
4EB
  8
BEM
 10
6.031681939583847
 20
801.5920155366607105
 30
0.0
 40
2.5
  1

 50
90.0
  7
GREEKS
  0
TEXT
  5
4EC
  8
VOLL
 10
26.2149425966189291
 20
787.5258225169394564
 30
0.0
 40
1.8
  1

 50
90.0
  7
GREEKS
  0
TEXT
  5
4ED
  8
BEM
 10
21.4892182733984214
 20
822.0138873562239041
 30
0.0
 40
2.5
  1

 50
90.0
 41
0.8
  7
GREEKS
  0
TEXT
  5
4EE
  8
BEM
 10
26.1829868274505806
 20
822.0138873562239041
 30
0.0
 40
2.5
  1

 50
90.0
 41
0.8
  7
GREEKS
  0
TEXT
  5
4EF
  8
BEM
 10
31.4208306461140694
 20
822.0138873562239041
 30
0.0
 40
2.5
  1

 50
90.0
 41
0.8
  7
GREEKS
  0
TEXT
  5
4F0
  8
BEM
 10
35.9260195962116597
 20
821.9409428788494552
 30
0.0
 40
1.8
  1

 50
90.0
 41
0.8
  7
GREEKS
  0
TEXT
  5
4F1
  8
BEM
 10
10.3344304999863503
 20
809.2573719992383303
 30
0.0
 40
2.0
  1

 50
90.0
 41
0.8
  7
GREEKS
 72
     1
 11
10.3344304999863503
 21
809.2573719992383303
 31
0.0
  0
TEXT
  5
4F2
  8
TEXT
 10
20.6567070633934691
 20
1119.3580907205318908
 30
0.0
 40
2.5
  1
  
 50
90.0
  7
GREEKS
 72
     1
 11
20.6567070633934691
 21
1121.6199954824369343
 31
0.0
  0
TEXT
  5
4F3
  8
BEM
 10
-114.9021749670087047
 20
1363.477808033014071
 30
0.0
 40
2.5
  1
 
 50
90.0
 72
     4
 11
-114.9021749670087047
 21
1364.6087604139659106
 31
0.0
  0
TEXT
  5
4F7
  8
VOLL
 10
-6.9941311912556321
 20
546.8128777676957952
 30
0.0
 40
1.8
  1

 50
90.0
  7
GREEKS
  0
TEXT
  5
4F8
  8
VOLL
 10
-12.2862479069749497
 20
636.4790516933687741
 30
0.0
 40
1.8
  1

 50
90.0
  7
GREEKS
  0
TEXT
  5
4F9
  8
TEXT
 10
-17.8444834402003991
 20
968.3113198969618907
 30
0.0
 40
2.5
  1
  
 50
90.0
  7
GREEKS
 72
     1
 11
-17.8444834402003991
 21
970.5732246588667067
 31
0.0
  0
TEXT
  5
4FA
  8
BEM
 10
-153.4033654706026084
 20
1212.4310372094439572
 30
0.0
 40
2.5
  1
 
 50
90.0
 72
     4
 11
-153.4033654706026084
 21
1213.5619895903960241
 31
0.0
  0
TEXT
  5
4FB
  8
BEM
 10
-35.9229620981363382
 20
778.1203813392934308
 30
0.0
 40
2.5
  1

 50
90.0
  7
GREEKS
  0
TEXT
  5
4FC
  8
VOLL
 10
-15.7397014411012606
 20
764.0541883195719493
 30
0.0
 40
1.8
  1

 50
90.0
  7
GREEKS
  0
TEXT
  5
4FD
  8
BEM
 10
-20.4654257643218216
 20
798.5422531588566244
 30
0.0
 40
2.5
  1

 50
90.0
 41
0.8
  7
GREEKS
  0
TEXT
  5
4FE
  8
BEM
 10
-15.7716572102696606
 20
798.5422531588566244
 30
0.0
 40
2.5
  1

 50
90.0
 41
0.8
  7
GREEKS
  0
TEXT
  5
4FF
  8
BEM
 10
-10.5338133916061398
 20
798.5422531588566244
 30
0.0
 40
2.5
  1

 50
90.0
 41
0.8
  7
GREEKS
  0
TEXT
  5
500
  8
BEM
 10
-6.0286244415085539
 20
798.4693086814821754
 30
0.0
 40
1.8
  1

 50
90.0
 41
0.8
  7
GREEKS
  0
TEXT
  5
501
  8
BEM
 10
-31.6202135377338287
 20
785.7857378018709369
 30
0.0
 40
2.0
  1

 50
90.0
 41
0.8
  7
GREEKS
 72
     1
 11
-31.6202135377338287
 21
785.7857378018709369
 31
0.0
  0
TEXT
  5
502
  8
TEXT
 10
-21.2979369743267206
 20
1095.8864565231649522
 30
0.0
 40
2.5
  1
  
 50
90.0
  7
GREEKS
 72
     1
 11
-21.2979369743267206
 21
1098.1483612850690861
 31
0.0
  0
TEXT
  5
503
  8
BEM
 10
-156.8568190047288908
 20
1340.006173835646905
 30
0.0
 40
2.5
  1
 
 50
90.0
 72
     4
 11
-156.8568190047288908
 21
1341.137126216598972
 31
0.0
  0
TEXT
  5
C7D
  8
VOLL
 10
577.2740684541586234
 20
260.5642768959455111
 30
0.0
 40
1.8
  1

 50
90.0
  7
GREEKS
  0
TEXT
  5
C7E
  8
VOLL
 10
571.9819517384393066
 20
350.2304508216186036
 30
0.0
 40
1.8
  1

 50
90.0
  7
GREEKS
  0
TEXT
  5
C7F
  8
TEXT
 10
566.4237162052138501
 20
682.0627190252115497
 30
0.0
 40
2.5
  1
  
 50
90.0
  7
GREEKS
 72
     1
 11
566.4237162052138501
 21
684.3246237871162521
 31
0.0
  0
TEXT
  5
C80
  8
BEM
 10
430.8648341748115058
 20
926.1824363376933889
 30
0.0
 40
2.5
  1
 
 50
90.0
 72
     4
 11
430.8648341748115058
 21
927.3133887186459106
 31
0.0
  0
TEXT
  5
C81
  8
BEM
 10
548.3452375472778613
 20
491.8717804675430898
 30
0.0
 40
2.5
  1

 50
90.0
  7
GREEKS
  0
TEXT
  5
C82
  8
VOLL
 10
568.5284982043128821
 20
477.805587447821722
 30
0.0
 40
1.8
  1

 50
90.0
  7
GREEKS
  0
TEXT
  5
C83
  8
BEM
 10
563.8027738810924347
 20
512.2936522871062834
 30
0.0
 40
2.5
  1

 50
90.0
 41
0.8
  7
GREEKS
  0
TEXT
  5
C84
  8
BEM
 10
568.4965424351445336
 20
512.2936522871062834
 30
0.0
 40
2.5
  1

 50
90.0
 41
0.8
  7
GREEKS
  0
TEXT
  5
C85
  8
BEM
 10
573.7343862538081112
 20
512.2936522871062834
 30
0.0
 40
2.5
  1

 50
90.0
 41
0.8
  7
GREEKS
  0
TEXT
  5
C86
  8
BEM
 10
578.2395752039055878
 20
512.2207078097319481
 30
0.0
 40
1.8
  1

 50
90.0
 41
0.8
  7
GREEKS
  0
TEXT
  5
C87
  8
BEM
 10
552.6479861076803672
 20
499.5371369301205959
 30
0.0
 40
2.0
  1

 50
90.0
 41
0.8
  7
GREEKS
 72
     1
 11
552.6479861076803672
 21
499.5371369301205959
 31
0.0
  0
TEXT
  5
C88
  8
TEXT
 10
562.9702626710875393
 20
809.6378556514143838
 30
0.0
 40
2.5
  1
  
 50
90.0
  7
GREEKS
 72
     1
 11
562.9702626710875393
 21
811.8997604133193136
 31
0.0
  0
TEXT
  5
C89
  8
BEM
 10
427.4113806406853087
 20
1053.7575729638961093
 30
0.0
 40
2.5
  1
 
 50
90.0
 72
     4
 11
427.4113806406853087
 21
1054.8885253448490857
 31
0.0
  0
TEXT
  5
C8C
  8
VOLL
 10
561.0769841423237949
 20
402.522351843106776
 30
0.0
 40
1.8
  1

 50
90.0
  7
GREEKS
  0
TEXT
  5
C8D
  8
TEXT
 10
555.5187486090983384
 20
734.3546200466996652
 30
0.0
 40
2.5
  1
  
 50
90.0
  7
GREEKS
 72
     1
 11
555.5187486090983384
 21
736.6165248086045949
 31
0.0
  0
TEXT
  5
C8E
  8
BEM
 10
419.9598665786961078
 20
978.4743373591817317
 30
0.0
 40
2.5
  1
 
 50
90.0
 72
     4
 11
419.9598665786961078
 21
979.6052897401342534
 31
0.0
  0
TEXT
  5
C8F
  8
BEM
 10
540.743573252647252
 20
557.6619539999028348
 30
0.0
 40
2.5
  1

 50
90.0
  7
GREEKS
  0
TEXT
  5
C90
  8
VOLL
 10
560.9268339096825002
 20
543.5957609801813533
 30
0.0
 40
1.8
  1

 50
90.0
  7
GREEKS
  0
TEXT
  5
C91
  8
BEM
 10
556.2011095864618255
 20
578.0838258194659147
 30
0.0
 40
2.5
  1

 50
90.0
 41
0.8
  7
GREEKS
  0
TEXT
  5
C92
  8
BEM
 10
560.894878140514038
 20
578.0838258194659147
 30
0.0
 40
2.5
  1

 50
90.0
 41
0.8
  7
GREEKS
  0
TEXT
  5
C93
  8
BEM
 10
566.1327219591773883
 20
578.0838258194659147
 30
0.0
 40
2.5
  1

 50
90.0
 41
0.8
  7
GREEKS
  0
TEXT
  5
C94
  8
BEM
 10
570.6379109092749786
 20
578.0108813420914657
 30
0.0
 40
1.8
  1

 50
90.0
 41
0.8
  7
GREEKS
  0
TEXT
  5
C95
  8
BEM
 10
545.046321813049758
 20
565.3273104624803409
 30
0.0
 40
2.0
  1

 50
90.0
 41
0.8
  7
GREEKS
 72
     1
 11
545.046321813049758
 21
565.3273104624803409
 31
0.0
  0
TEXT
  5
C96
  8
TEXT
 10
555.3685983764569301
 20
875.4280291837742425
 30
0.0
 40
2.5
  1
  
 50
90.0
  7
GREEKS
 72
     1
 11
555.3685983764569301
 21
877.6899339456789448
 31
0.0
  0
TEXT
  5
C97
  8
BEM
 10
419.8097163460546994
 20
1119.5477464962559679
 30
0.0
 40
2.5
  1
 
 50
90.0
 72
     4
 11
419.8097163460546994
 21
1120.6786988772089444
 31
0.0
  0
TEXT
  5
C98
  8
VOLL
 10
572.8926936680724111
 20
338.5001404163505185
 30
0.0
 40
1.8
  1

 50
90.0
  7
GREEKS
  0
TEXT
  5
C99
  8
TEXT
 10
567.3344581348468409
 20
670.3324086199431804
 30
0.0
 40
2.5
  1
  
 50
90.0
  7
GREEKS
 72
     1
 11
567.3344581348468409
 21
672.5943133818481101
 31
0.0
  0
TEXT
  5
C9A
  8
BEM
 10
431.775576104444724
 20
914.4521259324252469
 30
0.0
 40
2.5
  1
 
 50
90.0
 72
     4
 11
431.775576104444724
 21
915.5830783133777686
 31
0.0
  0
TEXT
  5
C9B
  8
BEM
 10
532.7394629694865671
 20
503.8457534960003272
 30
0.0
 40
2.5
  1

 50
90.0
  7
GREEKS
  0
TEXT
  5
C9C
  8
VOLL
 10
552.9227236265218153
 20
489.7795604762789026
 30
0.0
 40
1.8
  1

 50
90.0
  7
GREEKS
  0
TEXT
  5
C9D
  8
BEM
 10
548.1969993033012543
 20
524.267625315563464
 30
0.0
 40
2.5
  1

 50
90.0
 41
0.8
  7
GREEKS
  0
TEXT
  5
C9E
  8
BEM
 10
552.8907678573533531
 20
524.267625315563464
 30
0.0
 40
2.5
  1

 50
90.0
 41
0.8
  7
GREEKS
  0
TEXT
  5
C9F
  8
BEM
 10
558.1286116760169307
 20
524.267625315563464
 30
0.0
 40
2.5
  1

 50
90.0
 41
0.8
  7
GREEKS
  0
TEXT
  5
CA0
  8
BEM
 10
562.6338006261144074
 20
524.1946808381891287
 30
0.0
 40
1.8
  1

 50
90.0
 41
0.8
  7
GREEKS
  0
TEXT
  5
CA1
  8
BEM
 10
537.0422115298890731
 20
511.5111099585778902
 30
0.0
 40
2.0
  1

 50
90.0
 41
0.8
  7
GREEKS
 72
     1
 11
537.0422115298890731
 21
511.5111099585778902
 31
0.0
  0
TEXT
  5
CA2
  8
TEXT
 10
547.3644880932963588
 20
821.6118286798716781
 30
0.0
 40
2.5
  1
  
 50
90.0
  7
GREEKS
 72
     1
 11
547.3644880932963588
 21
823.8737334417766078
 31
0.0
  0
TEXT
  5
CA3
  8
BEM
 10
411.8056060628941282
 20
1065.7315459923529488
 30
0.0
 40
2.5
  1
 
 50
90.0
 72
     4
 11
411.8056060628941282
 21
1066.8624983733059253
 31
0.0
  0
TEXT
  5
CA4
  8
VOLL
 10
567.774250290569853
 20
666.0817166694615707
 30
0.0
 40
1.8
  1

 50
90.0
  7
GREEKS
  0
TEXT
  5
CA5
  8
VOLL
 10
562.4821335748505362
 20
755.7478905951348906
 30
0.0
 40
1.8
  1

 50
90.0
  7
GREEKS
  0
TEXT
  5
CA6
  8
TEXT
 10
556.9238980416248523
 20
1087.5801587987270977
 30
0.0
 40
2.5
  1
  
 50
90.0
  7
GREEKS
 72
     1
 11
556.9238980416248523
 21
1089.8420635606319138
 31
0.0
  0
TEXT
  5
CA7
  8
BEM
 10
421.3650160112227923
 20
1331.6998761112099601
 30
0.0
 40
2.5
  1
 
 50
90.0
 72
     4
 11
421.3650160112227923
 21
1332.830828492162027
 31
0.0
  0
TEXT
  5
CA8
  8
BEM
 10
538.8454193836890909
 20
897.3892202410594336
 30
0.0
 40
2.5
  1

 50
90.0
  7
GREEKS
  0
TEXT
  5
CA9
  8
VOLL
 10
559.0286800407242254
 20
883.3230272213379521
 30
0.0
 40
1.8
  1

 50
90.0
  7
GREEKS
  0
TEXT
  5
CAA
  8
BEM
 10
554.3029557175035507
 20
917.8110920606226273
 30
0.0
 40
2.5
  1

 50
90.0
 41
0.8
  7
GREEKS
  0
TEXT
  5
CAB
  8
BEM
 10
558.9967242715557632
 20
917.8110920606226273
 30
0.0
 40
2.5
  1

 50
90.0
 41
0.8
  7
GREEKS
  0
TEXT
  5
CAC
  8
BEM
 10
564.2345680902193408
 20
917.8110920606226273
 30
0.0
 40
2.5
  1

 50
90.0
 41
0.8
  7
GREEKS
  0
TEXT
  5
CAD
  8
BEM
 10
568.7397570403169311
 20
917.7381475832480646
 30
0.0
 40
1.8
  1

 50
90.0
 41
0.8
  7
GREEKS
  0
TEXT
  5
CAE
  8
BEM
 10
543.1481679440917105
 20
905.0545767036368261
 30
0.0
 40
2.0
  1

 50
90.0
 41
0.8
  7
GREEKS
 72
     1
 11
543.1481679440917105
 21
905.0545767036368261
 31
0.0
  0
TEXT
  5
CAF
  8
TEXT
 10
553.4704445074987689
 20
1215.1552954249309551
 30
0.0
 40
2.5
  1
  
 50
90.0
  7
GREEKS
 72
     1
 11
553.4704445074987689
 21
1217.417200186835089
 31
0.0
  0
TEXT
  5
CB0
  8
BEM
 10
417.9115624770964814
 20
1459.2750127374129079
 30
0.0
 40
2.5
  1
 
 50
90.0
 72
     4
 11
417.9115624770964814
 21
1460.4059651183649748
 31
0.0
  0
TEXT
  5
CB1
  8
VOLL
 10
590.7233231830704199
 20
673.9950313612450827
 30
0.0
 40
1.8
  1

 50
90.0
  7
GREEKS
  0
TEXT
  5
CB2
  8
VOLL
 10
585.4312064673511031
 20
763.6612052869181753
 30
0.0
 40
1.8
  1

 50
90.0
  7
GREEKS
  0
TEXT
  5
CB3
  8
TEXT
 10
579.8729709341255329
 20
1095.4934734905109508
 30
0.0
 40
2.5
  1
  
 50
90.0
  7
GREEKS
 72
     1
 11
579.8729709341255329
 21
1097.7553782524159942
 31
0.0
  0
TEXT
  5
CB4
  8
BEM
 10
444.3140889037233023
 20
1339.6131908029929036
 30
0.0
 40
2.5
  1
 
 50
90.0
 72
     4
 11
444.3140889037233023
 21
1340.7441431839449706
 31
0.0
  0
TEXT
  5
CB5
  8
BEM
 10
561.7944922761895441
 20
905.3025349328424909
 30
0.0
 40
2.5
  1

 50
90.0
  7
GREEKS
  0
TEXT
  5
CB6
  8
VOLL
 10
581.9777529332247923
 20
891.2363419131212368
 30
0.0
 40
1.8
  1

 50
90.0
  7
GREEKS
  0
TEXT
  5
CB7
  8
BEM
 10
577.2520286100042313
 20
925.7244067524056845
 30
0.0
 40
2.5
  1

 50
90.0
 41
0.8
  7
GREEKS
  0
TEXT
  5
CB8
  8
BEM
 10
581.9457971640563301
 20
925.7244067524056845
 30
0.0
 40
2.5
  1

 50
90.0
 41
0.8
  7
GREEKS
  0
TEXT
  5
CB9
  8
BEM
 10
587.183640982719794
 20
925.7244067524056845
 30
0.0
 40
2.5
  1

 50
90.0
 41
0.8
  7
GREEKS
  0
TEXT
  5
CBA
  8
BEM
 10
591.6888299328173844
 20
925.6514622750313492
 30
0.0
 40
1.8
  1

 50
90.0
 41
0.8
  7
GREEKS
  0
TEXT
  5
CBB
  8
BEM
 10
566.0972408365920501
 20
912.9678913954203381
 30
0.0
 40
2.0
  1

 50
90.0
 41
0.8
  7
GREEKS
 72
     1
 11
566.0972408365920501
 21
912.9678913954203381
 31
0.0
  0
TEXT
  5
CBC
  8
TEXT
 10
576.4195173999992221
 20
1223.0686101167138986
 30
0.0
 40
2.5
  1
  
 50
90.0
  7
GREEKS
 72
     1
 11
576.4195173999992221
 21
1225.330514878618942
 31
0.0
  0
TEXT
  5
CBD
  8
BEM
 10
440.8606353695969915
 20
1467.1883274291960788
 30
0.0
 40
2.5
  1
 
 50
90.0
 72
     4
 11
440.8606353695969915
 21
1468.3192798101479184
 31
0.0
  0
TEXT
  5
CBE
  8
VOLL
 10
574.5262388712354777
 20
815.9531063084062907
 30
0.0
 40
1.8
  1

 50
90.0
  7
GREEKS
  0
TEXT
  5
CBF
  8
TEXT
 10
568.9680033380101349
 20
1147.7853745119989526
 30
0.0
 40
2.5
  1
  
 50
90.0
  7
GREEKS
 72
     1
 11
568.9680033380101349
 21
1150.047279273903996
 31
0.0
  0
TEXT
  5
CC0
  8
BEM
 10
433.4091213076079043
 20
1391.9050918244809054
 30
0.0
 40
2.5
  1
 
 50
90.0
 72
     4
 11
433.4091213076079043
 21
1393.0360442054329724
 31
0.0
  0
TEXT
  5
CC1
  8
BEM
 10
554.1928279815590486
 20
971.0927084652023495
 30
0.0
 40
2.5
  1

 50
90.0
  7
GREEKS
  0
TEXT
  5
CC2
  8
VOLL
 10
574.3760886385940694
 20
957.0265154454807544
 30
0.0
 40
1.8
  1

 50
90.0
  7
GREEKS
  0
TEXT
  5
CC3
  8
BEM
 10
569.650364315373622
 20
991.5145802847654295
 30
0.0
 40
2.5
  1

 50
90.0
 41
0.8
  7
GREEKS
  0
TEXT
  5
CC4
  8
BEM
 10
574.3441328694258345
 20
991.5145802847654295
 30
0.0
 40
2.5
  1

 50
90.0
 41
0.8
  7
GREEKS
  0
TEXT
  5
CC5
  8
BEM
 10
579.5819766880891848
 20
991.5145802847654295
 30
0.0
 40
2.5
  1

 50
90.0
 41
0.8
  7
GREEKS
  0
TEXT
  5
CC6
  8
BEM
 10
584.0871656381867751
 20
991.4416358073910942
 30
0.0
 40
1.8
  1

 50
90.0
 41
0.8
  7
GREEKS
  0
TEXT
  5
CC7
  8
BEM
 10
558.4955765419615545
 20
978.758064927779742
 30
0.0
 40
2.0
  1

 50
90.0
 41
0.8
  7
GREEKS
 72
     1
 11
558.4955765419615545
 21
978.758064927779742
 31
0.0
  0
TEXT
  5
CC8
  8
TEXT
 10
568.8178531053686129
 20
1288.8587836490739846
 30
0.0
 40
2.5
  1
  
 50
90.0
  7
GREEKS
 72
     1
 11
568.8178531053686129
 21
1291.120688410979028
 31
0.0
  0
TEXT
  5
CC9
  8
BEM
 10
433.258971074966496
 20
1532.9785009615559375
 30
0.0
 40
2.5
  1
 
 50
90.0
 72
     4
 11
433.258971074966496
 21
1534.1094533425080044
 31
0.0
  0
TEXT
  5
CCA
  8
VOLL
 10
379.864009391429704
 20
446.5702466215221875
 30
0.0
 40
1.8
  1

 50
90.0
  7
GREEKS
  0
TEXT
  5
CCB
  8
VOLL
 10
374.5718926757103873
 20
536.2364205471953937
 30
0.0
 40
1.8
  1

 50
90.0
  7
GREEKS
  0
TEXT
  5
CCC
  8
TEXT
 10
369.0136571424848739
 20
868.068688750788283
 30
0.0
 40
2.5
  1
  
 50
90.0
  7
GREEKS
 72
     1
 11
369.0136571424848739
 21
870.3305935126929853
 31
0.0
  0
TEXT
  5
CCD
  8
BEM
 10
233.4547751120827002
 20
1112.1884060632698947
 30
0.0
 40
2.5
  1
 
 50
90.0
 72
     4
 11
233.4547751120827002
 21
1113.3193584442219617
 31
0.0
  0
TEXT
  5
CCE
  8
BEM
 10
350.9351784845489988
 20
677.8777501931198231
 30
0.0
 40
2.5
  1

 50
90.0
  7
GREEKS
  0
TEXT
  5
CCF
  8
VOLL
 10
371.1184391415840764
 20
663.8115571733984552
 30
0.0
 40
1.8
  1

 50
90.0
  7
GREEKS
  0
TEXT
  5
CD0
  8
BEM
 10
366.3927148183635154
 20
698.2996220126830167
 30
0.0
 40
2.5
  1

 50
90.0
 41
0.8
  7
GREEKS
  0
TEXT
  5
CD1
  8
BEM
 10
371.0864833724156142
 20
698.2996220126830167
 30
0.0
 40
2.5
  1

 50
90.0
 41
0.8
  7
GREEKS
  0
TEXT
  5
CD2
  8
BEM
 10
376.3243271910790781
 20
698.2996220126830167
 30
0.0
 40
2.5
  1

 50
90.0
 41
0.8
  7
GREEKS
  0
TEXT
  5
CD3
  8
BEM
 10
380.8295161411767822
 20
698.226677535308454
 30
0.0
 40
1.8
  1

 50
90.0
 41
0.8
  7
GREEKS
  0
TEXT
  5
CD4
  8
BEM
 10
355.2379270449515047
 20
685.5431066556974429
 30
0.0
 40
2.0
  1

 50
90.0
 41
0.8
  7
GREEKS
 72
     1
 11
355.2379270449515047
 21
685.5431066556974429
 31
0.0
  0
TEXT
  5
CD5
  8
TEXT
 10
365.5602036083586199
 20
995.6438253769912308
 30
0.0
 40
2.5
  1
  
 50
90.0
  7
GREEKS
 72
     1
 11
365.5602036083586199
 21
997.9057301388960468
 31
0.0
  0
TEXT
  5
CD6
  8
BEM
 10
230.0013215779563893
 20
1239.7635426894730699
 30
0.0
 40
2.5
  1
 
 50
90.0
 72
     4
 11
230.0013215779563893
 21
1240.8944950704260464
 31
0.0
  0
TEXT
  5
CD7
  8
VOLL
 10
363.6669250795949893
 20
588.5283215686836229
 30
0.0
 40
1.8
  1

 50
90.0
  7
GREEKS
  0
TEXT
  5
CD8
  8
TEXT
 10
358.1086895463694759
 20
920.3605897722765121
 30
0.0
 40
2.5
  1
  
 50
90.0
  7
GREEKS
 72
     1
 11
358.1086895463694759
 21
922.6224945341813282
 31
0.0
  0
TEXT
  5
CD9
  8
BEM
 10
222.5498075159673022
 20
1164.4803070847578965
 30
0.0
 40
2.5
  1
 
 50
90.0
 72
     4
 11
222.5498075159673022
 21
1165.6112594657099635
 31
0.0
  0
TEXT
  5
CDA
  8
BEM
 10
343.3335141899183895
 20
743.6679237254794543
 30
0.0
 40
2.5
  1

 50
90.0
  7
GREEKS
  0
TEXT
  5
CDB
  8
VOLL
 10
363.516774846953524
 20
729.6017307057580865
 30
0.0
 40
1.8
  1

 50
90.0
  7
GREEKS
  0
TEXT
  5
CDC
  8
BEM
 10
358.7910505237329062
 20
764.089795545042648
 30
0.0
 40
2.5
  1

 50
90.0
 41
0.8
  7
GREEKS
  0
TEXT
  5
CDD
  8
BEM
 10
363.4848190777851187
 20
764.089795545042648
 30
0.0
 40
2.5
  1

 50
90.0
 41
0.8
  7
GREEKS
  0
TEXT
  5
CDE
  8
BEM
 10
368.7226628964485826
 20
764.089795545042648
 30
0.0
 40
2.5
  1

 50
90.0
 41
0.8
  7
GREEKS
  0
TEXT
  5
CDF
  8
BEM
 10
373.227851846546173
 20
764.016851067668199
 30
0.0
 40
1.8
  1

 50
90.0
 41
0.8
  7
GREEKS
  0
TEXT
  5
CE0
  8
BEM
 10
347.6362627503208955
 20
751.3332801880569605
 30
0.0
 40
2.0
  1

 50
90.0
 41
0.8
  7
GREEKS
 72
     1
 11
347.6362627503208955
 21
751.3332801880569605
 31
0.0
  0
TEXT
  5
CE1
  8
TEXT
 10
357.9585393137280107
 20
1061.4339989093509757
 30
0.0
 40
2.5
  1
  
 50
90.0
  7
GREEKS
 72
     1
 11
357.9585393137280107
 21
1063.6959036712560192
 31
0.0
  0
TEXT
  5
CE2
  8
BEM
 10
222.3996572833258085
 20
1305.5537162218329286
 30
0.0
 40
2.5
  1
 
 50
90.0
 72
     4
 11
222.3996572833258085
 21
1306.6846686027849955
 31
0.0
  0
TEXT
  5
CE3
  8
VOLL
 10
375.4826346053434918
 20
524.5061101419271381
 30
0.0
 40
1.8
  1

 50
90.0
  7
GREEKS
  0
TEXT
  5
CE4
  8
TEXT
 10
369.9243990721179784
 20
856.338378345520141
 30
0.0
 40
2.5
  1
  
 50
90.0
  7
GREEKS
 72
     1
 11
369.9243990721179784
 21
858.6002831074248434
 31
0.0
  0
TEXT
  5
CE5
  8
BEM
 10
234.365517041715691
 20
1100.4580956580020938
 30
0.0
 40
2.5
  1
 
 50
90.0
 72
     4
 11
234.365517041715691
 21
1101.5890480389539334
 31
0.0
  0
TEXT
  5
CE6
  8
BEM
 10
335.3294039067578183
 20
689.8517232215771173
 30
0.0
 40
2.5
  1

 50
90.0
  7
GREEKS
  0
TEXT
  5
CE7
  8
VOLL
 10
355.5126645637928959
 20
675.7855302018556358
 30
0.0
 40
1.8
  1

 50
90.0
  7
GREEKS
  0
TEXT
  5
CE8
  8
BEM
 10
350.7869402405722781
 20
710.2735950411401973
 30
0.0
 40
2.5
  1

 50
90.0
 41
0.8
  7
GREEKS
  0
TEXT
  5
CE9
  8
BEM
 10
355.4807087946243769
 20
710.2735950411401973
 30
0.0
 40
2.5
  1

 50
90.0
 41
0.8
  7
GREEKS
  0
TEXT
  5
CEA
  8
BEM
 10
360.7185526132880113
 20
710.2735950411401973
 30
0.0
 40
2.5
  1

 50
90.0
 41
0.8
  7
GREEKS
  0
TEXT
  5
CEB
  8
BEM
 10
365.2237415633856017
 20
710.200650563765862
 30
0.0
 40
1.8
  1

 50
90.0
 41
0.8
  7
GREEKS
  0
TEXT
  5
CEC
  8
BEM
 10
339.6321524671602106
 20
697.5170796841545098
 30
0.0
 40
2.0
  1

 50
90.0
 41
0.8
  7
GREEKS
 72
     1
 11
339.6321524671602106
 21
697.5170796841545098
 31
0.0
  0
TEXT
  5
CED
  8
TEXT
 10
349.9544290305673826
 20
1007.6177984054479566
 30
0.0
 40
2.5
  1
  
 50
90.0
  7
GREEKS
 72
     1
 11
349.9544290305673826
 21
1009.879703167353
 31
0.0
  0
TEXT
  5
CEE
  8
BEM
 10
214.3955470001652088
 20
1251.7375157179310463
 30
0.0
 40
2.5
  1
 
 50
90.0
 72
     4
 11
214.3955470001652088
 21
1252.8684680988831133
 31
0.0
  0
TEXT
  5
CEF
  8
VOLL
 10
401.5201063999937219
 20
452.9715995540627773
 30
0.0
 40
1.8
  1

 50
90.0
  7
GREEKS
  0
TEXT
  5
CF0
  8
VOLL
 10
396.2279896842744051
 20
542.6377734797359835
 30
0.0
 40
1.8
  1

 50
90.0
  7
GREEKS
  0
TEXT
  5
CF1
  8
TEXT
 10
390.6697541510487781
 20
874.4700416833288728
 30
0.0
 40
2.5
  1
  
 50
90.0
  7
GREEKS
 72
     1
 11
390.6697541510487781
 21
876.7319464452338025
 31
0.0
  0
TEXT
  5
CF2
  8
BEM
 10
255.1108721206466896
 20
1118.589758995811053
 30
0.0
 40
2.5
  1
 
 50
90.0
 72
     4
 11
255.1108721206466896
 21
1119.7207113767628925
 31
0.0
  0
TEXT
  5
CF3
  8
BEM
 10
372.5912754931130166
 20
684.2791031256605265
 30
0.0
 40
2.5
  1

 50
90.0
  7
GREEKS
  0
TEXT
  5
CF4
  8
VOLL
 10
392.7745361501480943
 20
670.212910105939045
 30
0.0
 40
1.8
  1

 50
90.0
  7
GREEKS
  0
TEXT
  5
CF5
  8
BEM
 10
388.0488118269274764
 20
704.7009749452237202
 30
0.0
 40
2.5
  1

 50
90.0
 41
0.8
  7
GREEKS
  0
TEXT
  5
CF6
  8
BEM
 10
392.7425803809795752
 20
704.7009749452237202
 30
0.0
 40
2.5
  1

 50
90.0
 41
0.8
  7
GREEKS
  0
TEXT
  5
CF7
  8
BEM
 10
397.980424199643096
 20
704.7009749452237202
 30
0.0
 40
2.5
  1

 50
90.0
 41
0.8
  7
GREEKS
  0
TEXT
  5
CF8
  8
BEM
 10
402.4856131497406864
 20
704.6280304678491575
 30
0.0
 40
1.8
  1

 50
90.0
 41
0.8
  7
GREEKS
  0
TEXT
  5
CF9
  8
BEM
 10
376.8940240535155226
 20
691.9444595882380327
 30
0.0
 40
2.0
  1

 50
90.0
 41
0.8
  7
GREEKS
 72
     1
 11
376.8940240535155226
 21
691.9444595882380327
 31
0.0
  0
TEXT
  5
CFA
  8
TEXT
 10
387.216300616922581
 20
1002.0451783095320479
 30
0.0
 40
2.5
  1
  
 50
90.0
  7
GREEKS
 72
     1
 11
387.216300616922581
 21
1004.3070830714369777
 31
0.0
  0
TEXT
  5
CFB
  8
BEM
 10
251.6574185865202935
 20
1246.1648956220140008
 30
0.0
 40
2.5
  1
 
 50
90.0
 72
     4
 11
251.6574185865202935
 21
1247.2958480029669772
 31
0.0
  0
TEXT
  5
CFC
  8
VOLL
 10
385.3230220881588934
 20
594.9296745012242127
 30
0.0
 40
1.8
  1

 50
90.0
  7
GREEKS
  0
TEXT
  5
CFD
  8
TEXT
 10
379.7647865549333801
 20
926.7619427048172156
 30
0.0
 40
2.5
  1
  
 50
90.0
  7
GREEKS
 72
     1
 11
379.7647865549333801
 21
929.023847466721918
 31
0.0
  0
TEXT
  5
CFE
  8
BEM
 10
244.2059045245312063
 20
1170.8816600172990547
 30
0.0
 40
2.5
  1
 
 50
90.0
 72
     4
 11
244.2059045245312063
 21
1172.0126123982508943
 31
0.0
  0
TEXT
  5
CFF
  8
BEM
 10
364.9896111984824074
 20
750.0692766580200441
 30
0.0
 40
2.5
  1

 50
90.0
  7
GREEKS
  0
TEXT
  5
D00
  8
VOLL
 10
385.1728718555174851
 20
736.0030836382986763
 30
0.0
 40
1.8
  1

 50
90.0
  7
GREEKS
  0
TEXT
  5
D01
  8
BEM
 10
380.4471475322969241
 20
770.4911484775833515
 30
0.0
 40
2.5
  1

 50
90.0
 41
0.8
  7
GREEKS
  0
TEXT
  5
D02
  8
BEM
 10
385.1409160863490229
 20
770.4911484775833515
 30
0.0
 40
2.5
  1

 50
90.0
 41
0.8
  7
GREEKS
  0
TEXT
  5
D03
  8
BEM
 10
390.3787599050124868
 20
770.4911484775833515
 30
0.0
 40
2.5
  1

 50
90.0
 41
0.8
  7
GREEKS
  0
TEXT
  5
D04
  8
BEM
 10
394.8839488551100771
 20
770.4182040002089025
 30
0.0
 40
1.8
  1

 50
90.0
 41
0.8
  7
GREEKS
  0
TEXT
  5
D05
  8
BEM
 10
369.2923597588849134
 20
757.7346331205976639
 30
0.0
 40
2.0
  1

 50
90.0
 41
0.8
  7
GREEKS
 72
     1
 11
369.2923597588849134
 21
757.7346331205976639
 31
0.0
  0
TEXT
  5
D06
  8
TEXT
 10
379.6146363222919717
 20
1067.8353518418909971
 30
0.0
 40
2.5
  1
  
 50
90.0
  7
GREEKS
 72
     1
 11
379.6146363222919717
 21
1070.0972566037960405
 31
0.0
  0
TEXT
  5
D07
  8
BEM
 10
244.0557542918897127
 20
1311.9550691543729499
 30
0.0
 40
2.5
  1
 
 50
90.0
 72
     4
 11
244.0557542918897127
 21
1313.0860215353259264
 31
0.0
  0
TEXT
  5
D08
  8
VOLL
 10
397.138731613907396
 20
530.9074630744678416
 30
0.0
 40
1.8
  1

 50
90.0
  7
GREEKS
  0
TEXT
  5
D09
  8
TEXT
 10
391.5804960806818826
 20
862.7397312780606171
 30
0.0
 40
2.5
  1
  
 50
90.0
  7
GREEKS
 72
     1
 11
391.5804960806818826
 21
865.0016360399655468
 31
0.0
  0
TEXT
  5
D0A
  8
BEM
 10
256.0216140502797089
 20
1106.8594485905430247
 30
0.0
 40
2.5
  1
 
 50
90.0
 72
     4
 11
256.0216140502797089
 21
1107.9904009714950917
 31
0.0
  0
TEXT
  5
D0B
  8
BEM
 10
356.9855009153217225
 20
696.2530761541178208
 30
0.0
 40
2.5
  1

 50
90.0
  7
GREEKS
  0
TEXT
  5
D0C
  8
VOLL
 10
377.1687615723569138
 20
682.1868831343962256
 30
0.0
 40
1.8
  1

 50
90.0
  7
GREEKS
  0
TEXT
  5
D0D
  8
BEM
 10
372.4430372491362959
 20
716.6749479736810144
 30
0.0
 40
2.5
  1

 50
90.0
 41
0.8
  7
GREEKS
  0
TEXT
  5
D0E
  8
BEM
 10
377.1368058031883947
 20
716.6749479736810144
 30
0.0
 40
2.5
  1

 50
90.0
 41
0.8
  7
GREEKS
  0
TEXT
  5
D0F
  8
BEM
 10
382.3746496218519155
 20
716.6749479736810144
 30
0.0
 40
2.5
  1

 50
90.0
 41
0.8
  7
GREEKS
  0
TEXT
  5
D10
  8
BEM
 10
386.8798385719496196
 20
716.6020034963064518
 30
0.0
 40
1.8
  1

 50
90.0
 41
0.8
  7
GREEKS
  0
TEXT
  5
D11
  8
BEM
 10
361.2882494757241716
 20
703.9184326166952133
 30
0.0
 40
2.0
  1

 50
90.0
 41
0.8
  7
GREEKS
 72
     1
 11
361.2882494757241716
 21
703.9184326166952133
 31
0.0
  0
TEXT
  5
D12
  8
TEXT
 10
371.6105260391314005
 20
1014.0191513379890011
 30
0.0
 40
2.5
  1
  
 50
90.0
  7
GREEKS
 72
     1
 11
371.6105260391314005
 21
1016.2810560998940446
 31
0.0
  0
TEXT
  5
D13
  8
BEM
 10
236.051644008729113
 20
1258.1388686504710677
 30
0.0
 40
2.5
  1
 
 50
90.0
 72
     4
 11
236.051644008729113
 21
1259.2698210314240441
 31
0.0
  0
TEXT
  5
D14
  8
VOLL
 10
416.7293213469458237
 20
809.3086019302140812
 30
0.0
 40
1.8
  1

 50
90.0
  7
GREEKS
  0
TEXT
  5
D15
  8
TEXT
 10
411.1710858137201967
 20
1141.1408701338070841
 30
0.0
 40
2.5
  1
  
 50
90.0
  7
GREEKS
 72
     1
 11
411.1710858137201967
 21
1143.4027748957119002
 31
0.0
  0
TEXT
  5
D16
  8
BEM
 10
275.6122037833180229
 20
1385.260587446289037
 30
0.0
 40
2.5
  1
 
 50
90.0
 72
     4
 11
275.6122037833180229
 21
1386.3915398272420134
 31
0.0
  0
TEXT
  5
D17
  8
VOLL
 10
411.1737657118745233
 20
966.8433190073759533
 30
0.0
 40
1.8
  1

 50
90.0
  7
GREEKS
  0
TEXT
  5
D18
  8
BEM
 10
406.4480413886537917
 20
1001.3313838466599464
 30
0.0
 40
2.5
  1

 50
90.0
 41
0.8
  7
GREEKS
  0
TEXT
  5
D19
  8
BEM
 10
411.1418099427060042
 20
1001.3313838466599464
 30
0.0
 40
2.5
  1

 50
90.0
 41
0.8
  7
GREEKS
  0
TEXT
  5
D1A
  8
BEM
 10
416.3796537613695818
 20
1001.3313838466599464
 30
0.0
 40
2.5
  1

 50
90.0
 41
0.8
  7
GREEKS
  0
TEXT
  5
D1B
  8
BEM
 10
420.8848427114671722
 20
1001.2584393692859521
 30
0.0
 40
1.8
  1

 50
90.0
 41
0.8
  7
GREEKS
  0
TEXT
  5
D1C
  8
TEXT
 10
405.6155301786490099
 20
1298.6755872109679331
 30
0.0
 40
2.5
  1
  
 50
90.0
  7
GREEKS
 72
     1
 11
405.6155301786490099
 21
1300.9374919728729765
 31
0.0
  0
TEXT
  5
D1D
  8
BEM
 10
270.0566481482467793
 20
1542.7953045234510228
 30
0.0
 40
2.5
  1
 
 50
90.0
 72
     4
 11
270.0566481482467793
 21
1543.9262569044030897
 31
0.0
  0
TEXT
  5
D1E
  8
VOLL
 10
350.8545415512057275
 20
553.7929371517583377
 30
0.0
 40
1.8
  1

 50
90.0
  7
GREEKS
  0
TEXT
  5
D1F
  8
TEXT
 10
345.2963060179802142
 20
885.6252053553513406
 30
0.0
 40
2.5
  1
  
 50
90.0
  7
GREEKS
 72
     1
 11
345.2963060179802142
 21
887.8871101172561566
 31
0.0
  0
TEXT
  5
D20
  8
BEM
 10
209.7374239875778983
 20
1129.7449226678329524
 30
0.0
 40
2.5
  1
 
 50
90.0
 72
     4
 11
209.7374239875778983
 21
1130.8758750487850193
 31
0.0
  0
TEXT
  5
D21
  8
BEM
 10
337.8333443558278759
 20
991.8898127783647851
 30
0.0
 40
2.5
  1

 50
90.0
  7
GREEKS
  0
TEXT
  5
D22
  8
BEM
 10
352.7717922081480992
 20
1012.4515988380769613
 30
0.0
 40
2.5
  1

 50
90.0
 41
0.8
  7
GREEKS
  0
TEXT
  5
D23
  8
BEM
 10
362.8502422728611805
 20
1012.3122688197900061
 30
0.0
 40
2.5
  1

 50
90.0
 41
0.8
  7
GREEKS
  0
TEXT
  5
D24
  8
BEM
 10
357.9044593365454716
 20
1012.365528703551945
 30
0.0
 40
2.5
  1

 50
90.0
 41
0.8
  7
GREEKS
  0
TEXT
  5
D25
  8
BEM
 10
367.9450299125011838
 20
1012.4080467414479472
 30
0.0
 40
1.8
  1

 50
90.0
 41
0.8
  7
GREEKS
  0
TEXT
  5
D26
  8
BEM
 10
342.5066854253329893
 20
999.8357314978668455
 30
0.0
 40
2.0
  1

 50
90.0
 41
0.8
  7
GREEKS
 72
     1
 11
342.5066854253329893
 21
999.8357314978668455
 31
0.0
  0
TEXT
  5
D27
  8
VOLL
 10
356.5433067855911986
 20
733.03087102257075
 30
0.0
 40
1.8
  1

 50
90.0
  7
GREEKS
  0
TEXT
  5
D28
  8
TEXT
 10
350.9850712523656853
 20
1064.8631392261629571
 30
0.0
 40
2.5
  1
  
 50
90.0
  7
GREEKS
 72
     1
 11
350.9850712523656853
 21
1067.1250439880680005
 31
0.0
  0
TEXT
  5
D29
  8
BEM
 10
215.4261892219633978
 20
1308.98285653864491
 30
0.0
 40
2.5
  1
 
 50
90.0
 72
     4
 11
215.4261892219633978
 21
1310.1138089195978864
 31
0.0
  0
TEXT
  5
D2A
  8
BEM
 10
293.6043806848174995
 20
847.5198894007379522
 30
0.0
 40
2.5
  1

 50
90.0
  7
GREEKS
  0
TEXT
  5
D2B
  8
VOLL
 10
313.7876413418526909
 20
833.4536963810164707
 30
0.0
 40
1.8
  1

 50
90.0
  7
GREEKS
  0
TEXT
  5
D2C
  8
BEM
 10
309.061917018632073
 20
867.9417612203010322
 30
0.0
 40
2.5
  1

 50
90.0
 41
0.8
  7
GREEKS
  0
TEXT
  5
D2D
  8
BEM
 10
313.7556855726841718
 20
867.9417612203010322
 30
0.0
 40
2.5
  1

 50
90.0
 41
0.8
  7
GREEKS
  0
TEXT
  5
D2E
  8
BEM
 10
318.9935293913478063
 20
867.9417612203010322
 30
0.0
 40
2.5
  1

 50
90.0
 41
0.8
  7
GREEKS
  0
TEXT
  5
D2F
  8
BEM
 10
323.4987183414453966
 20
867.8688167429266969
 30
0.0
 40
1.8
  1

 50
90.0
 41
0.8
  7
GREEKS
  0
TEXT
  5
D30
  8
BEM
 10
297.9071292452200055
 20
855.185245863315572
 30
0.0
 40
2.0
  1

 50
90.0
 41
0.8
  7
GREEKS
 72
     1
 11
297.9071292452200055
 21
855.185245863315572
 31
0.0
  0
TEXT
  5
D31
  8
TEXT
 10
308.2294058086271207
 20
1165.2859645846090189
 30
0.0
 40
2.5
  1
  
 50
90.0
  7
GREEKS
 72
     1
 11
308.2294058086271207
 21
1167.5478693465140623
 31
0.0
  0
TEXT
  5
D32
  8
BEM
 10
172.6705237782248901
 20
1409.4056818970909717
 30
0.0
 40
2.5
  1
 
 50
90.0
 72
     4
 11
172.6705237782248901
 21
1410.5366342780439481
 31
0.0
  0
TEXT
  5
D33
  8
VOLL
 10
397.075759080588
 20
541.70148923190186
 30
0.0
 40
1.8
  1

 50
90.0
  7
GREEKS
  0
TEXT
  5
D34
  8
VOLL
 10
391.7836423648686832
 20
631.3676631575749525
 30
0.0
 40
1.8
  1

 50
90.0
  7
GREEKS
  0
TEXT
  5
D35
  8
TEXT
 10
386.2254068316432267
 20
963.1999313611680691
 30
0.0
 40
2.5
  1
  
 50
90.0
  7
GREEKS
 72
     1
 11
386.2254068316432267
 21
965.4618361230728851
 31
0.0
  0
TEXT
  5
D36
  8
BEM
 10
250.6665248012409961
 20
1207.3196486736499082
 30
0.0
 40
2.5
  1
 
 50
90.0
 72
     4
 11
250.6665248012409961
 21
1208.4506010546019752
 31
0.0
  0
TEXT
  5
D37
  8
BEM
 10
368.1469281737072947
 20
773.0089928034994955
 30
0.0
 40
2.5
  1

 50
90.0
  7
GREEKS
  0
TEXT
  5
D38
  8
VOLL
 10
388.3301888307423724
 20
758.9427997837782414
 30
0.0
 40
1.8
  1

 50
90.0
  7
GREEKS
  0
TEXT
  5
D39
  8
BEM
 10
383.604464507521925
 20
793.4308646230626891
 30
0.0
 40
2.5
  1

 50
90.0
 41
0.8
  7
GREEKS
  0
TEXT
  5
D3A
  8
BEM
 10
388.2982330615740238
 20
793.4308646230626891
 30
0.0
 40
2.5
  1

 50
90.0
 41
0.8
  7
GREEKS
  0
TEXT
  5
D3B
  8
BEM
 10
393.5360768802374878
 20
793.4308646230626891
 30
0.0
 40
2.5
  1

 50
90.0
 41
0.8
  7
GREEKS
  0
TEXT
  5
D3C
  8
BEM
 10
398.0412658303350781
 20
793.3579201456883538
 30
0.0
 40
1.8
  1

 50
90.0
 41
0.8
  7
GREEKS
  0
TEXT
  5
D3D
  8
BEM
 10
372.4496767341098007
 20
780.674349266077229
 30
0.0
 40
2.0
  1

 50
90.0
 41
0.8
  7
GREEKS
 72
     1
 11
372.4496767341098007
 21
780.674349266077229
 31
0.0
  0
TEXT
  5
D3E
  8
TEXT
 10
382.7719532975169159
 20
1090.7750679873709032
 30
0.0
 40
2.5
  1
  
 50
90.0
  7
GREEKS
 72
     1
 11
382.7719532975169159
 21
1093.0369727492759466
 31
0.0
  0
TEXT
  5
D3F
  8
BEM
 10
247.2130712671147137
 20
1334.8947852998530834
 30
0.0
 40
2.5
  1
 
 50
90.0
 72
     4
 11
247.2130712671147137
 21
1336.025737680804923
 31
0.0
  0
TEXT
  5
D40
  8
VOLL
 10
355.1211150428678138
 20
518.2298550345344665
 30
0.0
 40
1.8
  1

 50
90.0
  7
GREEKS
  0
TEXT
  5
D41
  8
VOLL
 10
349.8289983271484971
 20
607.8960289602075591
 30
0.0
 40
1.8
  1

 50
90.0
  7
GREEKS
  0
TEXT
  5
D42
  8
TEXT
 10
344.2707627939229837
 20
939.728297163800562
 30
0.0
 40
2.5
  1
  
 50
90.0
  7
GREEKS
 72
     1
 11
344.2707627939229837
 21
941.9902019257054917
 31
0.0
  0
TEXT
  5
D43
  8
BEM
 10
208.71188076352081
 20
1183.8480144762820601
 30
0.0
 40
2.5
  1
 
 50
90.0
 72
     4
 11
208.71188076352081
 21
1184.9789668572350365
 31
0.0
  0
TEXT
  5
D44
  8
BEM
 10
326.1922841359871086
 20
749.5373586061321021
 30
0.0
 40
2.5
  1

 50
90.0
  7
GREEKS
  0
TEXT
  5
D45
  8
VOLL
 10
346.3755447930221862
 20
735.4711655864107342
 30
0.0
 40
1.8
  1

 50
90.0
  7
GREEKS
  0
TEXT
  5
D46
  8
BEM
 10
341.6498204698016252
 20
769.9592304256952957
 30
0.0
 40
2.5
  1

 50
90.0
 41
0.8
  7
GREEKS
  0
TEXT
  5
D47
  8
BEM
 10
346.3435890238537809
 20
769.9592304256952957
 30
0.0
 40
2.5
  1

 50
90.0
 41
0.8
  7
GREEKS
  0
TEXT
  5
D48
  8
BEM
 10
351.5814328425173017
 20
769.9592304256952957
 30
0.0
 40
2.5
  1

 50
90.0
 41
0.8
  7
GREEKS
  0
TEXT
  5
D49
  8
BEM
 10
356.086621792614892
 20
769.8862859483209604
 30
0.0
 40
1.8
  1

 50
90.0
 41
0.8
  7
GREEKS
  0
TEXT
  5
D4A
  8
BEM
 10
330.4950326963896146
 20
757.2027150687097219
 30
0.0
 40
2.0
  1

 50
90.0
 41
0.8
  7
GREEKS
 72
     1
 11
330.4950326963896146
 21
757.2027150687097219
 31
0.0
  0
TEXT
  5
D4B
  8
TEXT
 10
340.8173092597966729
 20
1067.3034337900039645
 30
0.0
 40
2.5
  1
  
 50
90.0
  7
GREEKS
 72
     1
 11
340.8173092597966729
 21
1069.5653385519080985
 31
0.0
  0
TEXT
  5
D4C
  8
BEM
 10
205.2584272293944991
 20
1311.4231511024859174
 30
0.0
 40
2.5
  1
 
 50
90.0
 72
     4
 11
205.2584272293944991
 21
1312.5541034834379843
 31
0.0
  0
TEXT
  5
D51
  8
VOLL
 10
571.8895211849784346
 20
751.434232911693698
 30
0.0
 40
1.8
  1

 50
90.0
  7
GREEKS
  0
TEXT
  5
D52
  8
VOLL
 10
566.5974044692591178
 20
841.1004068373669043
 30
0.0
 40
1.8
  1

 50
90.0
  7
GREEKS
  0
TEXT
  5
D53
  8
TEXT
 10
561.0391689360335477
 20
1172.9326750409600209
 30
0.0
 40
2.5
  1
  
 50
90.0
  7
GREEKS
 72
     1
 11
561.0391689360335477
 21
1175.1945798028639274
 31
0.0
  0
TEXT
  5
D54
  8
BEM
 10
425.480286905631317
 20
1417.0523923534419737
 30
0.0
 40
2.5
  1
 
 50
90.0
 72
     4
 11
425.480286905631317
 21
1418.1833447343940406
 31
0.0
  0
TEXT
  5
D55
  8
BEM
 10
542.9606902780975588
 20
982.7417364832912199
 30
0.0
 40
2.5
  1

 50
90.0
  7
GREEKS
  0
TEXT
  5
D56
  8
VOLL
 10
563.143950935132807
 20
968.6755434635697384
 30
0.0
 40
1.8
  1

 50
90.0
  7
GREEKS
  0
TEXT
  5
D57
  8
BEM
 10
558.418226611912246
 20
1003.1636083028539588
 30
0.0
 40
2.5
  1

 50
90.0
 41
0.8
  7
GREEKS
  0
TEXT
  5
D58
  8
BEM
 10
563.1119951659643448
 20
1003.1636083028539588
 30
0.0
 40
2.5
  1

 50
90.0
 41
0.8
  7
GREEKS
  0
TEXT
  5
D59
  8
BEM
 10
568.3498389846278087
 20
1003.1636083028539588
 30
0.0
 40
2.5
  1

 50
90.0
 41
0.8
  7
GREEKS
  0
TEXT
  5
D5A
  8
BEM
 10
572.8550279347253991
 20
1003.0906638254799645
 30
0.0
 40
1.8
  1

 50
90.0
 41
0.8
  7
GREEKS
  0
TEXT
  5
D5B
  8
BEM
 10
547.2634388385000648
 20
990.4070929458688397
 30
0.0
 40
2.0
  1

 50
90.0
 41
0.8
  7
GREEKS
 72
     1
 11
547.2634388385000648
 21
990.4070929458688397
 31
0.0
  0
TEXT
  5
D5C
  8
TEXT
 10
557.5857154019072368
 20
1300.5078116671629687
 30
0.0
 40
2.5
  1
  
 50
90.0
  7
GREEKS
 72
     1
 11
557.5857154019072368
 21
1302.7697164290671026
 31
0.0
  0
TEXT
  5
D5D
  8
BEM
 10
422.0268333715051199
 20
1544.6275289796449215
 30
0.0
 40
2.5
  1
 
 50
90.0
 72
     4
 11
422.0268333715051199
 21
1545.7584813605969885
 31
0.0
  0
TEXT
  5
D5E
  8
VOLL
 10
555.6924368731436061
 20
893.3923078588550197
 30
0.0
 40
1.8
  1

 50
90.0
  7
GREEKS
  0
TEXT
  5
D5F
  8
TEXT
 10
550.1342013399181496
 20
1225.2245760624480226
 30
0.0
 40
2.5
  1
  
 50
90.0
  7
GREEKS
 72
     1
 11
550.1342013399181496
 21
1227.4864808243530661
 31
0.0
  0
TEXT
  5
D60
  8
BEM
 10
414.575319309515919
 20
1469.3442933749299755
 30
0.0
 40
2.5
  1
 
 50
90.0
 72
     4
 11
414.575319309515919
 21
1470.4752457558820424
 31
0.0
  0
TEXT
  5
D61
  8
BEM
 10
535.3590259834669496
 20
1048.5319100156509649
 30
0.0
 40
2.5
  1

 50
90.0
  7
GREEKS
  0
TEXT
  5
D62
  8
VOLL
 10
555.5422866405021978
 20
1034.4657169959289149
 30
0.0
 40
1.8
  1

 50
90.0
  7
GREEKS
  0
TEXT
  5
D63
  8
BEM
 10
550.8165623172816368
 20
1068.9537818352139311
 30
0.0
 40
2.5
  1

 50
90.0
 41
0.8
  7
GREEKS
  0
TEXT
  5
D64
  8
BEM
 10
555.5103308713337356
 20
1068.9537818352139311
 30
0.0
 40
2.5
  1

 50
90.0
 41
0.8
  7
GREEKS
  0
TEXT
  5
D65
  8
BEM
 10
560.7481746899971995
 20
1068.9537818352139311
 30
0.0
 40
2.5
  1

 50
90.0
 41
0.8
  7
GREEKS
  0
TEXT
  5
D66
  8
BEM
 10
565.2533636400947898
 20
1068.8808373578399369
 30
0.0
 40
1.8
  1

 50
90.0
 41
0.8
  7
GREEKS
  0
TEXT
  5
D67
  8
BEM
 10
539.6617745438694556
 20
1056.1972664782279026
 30
0.0
 40
2.0
  1

 50
90.0
 41
0.8
  7
GREEKS
 72
     1
 11
539.6617745438694556
 21
1056.1972664782279026
 31
0.0
  0
TEXT
  5
D68
  8
TEXT
 10
549.9840511072766276
 20
1366.2979851995219178
 30
0.0
 40
2.5
  1
  
 50
90.0
  7
GREEKS
 72
     1
 11
549.9840511072766276
 21
1368.5598899614269612
 31
0.0
  0
TEXT
  5
D69
  8
BEM
 10
414.4251690768745107
 20
1610.417702512004098
 30
0.0
 40
2.5
  1
 
 50
90.0
 72
     4
 11
414.4251690768745107
 21
1611.5486548929559376
 31
0.0
  0
TEXT
  5
D6A
  8
VOLL
 10
567.5081463988922224
 20
829.3700964320986486
 30
0.0
 40
1.8
  1

 50
90.0
  7
GREEKS
  0
TEXT
  5
D6B
  8
TEXT
 10
561.9499108656666522
 20
1161.2023646356910831
 30
0.0
 40
2.5
  1
  
 50
90.0
  7
GREEKS
 72
     1
 11
561.9499108656666522
 21
1163.4642693975958991
 31
0.0
  0
TEXT
  5
D6C
  8
BEM
 10
426.3910288352644216
 20
1405.3220819481730359
 30
0.0
 40
2.5
  1
 
 50
90.0
 72
     4
 11
426.3910288352644216
 21
1406.4530343291260124
 31
0.0
  0
TEXT
  5
D6D
  8
BEM
 10
527.3549157003063783
 20
994.7157095117486278
 30
0.0
 40
2.5
  1

 50
90.0
  7
GREEKS
  0
TEXT
  5
D6E
  8
VOLL
 10
547.5381763573416265
 20
980.6495164920271463
 30
0.0
 40
1.8
  1

 50
90.0
  7
GREEKS
  0
TEXT
  5
D6F
  8
BEM
 10
542.8124520341209518
 20
1015.1375813313120489
 30
0.0
 40
2.5
  1

 50
90.0
 41
0.8
  7
GREEKS
  0
TEXT
  5
D70
  8
BEM
 10
547.5062205881730506
 20
1015.1375813313120489
 30
0.0
 40
2.5
  1

 50
90.0
 41
0.8
  7
GREEKS
  0
TEXT
  5
D71
  8
BEM
 10
552.7440644068366282
 20
1015.1375813313120489
 30
0.0
 40
2.5
  1

 50
90.0
 41
0.8
  7
GREEKS
  0
TEXT
  5
D72
  8
BEM
 10
557.2492533569343323
 20
1015.0646368539370314
 30
0.0
 40
1.8
  1

 50
90.0
 41
0.8
  7
GREEKS
  0
TEXT
  5
D73
  8
BEM
 10
531.6576642607088843
 20
1002.3810659743260203
 30
0.0
 40
2.0
  1

 50
90.0
 41
0.8
  7
GREEKS
 72
     1
 11
531.6576642607088843
 21
1002.3810659743260203
 31
0.0
  0
TEXT
  5
D74
  8
TEXT
 10
541.9799408241160563
 20
1312.4817846956200356
 30
0.0
 40
2.5
  1
  
 50
90.0
  7
GREEKS
 72
     1
 11
541.9799408241160563
 21
1314.743689457525079
 31
0.0
  0
TEXT
  5
D75
  8
BEM
 10
406.4210587937138826
 20
1556.6015020081019884
 30
0.0
 40
2.5
  1
 
 50
90.0
 72
     4
 11
406.4210587937138826
 21
1557.7324543890549648
 31
0.0
  0
TEXT
  5
D76
  8
VOLL
 10
562.3897030213895505
 20
1156.9516726852100419
 30
0.0
 40
1.8
  1

 50
90.0
  7
GREEKS
  0
TEXT
  5
D77
  8
VOLL
 10
557.0975863056703474
 20
1246.617846610882907
 30
0.0
 40
1.8
  1

 50
90.0
  7
GREEKS
  0
TEXT
  5
D78
  8
TEXT
 10
551.5393507724446636
 20
1578.45011481447591
 30
0.0
 40
2.5
  1
  
 50
90.0
  7
GREEKS
 72
     1
 11
551.5393507724446636
 21
1580.7120195763809534
 31
0.0
  0
TEXT
  5
D79
  8
BEM
 10
415.9804687420424898
 20
1822.5698321269580902
 30
0.0
 40
2.5
  1
 
 50
90.0
 72
     4
 11
415.9804687420424898
 21
1823.7007845079099297
 31
0.0
  0
TEXT
  5
D7A
  8
BEM
 10
533.4608721145087884
 20
1388.2591762568069953
 30
0.0
 40
2.5
  1

 50
90.0
  7
GREEKS
  0
TEXT
  5
D7B
  8
VOLL
 10
553.6441327715440366
 20
1374.1929832370860822
 30
0.0
 40
1.8
  1

 50
90.0
  7
GREEKS
  0
TEXT
  5
D7C
  8
BEM
 10
548.9184084483233619
 20
1408.6810480763710984
 30
0.0
 40
2.5
  1

 50
90.0
 41
0.8
  7
GREEKS
  0
TEXT
  5
D7D
  8
BEM
 10
553.6121770023754607
 20
1408.6810480763710984
 30
0.0
 40
2.5
  1

 50
90.0
 41
0.8
  7
GREEKS
  0
TEXT
  5
D7E
  8
BEM
 10
558.850020821039152
 20
1408.6810480763710984
 30
0.0
 40
2.5
  1

 50
90.0
 41
0.8
  7
GREEKS
  0
TEXT
  5
D7F
  8
BEM
 10
563.3552097711367423
 20
1408.6081035989971042
 30
0.0
 40
1.8
  1

 50
90.0
 41
0.8
  7
GREEKS
  0
TEXT
  5
D80
  8
BEM
 10
537.7636206749114081
 20
1395.9245327193850699
 30
0.0
 40
2.0
  1

 50
90.0
 41
0.8
  7
GREEKS
 72
     1
 11
537.7636206749114081
 21
1395.9245327193850699
 31
0.0
  0
TEXT
  5
D81
  8
TEXT
 10
548.0858972383184664
 20
1706.0252514406790851
 30
0.0
 40
2.5
  1
  
 50
90.0
  7
GREEKS
 72
     1
 11
548.0858972383184664
 21
1708.2871562025839012
 31
0.0
  0
TEXT
  5
D82
  8
BEM
 10
412.5270152079162926
 20
1950.144968753161038
 30
0.0
 40
2.5
  1
 
 50
90.0
 72
     4
 11
412.5270152079162926
 21
1951.2759211341131049
 31
0.0
  0
TEXT
  5
D83
  8
VOLL
 10
585.3387759138902311
 20
1164.8649873769929854
 30
0.0
 40
1.8
  1

 50
90.0
  7
GREEKS
  0
TEXT
  5
D84
  8
VOLL
 10
580.0466591981709144
 20
1254.531161302666078
 30
0.0
 40
1.8
  1

 50
90.0
  7
GREEKS
  0
TEXT
  5
D85
  8
TEXT
 10
574.4884236649453442
 20
1586.3634295062590809
 30
0.0
 40
2.5
  1
  
 50
90.0
  7
GREEKS
 72
     1
 11
574.4884236649453442
 21
1588.6253342681638969
 31
0.0
  0
TEXT
  5
D86
  8
BEM
 10
438.9295416345431136
 20
1830.4831468187410337
 30
0.0
 40
2.5
  1
 
 50
90.0
 72
     4
 11
438.9295416345431136
 21
1831.6140991996940102
 31
0.0
  0
TEXT
  5
D87
  8
BEM
 10
556.4099450070093553
 20
1396.1724909485910757
 30
0.0
 40
2.5
  1

 50
90.0
  7
GREEKS
  0
TEXT
  5
D88
  8
VOLL
 10
576.5932056640446035
 20
1382.1062979288699353
 30
0.0
 40
1.8
  1

 50
90.0
  7
GREEKS
  0
TEXT
  5
D89
  8
BEM
 10
571.8674813408240425
 20
1416.594362768154042
 30
0.0
 40
2.5
  1

 50
90.0
 41
0.8
  7
GREEKS
  0
TEXT
  5
D8A
  8
BEM
 10
576.5612498948761413
 20
1416.594362768154042
 30
0.0
 40
2.5
  1

 50
90.0
 41
0.8
  7
GREEKS
  0
TEXT
  5
D8B
  8
BEM
 10
581.7990937135394915
 20
1416.594362768154042
 30
0.0
 40
2.5
  1

 50
90.0
 41
0.8
  7
GREEKS
  0
TEXT
  5
D8C
  8
BEM
 10
586.3042826636371956
 20
1416.5214182907789109
 30
0.0
 40
1.8
  1

 50
90.0
 41
0.8
  7
GREEKS
  0
TEXT
  5
D8D
  8
BEM
 10
560.7126935674118613
 20
1403.8378474111680134
 30
0.0
 40
2.0
  1

 50
90.0
 41
0.8
  7
GREEKS
 72
     1
 11
560.7126935674118613
 21
1403.8378474111680134
 31
0.0
  0
TEXT
  5
D8E
  8
TEXT
 10
571.0349701308190333
 20
1713.9385661324620287
 30
0.0
 40
2.5
  1
  
 50
90.0
  7
GREEKS
 72
     1
 11
571.0349701308190333
 21
1716.2004708943670721
 31
0.0
  0
TEXT
  5
D8F
  8
BEM
 10
435.4760881004168027
 20
1958.0582834449439815
 30
0.0
 40
2.5
  1
 
 50
90.0
 72
     4
 11
435.4760881004168027
 21
1959.189235825896958
 31
0.0
  0
TEXT
  5
D90
  8
VOLL
 10
569.141691602055289
 20
1306.8230623241549893
 30
0.0
 40
1.8
  1

 50
90.0
  7
GREEKS
  0
TEXT
  5
D91
  8
TEXT
 10
563.5834560688299462
 20
1638.6553305277479922
 30
0.0
 40
2.5
  1
  
 50
90.0
  7
GREEKS
 72
     1
 11
563.5834560688299462
 21
1640.9172352896518987
 31
0.0
  0
TEXT
  5
D92
  8
BEM
 10
428.0245740384276019
 20
1882.775047840229945
 30
0.0
 40
2.5
  1
 
 50
90.0
 72
     4
 11
428.0245740384276019
 21
1883.906000221182012
 31
0.0
  0
TEXT
  5
D93
  8
BEM
 10
548.8082807123787461
 20
1461.9626644809509344
 30
0.0
 40
2.5
  1

 50
90.0
  7
GREEKS
  0
TEXT
  5
D94
  8
VOLL
 10
568.9915413694139943
 20
1447.8964714612291118
 30
0.0
 40
1.8
  1

 50
90.0
  7
GREEKS
  0
TEXT
  5
D95
  8
BEM
 10
564.2658170461934333
 20
1482.3845363005139006
 30
0.0
 40
2.5
  1

 50
90.0
 41
0.8
  7
GREEKS
  0
TEXT
  5
D96
  8
BEM
 10
568.9595856002455321
 20
1482.3845363005139006
 30
0.0
 40
2.5
  1

 50
90.0
 41
0.8
  7
GREEKS
  0
TEXT
  5
D97
  8
BEM
 10
574.197429418908996
 20
1482.3845363005139006
 30
0.0
 40
2.5
  1

 50
90.0
 41
0.8
  7
GREEKS
  0
TEXT
  5
D98
  8
BEM
 10
578.7026183690065864
 20
1482.3115918231389969
 30
0.0
 40
1.8
  1

 50
90.0
 41
0.8
  7
GREEKS
  0
TEXT
  5
D99
  8
BEM
 10
553.1110292727812521
 20
1469.6280209435280995
 30
0.0
 40
2.0
  1

 50
90.0
 41
0.8
  7
GREEKS
 72
     1
 11
553.1110292727812521
 21
1469.6280209435280995
 31
0.0
  0
TEXT
  5
D9A
  8
TEXT
 10
563.4333058361885378
 20
1779.7287396648218873
 30
0.0
 40
2.5
  1
  
 50
90.0
  7
GREEKS
 72
     1
 11
563.4333058361885378
 21
1781.9906444267269308
 31
0.0
  0
TEXT
  5
D9B
  8
BEM
 10
427.8744238057861935
 20
2023.8484569773040675
 30
0.0
 40
2.5
  1
 
 50
90.0
 72
     4
 11
427.8744238057861935
 21
2024.979409358257044
 31
0.0
  0
TEXT
  5
D9C
  8
VOLL
 10
374.4794621222495152
 20
937.4402026372704313
 30
0.0
 40
1.8
  1

 50
90.0
  7
GREEKS
  0
TEXT
  5
D9D
  8
VOLL
 10
369.1873454065301985
 20
1027.1063765629439786
 30
0.0
 40
1.8
  1

 50
90.0
  7
GREEKS
  0
TEXT
  5
D9E
  8
TEXT
 10
363.6291098733046852
 20
1358.938644766536072
 30
0.0
 40
2.5
  1
  
 50
90.0
  7
GREEKS
 72
     1
 11
363.6291098733046852
 21
1361.200549528440888
 31
0.0
  0
TEXT
  5
D9F
  8
BEM
 10
228.0702278429023977
 20
1603.0583620790189343
 30
0.0
 40
2.5
  1
 
 50
90.0
 72
     4
 11
228.0702278429023977
 21
1604.1893144599710013
 31
0.0
  0
TEXT
  5
DA0
  8
BEM
 10
345.55063121536881
 20
1168.7477062088680668
 30
0.0
 40
2.5
  1

 50
90.0
  7
GREEKS
  0
TEXT
  5
DA1
  8
VOLL
 10
365.7338918724038876
 20
1154.6815131891469264
 30
0.0
 40
1.8
  1

 50
90.0
  7
GREEKS
  0
TEXT
  5
DA2
  8
BEM
 10
361.0081675491833266
 20
1189.1695780284310331
 30
0.0
 40
2.5
  1

 50
90.0
 41
0.8
  7
GREEKS
  0
TEXT
  5
DA3
  8
BEM
 10
365.7019361032354254
 20
1189.1695780284310331
 30
0.0
 40
2.5
  1

 50
90.0
 41
0.8
  7
GREEKS
  0
TEXT
  5
DA4
  8
BEM
 10
370.9397799218990031
 20
1189.1695780284310331
 30
0.0
 40
2.5
  1

 50
90.0
 41
0.8
  7
GREEKS
  0
TEXT
  5
DA5
  8
BEM
 10
375.4449688719965934
 20
1189.096633551055902
 30
0.0
 40
1.8
  1

 50
90.0
 41
0.8
  7
GREEKS
  0
TEXT
  5
DA6
  8
BEM
 10
349.853379775771316
 20
1176.4130626714450045
 30
0.0
 40
2.0
  1

 50
90.0
 41
0.8
  7
GREEKS
 72
     1
 11
349.853379775771316
 21
1176.4130626714450045
 31
0.0
  0
TEXT
  5
DA7
  8
TEXT
 10
360.1756563391783743
 20
1486.5137813927390198
 30
0.0
 40
2.5
  1
  
 50
90.0
  7
GREEKS
 72
     1
 11
360.1756563391783743
 21
1488.7756861546440632
 31
0.0
  0
TEXT
  5
DA8
  8
BEM
 10
224.6167743087762005
 20
1730.6334987052221095
 30
0.0
 40
2.5
  1
 
 50
90.0
 72
     4
 11
224.6167743087762005
 21
1731.7644510861739491
 31
0.0
  0
TEXT
  5
DA9
  8
VOLL
 10
358.2823778104148005
 20
1079.3982775844319804
 30
0.0
 40
1.8
  1

 50
90.0
  7
GREEKS
  0
TEXT
  5
DAA
  8
TEXT
 10
352.7241422771891735
 20
1411.2305457880249833
 30
0.0
 40
2.5
  1
  
 50
90.0
  7
GREEKS
 72
     1
 11
352.7241422771891735
 21
1413.4924505499288898
 31
0.0
  0
TEXT
  5
DAB
  8
BEM
 10
217.1652602467869997
 20
1655.3502631005069361
 30
0.0
 40
2.5
  1
 
 50
90.0
 72
     4
 11
217.1652602467869997
 21
1656.4812154814590031
 31
0.0
  0
TEXT
  5
DAC
  8
BEM
 10
337.9489669207382008
 20
1234.5378797412279255
 30
0.0
 40
2.5
  1

 50
90.0
  7
GREEKS
  0
TEXT
  5
DAD
  8
VOLL
 10
358.1322275777732784
 20
1220.4716867215061029
 30
0.0
 40
1.8
  1

 50
90.0
  7
GREEKS
  0
TEXT
  5
DAE
  8
BEM
 10
353.4065032545527174
 20
1254.9597515607908917
 30
0.0
 40
2.5
  1

 50
90.0
 41
0.8
  7
GREEKS
  0
TEXT
  5
DAF
  8
BEM
 10
358.1002718086048731
 20
1254.9597515607908917
 30
0.0
 40
2.5
  1

 50
90.0
 41
0.8
  7
GREEKS
  0
TEXT
  5
DB0
  8
BEM
 10
363.3381156272683938
 20
1254.9597515607908917
 30
0.0
 40
2.5
  1

 50
90.0
 41
0.8
  7
GREEKS
  0
TEXT
  5
DB1
  8
BEM
 10
367.8433045773659842
 20
1254.886807083415988
 30
0.0
 40
1.8
  1

 50
90.0
 41
0.8
  7
GREEKS
  0
TEXT
  5
DB2
  8
BEM
 10
342.2517154811407067
 20
1242.2032362038050906
 30
0.0
 40
2.0
  1

 50
90.0
 41
0.8
  7
GREEKS
 72
     1
 11
342.2517154811407067
 21
1242.2032362038050906
 31
0.0
  0
TEXT
  5
DB3
  8
TEXT
 10
352.5739920445478219
 20
1552.3039549250991058
 30
0.0
 40
2.5
  1
  
 50
90.0
  7
GREEKS
 72
     1
 11
352.5739920445478219
 21
1554.5658596870039219
 31
0.0
  0
TEXT
  5
DB4
  8
BEM
 10
217.0151100141455061
 20
1796.4236722375810587
 30
0.0
 40
2.5
  1
 
 50
90.0
 72
     4
 11
217.0151100141455061
 21
1797.5546246185340351
 31
0.0
  0
TEXT
  5
DB5
  8
VOLL
 10
370.098087336163303
 20
1015.3760661576750408
 30
0.0
 40
1.8
  1

 50
90.0
  7
GREEKS
  0
TEXT
  5
DB6
  8
TEXT
 10
364.539851802937676
 20
1347.2083343612680437
 30
0.0
 40
2.5
  1
  
 50
90.0
  7
GREEKS
 72
     1
 11
364.539851802937676
 21
1349.4702391231730871
 31
0.0
  0
TEXT
  5
DB7
  8
BEM
 10
228.9809697725355022
 20
1591.3280516737499966
 30
0.0
 40
2.5
  1
 
 50
90.0
 72
     4
 11
228.9809697725355022
 21
1592.459004054702973
 31
0.0
  0
TEXT
  5
DB8
  8
BEM
 10
329.9448566375775727
 20
1180.7216792373249064
 30
0.0
 40
2.5
  1

 50
90.0
  7
GREEKS
  0
TEXT
  5
DB9
  8
VOLL
 10
350.1281172946127072
 20
1166.6554862176039933
 30
0.0
 40
1.8
  1

 50
90.0
  7
GREEKS
  0
TEXT
  5
DBA
  8
BEM
 10
345.402392971392203
 20
1201.1435510568881
 30
0.0
 40
2.5
  1

 50
90.0
 41
0.8
  7
GREEKS
  0
TEXT
  5
DBB
  8
BEM
 10
350.0961615254443018
 20
1201.1435510568881
 30
0.0
 40
2.5
  1

 50
90.0
 41
0.8
  7
GREEKS
  0
TEXT
  5
DBC
  8
BEM
 10
355.3340053441078226
 20
1201.1435510568881
 30
0.0
 40
2.5
  1

 50
90.0
 41
0.8
  7
GREEKS
  0
TEXT
  5
DBD
  8
BEM
 10
359.8391942942054129
 20
1201.0706065795141058
 30
0.0
 40
1.8
  1

 50
90.0
 41
0.8
  7
GREEKS
  0
TEXT
  5
DBE
  8
BEM
 10
334.2476051979800786
 20
1188.3870356999029809
 30
0.0
 40
2.0
  1

 50
90.0
 41
0.8
  7
GREEKS
 72
     1
 11
334.2476051979800786
 21
1188.3870356999029809
 31
0.0
  0
TEXT
  5
DBF
  8
TEXT
 10
344.5698817613870801
 20
1498.4877544211969962
 30
0.0
 40
2.5
  1
  
 50
90.0
  7
GREEKS
 72
     1
 11
344.5698817613870801
 21
1500.7496591831009027
 31
0.0
  0
TEXT
  5
DC0
  8
BEM
 10
209.0109997309849916
 20
1742.607471733678949
 30
0.0
 40
2.5
  1
 
 50
90.0
 72
     4
 11
209.0109997309849916
 21
1743.738424114631016
 31
0.0
  0
TEXT
  5
DC1
  8
VOLL
 10
396.1355591308134763
 20
943.8415555698110211
 30
0.0
 40
1.8
  1

 50
90.0
  7
GREEKS
  0
TEXT
  5
DC2
  8
VOLL
 10
390.8434424150942164
 20
1033.5077294954839999
 30
0.0
 40
1.8
  1

 50
90.0
  7
GREEKS
  0
TEXT
  5
DC3
  8
TEXT
 10
385.2852068818685893
 20
1365.3399976990770028
 30
0.0
 40
2.5
  1
  
 50
90.0
  7
GREEKS
 72
     1
 11
385.2852068818685893
 21
1367.6019024609820463
 31
0.0
  0
TEXT
  5
DC4
  8
BEM
 10
249.7263248514663871
 20
1609.4597150115589557
 30
0.0
 40
2.5
  1
 
 50
90.0
 72
     4
 11
249.7263248514663871
 21
1610.5906673925110226
 31
0.0
  0
TEXT
  5
DC5
  8
BEM
 10
367.2067282239328279
 20
1175.1490591414080882
 30
0.0
 40
2.5
  1

 50
90.0
  7
GREEKS
  0
TEXT
  5
DC6
  8
VOLL
 10
387.3899888809677918
 20
1161.0828661216869477
 30
0.0
 40
1.8
  1

 50
90.0
  7
GREEKS
  0
TEXT
  5
DC7
  8
BEM
 10
382.6642645577472877
 20
1195.5709309609719639
 30
0.0
 40
2.5
  1

 50
90.0
 41
0.8
  7
GREEKS
  0
TEXT
  5
DC8
  8
BEM
 10
387.3580331117993865
 20
1195.5709309609719639
 30
0.0
 40
2.5
  1

 50
90.0
 41
0.8
  7
GREEKS
  0
TEXT
  5
DC9
  8
BEM
 10
392.5958769304629072
 20
1195.5709309609719639
 30
0.0
 40
2.5
  1

 50
90.0
 41
0.8
  7
GREEKS
  0
TEXT
  5
DCA
  8
BEM
 10
397.1010658805606113
 20
1195.4979864835970602
 30
0.0
 40
1.8
  1

 50
90.0
 41
0.8
  7
GREEKS
  0
TEXT
  5
DCB
  8
BEM
 10
371.509476784335277
 20
1182.8144156039859354
 30
0.0
 40
2.0
  1

 50
90.0
 41
0.8
  7
GREEKS
 72
     1
 11
371.509476784335277
 21
1182.8144156039859354
 31
0.0
  0
TEXT
  5
DCC
  8
TEXT
 10
381.8317533477423922
 20
1492.9151343252799506
 30
0.0
 40
2.5
  1
  
 50
90.0
  7
GREEKS
 72
     1
 11
381.8317533477423922
 21
1495.1770390871849941
 31
0.0
  0
TEXT
  5
DCD
  8
BEM
 10
246.2728713173401047
 20
1737.0348516377619035
 30
0.0
 40
2.5
  1
 
 50
90.0
 72
     4
 11
246.2728713173401047
 21
1738.1658040187151073
 31
0.0
  0
TEXT
  5
DCE
  8
VOLL
 10
379.9384748189788183
 20
1085.7996305169720017
 30
0.0
 40
1.8
  1

 50
90.0
  7
GREEKS
  0
TEXT
  5
DCF
  8
TEXT
 10
374.3802392857531913
 20
1417.6318987205650046
 30
0.0
 40
2.5
  1
  
 50
90.0
  7
GREEKS
 72
     1
 11
374.3802392857531913
 21
1419.893803482470048
 31
0.0
  0
TEXT
  5
DD0
  8
BEM
 10
238.8213572553509891
 20
1661.7516160330480943
 30
0.0
 40
2.5
  1
 
 50
90.0
 72
     4
 11
238.8213572553509891
 21
1662.8825684139999339
 31
0.0
  0
TEXT
  5
DD1
  8
BEM
 10
359.6050639293022186
 20
1240.9392326737679468
 30
0.0
 40
2.5
  1

 50
90.0
  7
GREEKS
  0
TEXT
  5
DD2
  8
VOLL
 10
379.7883245863372963
 20
1226.8730396540470338
 30
0.0
 40
1.8
  1

 50
90.0
  7
GREEKS
  0
TEXT
  5
DD3
  8
BEM
 10
375.0626002631166784
 20
1261.3611044933309131
 30
0.0
 40
2.5
  1

 50
90.0
 41
0.8
  7
GREEKS
  0
TEXT
  5
DD4
  8
BEM
 10
379.7563688171687772
 20
1261.3611044933309131
 30
0.0
 40
2.5
  1

 50
90.0
 41
0.8
  7
GREEKS
  0
TEXT
  5
DD5
  8
BEM
 10
384.9942126358324117
 20
1261.3611044933309131
 30
0.0
 40
2.5
  1

 50
90.0
 41
0.8
  7
GREEKS
  0
TEXT
  5
DD6
  8
BEM
 10
389.4994015859300021
 20
1261.2881600159569189
 30
0.0
 40
1.8
  1

 50
90.0
 41
0.8
  7
GREEKS
  0
TEXT
  5
DD7
  8
BEM
 10
363.9078124897047246
 20
1248.6045891363460214
 30
0.0
 40
2.0
  1

 50
90.0
 41
0.8
  7
GREEKS
 72
     1
 11
363.9078124897047246
 21
1248.6045891363460214
 31
0.0
  0
TEXT
  5
DD8
  8
TEXT
 10
374.2300890531117261
 20
1558.7053078576400367
 30
0.0
 40
2.5
  1
  
 50
90.0
  7
GREEKS
 72
     1
 11
374.2300890531117261
 21
1560.9672126195450801
 31
0.0
  0
TEXT
  5
DD9
  8
BEM
 10
238.6712070227094955
 20
1802.8250251701219895
 30
0.0
 40
2.5
  1
 
 50
90.0
 72
     4
 11
238.6712070227094955
 21
1803.9559775510740565
 31
0.0
  0
TEXT
  5
DDA
  8
VOLL
 10
391.7541843447273209
 20
1021.7774190902159717
 30
0.0
 40
1.8
  1

 50
90.0
  7
GREEKS
  0
TEXT
  5
DDB
  8
TEXT
 10
386.1959488115016939
 20
1353.6096872938089746
 30
0.0
 40
2.5
  1
  
 50
90.0
  7
GREEKS
 72
     1
 11
386.1959488115016939
 21
1355.871592055714018
 31
0.0
  0
TEXT
  5
DDC
  8
BEM
 10
250.6370667810994064
 20
1597.7294046062909274
 30
0.0
 40
2.5
  1
 
 50
90.0
 72
     4
 11
250.6370667810994064
 21
1598.8603569872429944
 31
0.0
  0
TEXT
  5
DDD
  8
BEM
 10
351.6009536461414768
 20
1187.1230321698660646
 30
0.0
 40
2.5
  1

 50
90.0
  7
GREEKS
  0
TEXT
  5
DDE
  8
VOLL
 10
371.784214303176725
 20
1173.0568391501440146
 30
0.0
 40
1.8
  1

 50
90.0
  7
GREEKS
  0
TEXT
  5
DDF
  8
BEM
 10
367.0584899799561072
 20
1207.5449039894290308
 30
0.0
 40
2.5
  1

 50
90.0
 41
0.8
  7
GREEKS
  0
TEXT
  5
DE0
  8
BEM
 10
371.752258534008206
 20
1207.5449039894290308
 30
0.0
 40
2.5
  1

 50
90.0
 41
0.8
  7
GREEKS
  0
TEXT
  5
DE1
  8
BEM
 10
376.9901023526717267
 20
1207.5449039894290308
 30
0.0
 40
2.5
  1

 50
90.0
 41
0.8
  7
GREEKS
  0
TEXT
  5
DE2
  8
BEM
 10
381.4952913027693739
 20
1207.4719595120538997
 30
0.0
 40
1.8
  1

 50
90.0
 41
0.8
  7
GREEKS
  0
TEXT
  5
DE3
  8
BEM
 10
355.9037022065440965
 20
1194.7883886324430023
 30
0.0
 40
2.0
  1

 50
90.0
 41
0.8
  7
GREEKS
 72
     1
 11
355.9037022065440965
 21
1194.7883886324430023
 31
0.0
  0
TEXT
  5
DE4
  8
TEXT
 10
366.225978769951098
 20
1504.8891073537370175
 30
0.0
 40
2.5
  1
  
 50
90.0
  7
GREEKS
 72
     1
 11
366.225978769951098
 21
1507.151012115642061
 31
0.0
  0
TEXT
  5
DE5
  8
BEM
 10
230.6670967395488958
 20
1749.0088246662189704
 30
0.0
 40
2.5
  1
 
 50
90.0
 72
     4
 11
230.6670967395488958
 21
1750.1397770471719468
 31
0.0
  0
TEXT
  5
DE6
  8
VOLL
 10
411.3447740777655213
 20
1300.1785579459619839
 30
0.0
 40
1.8
  1

 50
90.0
  7
GREEKS
  0
TEXT
  5
DE7
  8
TEXT
 10
405.7865385445400079
 20
1632.0108261495549868
 30
0.0
 40
2.5
  1
  
 50
90.0
  7
GREEKS
 72
     1
 11
405.7865385445400079
 21
1634.2727309114600303
 31
0.0
  0
TEXT
  5
DE8
  8
BEM
 10
270.2276565141377773
 20
1876.1305434620380765
 30
0.0
 40
2.5
  1
 
 50
90.0
 72
     4
 11
270.2276565141377773
 21
1877.2614958429899161
 31
0.0
  0
TEXT
  5
DE9
  8
VOLL
 10
405.7892184426942777
 20
1457.7132750231239697
 30
0.0
 40
1.8
  1

 50
90.0
  7
GREEKS
  0
TEXT
  5
DEA
  8
BEM
 10
401.063494119473603
 20
1492.2013398624089859
 30
0.0
 40
2.5
  1

 50
90.0
 41
0.8
  7
GREEKS
  0
TEXT
  5
DEB
  8
BEM
 10
405.7572626735258723
 20
1492.2013398624089859
 30
0.0
 40
2.5
  1

 50
90.0
 41
0.8
  7
GREEKS
  0
TEXT
  5
DEC
  8
BEM
 10
410.9951064921893931
 20
1492.2013398624089859
 30
0.0
 40
2.5
  1

 50
90.0
 41
0.8
  7
GREEKS
  0
TEXT
  5
DED
  8
BEM
 10
415.5002954422869834
 20
1492.1283953850340822
 30
0.0
 40
1.8
  1

 50
90.0
 41
0.8
  7
GREEKS
  0
TEXT
  5
DEE
  8
TEXT
 10
400.2309829094688212
 20
1789.5455432267169726
 30
0.0
 40
2.5
  1
  
 50
90.0
  7
GREEKS
 72
     1
 11
400.2309829094688212
 21
1791.8074479886220161
 31
0.0
  0
TEXT
  5
DEF
  8
BEM
 10
264.6721008790665906
 20
2033.6652605392000623
 30
0.0
 40
2.5
  1
 
 50
90.0
 72
     4
 11
264.6721008790665906
 21
2034.7962129201519019
 31
0.0
  0
TEXT
  5
DF0
  8
VOLL
 10
345.4699942820254819
 20
1044.6628931675058993
 30
0.0
 40
1.8
  1

 50
90.0
  7
GREEKS
  0
TEXT
  5
DF1
  8
TEXT
 10
339.9117587487999117
 20
1376.4951613711000391
 30
0.0
 40
2.5
  1
  
 50
90.0
  7
GREEKS
 72
     1
 11
339.9117587487999117
 21
1378.7570661330039457
 31
0.0
  0
TEXT
  5
DF2
  8
BEM
 10
204.3528767183975958
 20
1620.6148786835819919
 30
0.0
 40
2.5
  1
 
 50
90.0
 72
     4
 11
204.3528767183975958
 21
1621.7458310645340589
 31
0.0
  0
TEXT
  5
DF3
  8
BEM
 10
332.4487970866476871
 20
1482.7597687941129152
 30
0.0
 40
2.5
  1

 50
90.0
  7
GREEKS
  0
TEXT
  5
DF4
  8
BEM
 10
347.3872449389677968
 20
1503.3215548538250914
 30
0.0
 40
2.5
  1

 50
90.0
 41
0.8
  7
GREEKS
  0
TEXT
  5
DF5
  8
BEM
 10
357.465695003680878
 20
1503.1822248355379088
 30
0.0
 40
2.5
  1

 50
90.0
 41
0.8
  7
GREEKS
  0
TEXT
  5
DF6
  8
BEM
 10
352.519912067365226
 20
1503.2354847193009846
 30
0.0
 40
2.5
  1

 50
90.0
 41
0.8
  7
GREEKS
  0
TEXT
  5
DF7
  8
BEM
 10
362.5604826433208814
 20
1503.2780027571971004
 30
0.0
 40
1.8
  1

 50
90.0
 41
0.8
  7
GREEKS
  0
TEXT
  5
DF8
  8
BEM
 10
337.1221381561526869
 20
1490.7056875136149756
 30
0.0
 40
2.0
  1

 50
90.0
 41
0.8
  7
GREEKS
 72
     1
 11
337.1221381561526869
 21
1490.7056875136149756
 31
0.0
  0
TEXT
  5
DF9
  8
VOLL
 10
351.1587595164110098
 20
1223.9008270383189938
 30
0.0
 40
1.8
  1

 50
90.0
  7
GREEKS
  0
TEXT
  5
DFA
  8
TEXT
 10
345.6005239831854965
 20
1555.7330952419119967
 30
0.0
 40
2.5
  1
  
 50
90.0
  7
GREEKS
 72
     1
 11
345.6005239831854965
 21
1557.9950000038170401
 31
0.0
  0
TEXT
  5
DFB
  8
BEM
 10
210.041641952783209
 20
1799.8528125543939495
 30
0.0
 40
2.5
  1
 
 50
90.0
 72
     4
 11
210.041641952783209
 21
1800.9837649353460165
 31
0.0
  0
TEXT
  5
DFC
  8
BEM
 10
288.2198334156373107
 20
1338.3898454164859686
 30
0.0
 40
2.5
  1

 50
90.0
  7
GREEKS
  0
TEXT
  5
DFD
  8
VOLL
 10
308.4030940726723884
 20
1324.3236523967650555
 30
0.0
 40
1.8
  1

 50
90.0
  7
GREEKS
  0
TEXT
  5
DFE
  8
BEM
 10
303.6773697494518842
 20
1358.8117172360489349
 30
0.0
 40
2.5
  1

 50
90.0
 41
0.8
  7
GREEKS
  0
TEXT
  5
DFF
  8
BEM
 10
308.371138303503983
 20
1358.8117172360489349
 30
0.0
 40
2.5
  1

 50
90.0
 41
0.8
  7
GREEKS
  0
TEXT
  5
E00
  8
BEM
 10
313.6089821221675038
 20
1358.8117172360489349
 30
0.0
 40
2.5
  1

 50
90.0
 41
0.8
  7
GREEKS
  0
TEXT
  5
E01
  8
BEM
 10
318.1141710722650942
 20
1358.7387727586749406
 30
0.0
 40
1.8
  1

 50
90.0
 41
0.8
  7
GREEKS
  0
TEXT
  5
E02
  8
BEM
 10
292.5225819760398167
 20
1346.0552018790629063
 30
0.0
 40
2.0
  1

 50
90.0
 41
0.8
  7
GREEKS
 72
     1
 11
292.5225819760398167
 21
1346.0552018790629063
 31
0.0
  0
TEXT
  5
E03
  8
TEXT
 10
302.8448585394468751
 20
1656.1559206003580584
 30
0.0
 40
2.5
  1
  
 50
90.0
  7
GREEKS
 72
     1
 11
302.8448585394468751
 21
1658.4178253622631019
 31
0.0
  0
TEXT
  5
E04
  8
BEM
 10
167.2859765090445876
 20
1900.2756379128400113
 30
0.0
 40
2.5
  1
 
 50
90.0
 72
     4
 11
167.2859765090445876
 21
1901.4065902937920782
 31
0.0
  0
TEXT
  5
E05
  8
VOLL
 10
391.6912118114078112
 20
1032.5714452476499901
 30
0.0
 40
1.8
  1

 50
90.0
  7
GREEKS
  0
TEXT
  5
E06
  8
VOLL
 10
386.3990950956884944
 20
1122.2376191733230826
 30
0.0
 40
1.8
  1

 50
90.0
  7
GREEKS
  0
TEXT
  5
E07
  8
TEXT
 10
380.8408595624629811
 20
1454.0698873769160855
 30
0.0
 40
2.5
  1
  
 50
90.0
  7
GREEKS
 72
     1
 11
380.8408595624629811
 21
1456.3317921388209015
 31
0.0
  0
TEXT
  5
E08
  8
BEM
 10
245.2819775320608073
 20
1698.1896046893980383
 30
0.0
 40
2.5
  1
 
 50
90.0
 72
     4
 11
245.2819775320608073
 21
1699.3205570703501053
 31
0.0
  0
TEXT
  5
E09
  8
BEM
 10
362.7623809045271059
 20
1263.8789488192480803
 30
0.0
 40
2.5
  1

 50
90.0
  7
GREEKS
  0
TEXT
  5
E0A
  8
VOLL
 10
382.9456415615621836
 20
1249.8127557995260304
 30
0.0
 40
1.8
  1

 50
90.0
  7
GREEKS
  0
TEXT
  5
E0B
  8
BEM
 10
378.2199172383416226
 20
1284.3008206388110466
 30
0.0
 40
2.5
  1

 50
90.0
 41
0.8
  7
GREEKS
  0
TEXT
  5
E0C
  8
BEM
 10
382.9136857923937782
 20
1284.3008206388110466
 30
0.0
 40
2.5
  1

 50
90.0
 41
0.8
  7
GREEKS
  0
TEXT
  5
E0D
  8
BEM
 10
388.151529611057299
 20
1284.3008206388110466
 30
0.0
 40
2.5
  1

 50
90.0
 41
0.8
  7
GREEKS
  0
TEXT
  5
E0E
  8
BEM
 10
392.6567185611548894
 20
1284.2278761614359155
 30
0.0
 40
1.8
  1

 50
90.0
 41
0.8
  7
GREEKS
  0
TEXT
  5
E0F
  8
BEM
 10
367.0651294649296119
 20
1271.544305281825018
 30
0.0
 40
2.0
  1

 50
90.0
 41
0.8
  7
GREEKS
 72
     1
 11
367.0651294649296119
 21
1271.544305281825018
 31
0.0
  0
TEXT
  5
E10
  8
TEXT
 10
377.3874060283367271
 20
1581.6450240031190333
 30
0.0
 40
2.5
  1
  
 50
90.0
  7
GREEKS
 72
     1
 11
377.3874060283367271
 21
1583.9069287650240767
 31
0.0
  0
TEXT
  5
E11
  8
BEM
 10
241.8285239979344965
 20
1825.7647413156018956
 30
0.0
 40
2.5
  1
 
 50
90.0
 72
     4
 11
241.8285239979344965
 21
1826.8956936965539626
 31
0.0
  0
TEXT
  5
E12
  8
VOLL
 10
349.736567773687625
 20
1009.0998110502830514
 30
0.0
 40
1.8
  1

 50
90.0
  7
GREEKS
  0
TEXT
  5
E13
  8
VOLL
 10
344.4444510579683083
 20
1098.7659849759559165
 30
0.0
 40
1.8
  1

 50
90.0
  7
GREEKS
  0
TEXT
  5
E14
  8
TEXT
 10
338.886215524742795
 20
1430.5982531795489194
 30
0.0
 40
2.5
  1
  
 50
90.0
  7
GREEKS
 72
     1
 11
338.886215524742795
 21
1432.8601579414539628
 31
0.0
  0
TEXT
  5
E15
  8
BEM
 10
203.3273334943405928
 20
1674.7179704920310996
 30
0.0
 40
2.5
  1
 
 50
90.0
 72
     4
 11
203.3273334943405928
 21
1675.8489228729829392
 31
0.0
  0
TEXT
  5
E16
  8
BEM
 10
320.8077368668069198
 20
1240.4073146218800048
 30
0.0
 40
2.5
  1

 50
90.0
  7
GREEKS
  0
TEXT
  5
E17
  8
VOLL
 10
340.9909975238419975
 20
1226.3411216021590917
 30
0.0
 40
1.8
  1

 50
90.0
  7
GREEKS
  0
TEXT
  5
E18
  8
BEM
 10
336.2652732006213796
 20
1260.8291864414441079
 30
0.0
 40
2.5
  1

 50
90.0
 41
0.8
  7
GREEKS
  0
TEXT
  5
E19
  8
BEM
 10
340.9590417546735921
 20
1260.8291864414441079
 30
0.0
 40
2.5
  1

 50
90.0
 41
0.8
  7
GREEKS
  0
TEXT
  5
E1A
  8
BEM
 10
346.1968855733371129
 20
1260.8291864414441079
 30
0.0
 40
2.5
  1

 50
90.0
 41
0.8
  7
GREEKS
  0
TEXT
  5
E1B
  8
BEM
 10
350.7020745234347032
 20
1260.7562419640689768
 30
0.0
 40
1.8
  1

 50
90.0
 41
0.8
  7
GREEKS
  0
TEXT
  5
E1C
  8
BEM
 10
325.1104854272094258
 20
1248.0726710844580793
 30
0.0
 40
2.0
  1

 50
90.0
 41
0.8
  7
GREEKS
 72
     1
 11
325.1104854272094258
 21
1248.0726710844580793
 31
0.0
  0
TEXT
  5
E1D
  8
TEXT
 10
335.4327619906164841
 20
1558.1733898057520946
 30
0.0
 40
2.5
  1
  
 50
90.0
  7
GREEKS
 72
     1
 11
335.4327619906164841
 21
1560.4352945676560012
 31
0.0
  0
TEXT
  5
E1E
  8
BEM
 10
199.8738799602143104
 20
1802.2931071182340474
 30
0.0
 40
2.5
  1
 
 50
90.0
 72
     4
 11
199.8738799602143104
 21
1803.424059499185887
 31
0.0
  0
TEXT
  5
E1F
  8
VOLL
 10
301.511353102118278
 20
1041.1065859217439993
 30
0.0
 40
1.8
  1

 50
90.0
  7
GREEKS
  0
TEXT
  5
E20
  8
TEXT
 10
295.9531175688927078
 20
1372.9388541253379117
 30
0.0
 40
2.5
  1
  
 50
90.0
  7
GREEKS
 72
     1
 11
295.9531175688927078
 21
1375.2007588872429551
 31
0.0
  0
TEXT
  5
E21
  8
BEM
 10
160.3942355384905056
 20
1617.0585714378200919
 30
0.0
 40
2.5
  1
 
 50
90.0
 72
     4
 11
160.3942355384905056
 21
1618.1895238187719315
 31
0.0
  0
TEXT
  5
E22
  8
BEM
 10
288.4901559067404833
 20
1479.2034615483510152
 30
0.0
 40
2.5
  1

 50
90.0
  7
GREEKS
  0
TEXT
  5
E23
  8
BEM
 10
303.4286037590605929
 20
1499.7652476080641009
 30
0.0
 40
2.5
  1

 50
90.0
 41
0.8
  7
GREEKS
  0
TEXT
  5
E24
  8
BEM
 10
313.5070538237736741
 20
1499.6259175897760088
 30
0.0
 40
2.5
  1

 50
90.0
 41
0.8
  7
GREEKS
  0
TEXT
  5
E25
  8
BEM
 10
308.5612708874580221
 20
1499.6791774735390845
 30
0.0
 40
2.5
  1

 50
90.0
 41
0.8
  7
GREEKS
  0
TEXT
  5
E26
  8
BEM
 10
318.6018414634136775
 20
1499.721695511434973
 30
0.0
 40
1.8
  1

 50
90.0
 41
0.8
  7
GREEKS
  0
TEXT
  5
E27
  8
BEM
 10
293.163496976245483
 20
1487.1493802678530756
 30
0.0
 40
2.0
  1

 50
90.0
 41
0.8
  7
GREEKS
 72
     1
 11
293.163496976245483
 21
1487.1493802678530756
 31
0.0
  0
TEXT
  5
E28
  8
VOLL
 10
307.2001183365038059
 20
1220.3445197925570938
 30
0.0
 40
1.8
  1

 50
90.0
  7
GREEKS
  0
TEXT
  5
E29
  8
TEXT
 10
301.6418828032782926
 20
1552.1767879961500967
 30
0.0
 40
2.5
  1
  
 50
90.0
  7
GREEKS
 72
     1
 11
301.6418828032782926
 21
1554.4386927580540032
 31
0.0
  0
TEXT
  5
E2A
  8
BEM
 10
166.0830007728760052
 20
1796.2965053086320495
 30
0.0
 40
2.5
  1
 
 50
90.0
 72
     4
 11
166.0830007728760052
 21
1797.4274576895838891
 31
0.0
  0
TEXT
  5
E2B
  8
BEM
 10
244.2611922357301069
 20
1334.8335381707240686
 30
0.0
 40
2.5
  1

 50
90.0
  7
GREEKS
  0
TEXT
  5
E2C
  8
VOLL
 10
264.4444528927651845
 20
1320.7673451510029281
 30
0.0
 40
1.8
  1

 50
90.0
  7
GREEKS
  0
TEXT
  5
E2D
  8
BEM
 10
259.7187285695446803
 20
1355.2554099902870348
 30
0.0
 40
2.5
  1

 50
90.0
 41
0.8
  7
GREEKS
  0
TEXT
  5
E2E
  8
BEM
 10
264.4124971235967791
 20
1355.2554099902870348
 30
0.0
 40
2.5
  1

 50
90.0
 41
0.8
  7
GREEKS
  0
TEXT
  5
E2F
  8
BEM
 10
269.6503409422602999
 20
1355.2554099902870348
 30
0.0
 40
2.5
  1

 50
90.0
 41
0.8
  7
GREEKS
  0
TEXT
  5
E30
  8
BEM
 10
274.1555298923578903
 20
1355.1824655129130406
 30
0.0
 40
1.8
  1

 50
90.0
 41
0.8
  7
GREEKS
  0
TEXT
  5
E31
  8
BEM
 10
248.5639407961326128
 20
1342.4988946333019157
 30
0.0
 40
2.0
  1

 50
90.0
 41
0.8
  7
GREEKS
 72
     1
 11
248.5639407961326128
 21
1342.4988946333019157
 31
0.0
  0
TEXT
  5
E32
  8
TEXT
 10
258.886217359539728
 20
1652.599613354595931
 30
0.0
 40
2.5
  1
  
 50
90.0
  7
GREEKS
 72
     1
 11
258.886217359539728
 21
1654.8615181165009744
 31
0.0
  0
TEXT
  5
E33
  8
BEM
 10
123.3273353291374974
 20
1896.7193306670781112
 30
0.0
 40
2.5
  1
 
 50
90.0
 72
     4
 11
123.3273353291374974
 21
1897.8502830480299508
 31
0.0
  0
TEXT
  5
E34
  8
VOLL
 10
347.7325706315006073
 20
1029.01513800188809
 30
0.0
 40
1.8
  1

 50
90.0
  7
GREEKS
  0
TEXT
  5
E35
  8
VOLL
 10
342.4404539157812906
 20
1118.6813119275609552
 30
0.0
 40
1.8
  1

 50
90.0
  7
GREEKS
  0
TEXT
  5
E36
  8
TEXT
 10
336.8822183825557772
 20
1450.5135801311539581
 30
0.0
 40
2.5
  1
  
 50
90.0
  7
GREEKS
 72
     1
 11
336.8822183825557772
 21
1452.7754848930590015
 31
0.0
  0
TEXT
  5
E37
  8
BEM
 10
201.3233363521536035
 20
1694.6332974436359109
 30
0.0
 40
2.5
  1
 
 50
90.0
 72
     4
 11
201.3233363521536035
 21
1695.7642498245888873
 31
0.0
  0
TEXT
  5
E38
  8
BEM
 10
318.8037397246199021
 20
1260.3226415734859529
 30
0.0
 40
2.5
  1

 50
90.0
  7
GREEKS
  0
TEXT
  5
E39
  8
VOLL
 10
338.9870003816549797
 20
1246.256448553763903
 30
0.0
 40
1.8
  1

 50
90.0
  7
GREEKS
  0
TEXT
  5
E3A
  8
BEM
 10
334.2612760584344187
 20
1280.7445133930489192
 30
0.0
 40
2.5
  1

 50
90.0
 41
0.8
  7
GREEKS
  0
TEXT
  5
E3B
  8
BEM
 10
338.9550446124865744
 20
1280.7445133930489192
 30
0.0
 40
2.5
  1

 50
90.0
 41
0.8
  7
GREEKS
  0
TEXT
  5
E3C
  8
BEM
 10
344.1928884311500951
 20
1280.7445133930489192
 30
0.0
 40
2.5
  1

 50
90.0
 41
0.8
  7
GREEKS
  0
TEXT
  5
E3D
  8
BEM
 10
348.6980773812476855
 20
1280.6715689156749249
 30
0.0
 40
1.8
  1

 50
90.0
 41
0.8
  7
GREEKS
  0
TEXT
  5
E3E
  8
BEM
 10
323.106488285022408
 20
1267.9879980360628906
 30
0.0
 40
2.0
  1

 50
90.0
 41
0.8
  7
GREEKS
 72
     1
 11
323.106488285022408
 21
1267.9879980360628906
 31
0.0
  0
TEXT
  5
E3F
  8
TEXT
 10
333.4287648484295232
 20
1578.0887167573569059
 30
0.0
 40
2.5
  1
  
 50
90.0
  7
GREEKS
 72
     1
 11
333.4287648484295232
 21
1580.3506215192619493
 31
0.0
  0
TEXT
  5
E40
  8
BEM
 10
197.8698828180272926
 20
1822.2084340698390861
 30
0.0
 40
2.5
  1
 
 50
90.0
 72
     4
 11
197.8698828180272926
 21
1823.3393864507920625
 31
0.0
  0
TEXT
  5
E41
  8
VOLL
 10
305.7779265937804212
 20
1005.5435038045210376
 30
0.0
 40
1.8
  1

 50
90.0
  7
GREEKS
  0
TEXT
  5
E42
  8
VOLL
 10
300.4858098780611044
 20
1095.2096777301940165
 30
0.0
 40
1.8
  1

 50
90.0
  7
GREEKS
  0
TEXT
  5
E43
  8
TEXT
 10
294.9275743448355911
 20
1427.0419459337870194
 30
0.0
 40
2.5
  1
  
 50
90.0
  7
GREEKS
 72
     1
 11
294.9275743448355911
 21
1429.3038506956920628
 31
0.0
  0
TEXT
  5
E44
  8
BEM
 10
159.3686923144333036
 20
1671.1616632462689722
 30
0.0
 40
2.5
  1
 
 50
90.0
 72
     4
 11
159.3686923144333036
 21
1672.2926156272210392
 31
0.0
  0
TEXT
  5
E45
  8
BEM
 10
276.8490956868997159
 20
1236.8510073761181047
 30
0.0
 40
2.5
  1

 50
90.0
  7
GREEKS
  0
TEXT
  5
E46
  8
VOLL
 10
297.0323563439347936
 20
1222.7848143563969643
 30
0.0
 40
1.8
  1

 50
90.0
  7
GREEKS
  0
TEXT
  5
E47
  8
BEM
 10
292.3066320207141757
 20
1257.272879195681071
 30
0.0
 40
2.5
  1

 50
90.0
 41
0.8
  7
GREEKS
  0
TEXT
  5
E48
  8
BEM
 10
297.0004005747663882
 20
1257.272879195681071
 30
0.0
 40
2.5
  1

 50
90.0
 41
0.8
  7
GREEKS
  0
TEXT
  5
E49
  8
BEM
 10
302.238244393429909
 20
1257.272879195681071
 30
0.0
 40
2.5
  1

 50
90.0
 41
0.8
  7
GREEKS
  0
TEXT
  5
E4A
  8
BEM
 10
306.7434333435274993
 20
1257.1999347183070768
 30
0.0
 40
1.8
  1

 50
90.0
 41
0.8
  7
GREEKS
  0
TEXT
  5
E4B
  8
BEM
 10
281.1518442473022219
 20
1244.5163638386959519
 30
0.0
 40
2.0
  1

 50
90.0
 41
0.8
  7
GREEKS
 72
     1
 11
281.1518442473022219
 21
1244.5163638386959519
 31
0.0
  0
TEXT
  5
E4C
  8
TEXT
 10
291.4741208107092802
 20
1554.6170825599899672
 30
0.0
 40
2.5
  1
  
 50
90.0
  7
GREEKS
 72
     1
 11
291.4741208107092802
 21
1556.8789873218950106
 31
0.0
  0
TEXT
  5
E4D
  8
BEM
 10
155.9152387803069928
 20
1798.73679987247192
 30
0.0
 40
2.5
  1
 
 50
90.0
 72
     4
 11
155.9152387803069928
 21
1799.867752253423987
 31
0.0
  0
TEXT
  5
E4E
  8
VOLL
 10
257.4325446028311148
 20
1027.4761879600350767
 30
0.0
 40
1.8
  1

 50
90.0
  7
GREEKS
  0
TEXT
  5
E4F
  8
TEXT
 10
251.8743090696054878
 20
1359.3084561636280796
 30
0.0
 40
2.5
  1
  
 50
90.0
  7
GREEKS
 72
     1
 11
251.8743090696054878
 21
1361.5703609255328956
 31
0.0
  0
TEXT
  5
E50
  8
BEM
 10
116.3154270392032004
 20
1603.4281734761100324
 30
0.0
 40
2.5
  1
 
 50
90.0
 72
     4
 11
116.3154270392032004
 21
1604.5591258570630089
 31
0.0
  0
TEXT
  5
E51
  8
BEM
 10
237.0940103182327903
 20
1254.5000767498470395
 30
0.0
 40
2.5
  1

 50
90.0
  7
GREEKS
  0
TEXT
  5
E52
  8
VOLL
 10
257.2772709752679248
 20
1240.4338837301258991
 30
0.0
 40
1.8
  1

 50
90.0
  7
GREEKS
  0
TEXT
  5
E53
  8
BEM
 10
252.5515466520473069
 20
1274.9219485694100058
 30
0.0
 40
2.5
  1

 50
90.0
 41
0.8
  7
GREEKS
  0
TEXT
  5
E54
  8
BEM
 10
257.2453152060995194
 20
1274.9219485694100058
 30
0.0
 40
2.5
  1

 50
90.0
 41
0.8
  7
GREEKS
  0
TEXT
  5
E55
  8
BEM
 10
262.4831590247629833
 20
1274.9219485694100058
 30
0.0
 40
2.5
  1

 50
90.0
 41
0.8
  7
GREEKS
  0
TEXT
  5
E56
  8
BEM
 10
266.9883479748605737
 20
1274.8490040920351021
 30
0.0
 40
1.8
  1

 50
90.0
 41
0.8
  7
GREEKS
  0
TEXT
  5
E57
  8
BEM
 10
241.3967588786352962
 20
1262.1654332124239772
 30
0.0
 40
2.0
  1

 50
90.0
 41
0.8
  7
GREEKS
 72
     1
 11
241.3967588786352962
 21
1262.1654332124239772
 31
0.0
  0
TEXT
  5
E58
  8
TEXT
 10
251.7190354420424114
 20
1572.2661519337179925
 30
0.0
 40
2.5
  1
  
 50
90.0
  7
GREEKS
 72
     1
 11
251.7190354420424114
 21
1574.5280566956230359
 31
0.0
  0
TEXT
  5
E59
  8
BEM
 10
116.160153411640195
 20
1816.3858692461999453
 30
0.0
 40
2.5
  1
 
 50
90.0
 72
     4
 11
116.160153411640195
 21
1817.5168216271529218
 31
0.0
  0
TEXT
  5
169E
  8
VOLL
 10
582.224710987726553
 20
265.3559175119676752
 30
0.0
 40
1.8
  1

 50
90.0
  7
GREEKS
  0
TEXT
  5
169F
  8
VOLL
 10
576.9325942720073499
 20
355.0220914376408814
 30
0.0
 40
1.8
  1

 50
90.0
  7
GREEKS
  0
TEXT
  5
16A0
  8
TEXT
 10
571.3743587387818934
 20
686.8543596412338275
 30
0.0
 40
2.5
  1
  
 50
90.0
  7
GREEKS
 72
     1
 11
571.3743587387818934
 21
689.1162644031386435
 31
0.0
  0
TEXT
  5
16A1
  8
BEM
 10
435.815476708379606
 20
930.9740769537156666
 30
0.0
 40
2.5
  1
 
 50
90.0
 72
     4
 11
435.815476708379606
 21
932.1050293346680746
 31
0.0
  0
TEXT
  5
16A2
  8
BEM
 10
553.2958800808460182
 20
496.6634210835653107
 30
0.0
 40
2.5
  1

 50
90.0
  7
GREEKS
  0
TEXT
  5
16A3
  8
VOLL
 10
573.4791407378810391
 20
482.597228063843886
 30
0.0
 40
1.8
  1

 50
90.0
  7
GREEKS
  0
TEXT
  5
16A4
  8
BEM
 10
568.753416414660478
 20
517.0852929031284475
 30
0.0
 40
2.5
  1

 50
90.0
 41
0.8
  7
GREEKS
  0
TEXT
  5
16A5
  8
BEM
 10
573.4471849687125768
 20
517.0852929031284475
 30
0.0
 40
2.5
  1

 50
90.0
 41
0.8
  7
GREEKS
  0
TEXT
  5
16A6
  8
BEM
 10
578.6850287873761545
 20
517.0852929031284475
 30
0.0
 40
2.5
  1

 50
90.0
 41
0.8
  7
GREEKS
  0
TEXT
  5
16A7
  8
BEM
 10
583.1902177374737448
 20
517.0123484257542259
 30
0.0
 40
1.8
  1

 50
90.0
 41
0.8
  7
GREEKS
  0
TEXT
  5
16A8
  8
BEM
 10
557.5986286412485242
 20
504.3287775461428737
 30
0.0
 40
2.0
  1

 50
90.0
 41
0.8
  7
GREEKS
 72
     1
 11
557.5986286412485242
 21
504.3287775461428737
 31
0.0
  0
TEXT
  5
16A9
  8
TEXT
 10
567.9209052046554689
 20
814.4294962674366616
 30
0.0
 40
2.5
  1
  
 50
90.0
  7
GREEKS
 72
     1
 11
567.9209052046554689
 21
816.6914010293415913
 31
0.0
  0
TEXT
  5
16AA
  8
BEM
 10
432.3620231742532951
 20
1058.5492135799190692
 30
0.0
 40
2.5
  1
 
 50
90.0
 72
     4
 11
432.3620231742532951
 21
1059.6801659608709087
 31
0.0
  0
TEXT
  5
16AD
  8
VOLL
 10
566.0276266758919519
 20
407.3139924591289969
 30
0.0
 40
1.8
  1

 50
90.0
  7
GREEKS
  0
TEXT
  5
16AE
  8
TEXT
 10
560.4693911426663817
 20
739.1462606627220566
 30
0.0
 40
2.5
  1
  
 50
90.0
  7
GREEKS
 72
     1
 11
560.4693911426663817
 21
741.4081654246268727
 31
0.0
  0
TEXT
  5
16AF
  8
BEM
 10
424.9105091122642079
 20
983.2659779752040095
 30
0.0
 40
2.5
  1
 
 50
90.0
 72
     4
 11
424.9105091122642079
 21
984.3969303561564175
 31
0.0
  0
TEXT
  5
16B0
  8
BEM
 10
545.694215786215409
 20
562.4535946159251125
 30
0.0
 40
2.5
  1

 50
90.0
  7
GREEKS
  0
TEXT
  5
16B1
  8
VOLL
 10
565.8774764432505435
 20
548.387401596203631
 30
0.0
 40
1.8
  1

 50
90.0
  7
GREEKS
  0
TEXT
  5
16B2
  8
BEM
 10
561.1517521200298688
 20
582.8754664354881925
 30
0.0
 40
2.5
  1

 50
90.0
 41
0.8
  7
GREEKS
  0
TEXT
  5
16B3
  8
BEM
 10
565.8455206740819676
 20
582.8754664354881925
 30
0.0
 40
2.5
  1

 50
90.0
 41
0.8
  7
GREEKS
  0
TEXT
  5
16B4
  8
BEM
 10
571.0833644927455452
 20
582.8754664354881925
 30
0.0
 40
2.5
  1

 50
90.0
 41
0.8
  7
GREEKS
  0
TEXT
  5
16B5
  8
BEM
 10
575.5885534428431356
 20
582.8025219581137435
 30
0.0
 40
1.8
  1

 50
90.0
 41
0.8
  7
GREEKS
  0
TEXT
  5
16B6
  8
BEM
 10
549.996964346617915
 20
570.1189510785026187
 30
0.0
 40
2.0
  1

 50
90.0
 41
0.8
  7
GREEKS
 72
     1
 11
549.996964346617915
 21
570.1189510785026187
 31
0.0
  0
TEXT
  5
16B7
  8
TEXT
 10
560.3192409100248597
 20
880.2196697997965202
 30
0.0
 40
2.5
  1
  
 50
90.0
  7
GREEKS
 72
     1
 11
560.3192409100248597
 21
882.48157456170145
 31
0.0
  0
TEXT
  5
16B8
  8
BEM
 10
424.7603588796226859
 20
1124.3393871122789278
 30
0.0
 40
2.5
  1
 
 50
90.0
 72
     4
 11
424.7603588796226859
 21
1125.4703394932309948
 31
0.0
  0
TEXT
  5
16B9
  8
VOLL
 10
577.8433362016404544
 20
343.2917810323726826
 30
0.0
 40
1.8
  1

 50
90.0
  7
GREEKS
  0
TEXT
  5
16BA
  8
TEXT
 10
572.2851006684147706
 20
675.1240492359655718
 30
0.0
 40
2.5
  1
  
 50
90.0
  7
GREEKS
 72
     1
 11
572.2851006684147706
 21
677.3859539978703879
 31
0.0
  0
TEXT
  5
16BB
  8
BEM
 10
436.7262186380127105
 20
919.2437665484476383
 30
0.0
 40
2.5
  1
 
 50
90.0
 72
     4
 11
436.7262186380127105
 21
920.3747189294000464
 31
0.0
  0
TEXT
  5
16BC
  8
BEM
 10
537.6901055030547241
 20
508.6373941120227187
 30
0.0
 40
2.5
  1

 50
90.0
  7
GREEKS
  0
TEXT
  5
16BD
  8
VOLL
 10
557.8733661600898586
 20
494.5712010923011803
 30
0.0
 40
1.8
  1

 50
90.0
  7
GREEKS
  0
TEXT
  5
16BE
  8
BEM
 10
553.1476418368692975
 20
529.0592659315858555
 30
0.0
 40
2.5
  1

 50
90.0
 41
0.8
  7
GREEKS
  0
TEXT
  5
16BF
  8
BEM
 10
557.8414103909213964
 20
529.0592659315858555
 30
0.0
 40
2.5
  1

 50
90.0
 41
0.8
  7
GREEKS
  0
TEXT
  5
16C0
  8
BEM
 10
563.0792542095848603
 20
529.0592659315858555
 30
0.0
 40
2.5
  1

 50
90.0
 41
0.8
  7
GREEKS
  0
TEXT
  5
16C1
  8
BEM
 10
567.5844431596824506
 20
528.9863214542114065
 30
0.0
 40
1.8
  1

 50
90.0
 41
0.8
  7
GREEKS
  0
TEXT
  5
16C2
  8
BEM
 10
541.99285406345723
 20
516.3027505746000543
 30
0.0
 40
2.0
  1

 50
90.0
 41
0.8
  7
GREEKS
 72
     1
 11
541.99285406345723
 21
516.3027505746000543
 31
0.0
  0
TEXT
  5
16C3
  8
TEXT
 10
552.3151306268642884
 20
826.4034692958939559
 30
0.0
 40
2.5
  1
  
 50
90.0
  7
GREEKS
 72
     1
 11
552.3151306268642884
 21
828.6653740577988856
 31
0.0
  0
TEXT
  5
16C4
  8
BEM
 10
416.7562485964621146
 20
1070.5231866083759087
 30
0.0
 40
2.5
  1
 
 50
90.0
 72
     4
 11
416.7562485964621146
 21
1071.6541389893291125
 31
0.0
  0
TEXT
  5
16C5
  8
VOLL
 10
572.7248928241378962
 20
670.8733572854838485
 30
0.0
 40
1.8
  1

 50
90.0
  7
GREEKS
  0
TEXT
  5
16C6
  8
VOLL
 10
567.4327761084184658
 20
760.5395312111570547
 30
0.0
 40
1.8
  1

 50
90.0
  7
GREEKS
  0
TEXT
  5
16C7
  8
TEXT
 10
561.8745405751930093
 20
1092.3717994147500576
 30
0.0
 40
2.5
  1
  
 50
90.0
  7
GREEKS
 72
     1
 11
561.8745405751930093
 21
1094.633704176655101
 31
0.0
  0
TEXT
  5
16C8
  8
BEM
 10
426.3156585447908924
 20
1336.4915167272320105
 30
0.0
 40
2.5
  1
 
 50
90.0
 72
     4
 11
426.3156585447908924
 21
1337.6224691081840774
 31
0.0
  0
TEXT
  5
16C9
  8
BEM
 10
543.7960619172572478
 20
902.1808608570815977
 30
0.0
 40
2.5
  1

 50
90.0
  7
GREEKS
  0
TEXT
  5
16CA
  8
VOLL
 10
563.9793225742922687
 20
888.1146678373601162
 30
0.0
 40
1.8
  1

 50
90.0
  7
GREEKS
  0
TEXT
  5
16CB
  8
BEM
 10
559.2535982510717076
 20
922.6027326766447914
 30
0.0
 40
2.5
  1

 50
90.0
 41
0.8
  7
GREEKS
  0
TEXT
  5
16CC
  8
BEM
 10
563.9473668051238064
 20
922.6027326766447914
 30
0.0
 40
2.5
  1

 50
90.0
 41
0.8
  7
GREEKS
  0
TEXT
  5
16CD
  8
BEM
 10
569.1852106237872704
 20
922.6027326766447914
 30
0.0
 40
2.5
  1

 50
90.0
 41
0.8
  7
GREEKS
  0
TEXT
  5
16CE
  8
BEM
 10
573.6903995738848607
 20
922.5297881992704561
 30
0.0
 40
1.8
  1

 50
90.0
 41
0.8
  7
GREEKS
  0
TEXT
  5
16CF
  8
BEM
 10
548.0988104776597538
 20
909.8462173196589902
 30
0.0
 40
2.0
  1

 50
90.0
 41
0.8
  7
GREEKS
 72
     1
 11
548.0988104776597538
 21
909.8462173196589902
 31
0.0
  0
TEXT
  5
16D0
  8
TEXT
 10
558.4210870410668122
 20
1219.9469360409530054
 30
0.0
 40
2.5
  1
  
 50
90.0
  7
GREEKS
 72
     1
 11
558.4210870410668122
 21
1222.2088408028580488
 31
0.0
  0
TEXT
  5
16D1
  8
BEM
 10
422.8622050106645247
 20
1464.0666533534349583
 30
0.0
 40
2.5
  1
 
 50
90.0
 72
     4
 11
422.8622050106645247
 21
1465.1976057343879347
 31
0.0
  0
TEXT
  5
16D2
  8
VOLL
 10
595.6739657166384632
 20
678.7866719772672468
 30
0.0
 40
1.8
  1

 50
90.0
  7
GREEKS
  0
TEXT
  5
16D3
  8
VOLL
 10
590.3818490009191464
 20
768.452845902940453
 30
0.0
 40
1.8
  1

 50
90.0
  7
GREEKS
  0
TEXT
  5
16D4
  8
TEXT
 10
584.8236134676935762
 20
1100.2851141065330012
 30
0.0
 40
2.5
  1
  
 50
90.0
  7
GREEKS
 72
     1
 11
584.8236134676935762
 21
1102.5470188684380446
 31
0.0
  0
TEXT
  5
16D5
  8
BEM
 10
449.2647314372914025
 20
1344.404831419014954
 30
0.0
 40
2.5
  1
 
 50
90.0
 72
     4
 11
449.2647314372914025
 21
1345.5357837999679305
 31
0.0
  0
TEXT
  5
16D6
  8
BEM
 10
566.7451348097577011
 20
910.0941755488647686
 30
0.0
 40
2.5
  1

 50
90.0
  7
GREEKS
  0
TEXT
  5
16D7
  8
VOLL
 10
586.9283954667928356
 20
896.0279825291435145
 30
0.0
 40
1.8
  1

 50
90.0
  7
GREEKS
  0
TEXT
  5
16D8
  8
BEM
 10
582.2026711435721609
 20
930.5160473684279623
 30
0.0
 40
2.5
  1

 50
90.0
 41
0.8
  7
GREEKS
  0
TEXT
  5
16D9
  8
BEM
 10
586.8964396976242597
 20
930.5160473684279623
 30
0.0
 40
2.5
  1

 50
90.0
 41
0.8
  7
GREEKS
  0
TEXT
  5
16DA
  8
BEM
 10
592.134283516287951
 20
930.5160473684279623
 30
0.0
 40
2.5
  1

 50
90.0
 41
0.8
  7
GREEKS
  0
TEXT
  5
16DB
  8
BEM
 10
596.6394724663855413
 20
930.4431028910537407
 30
0.0
 40
1.8
  1

 50
90.0
 41
0.8
  7
GREEKS
  0
TEXT
  5
16DC
  8
BEM
 10
571.0478833701602071
 20
917.7595320114425022
 30
0.0
 40
2.0
  1

 50
90.0
 41
0.8
  7
GREEKS
 72
     1
 11
571.0478833701602071
 21
917.7595320114425022
 31
0.0
  0
TEXT
  5
16DD
  8
TEXT
 10
581.3701599335671517
 20
1227.860250732735949
 30
0.0
 40
2.5
  1
  
 50
90.0
  7
GREEKS
 72
     1
 11
581.3701599335671517
 21
1230.1221554946409924
 31
0.0
  0
TEXT
  5
16DE
  8
BEM
 10
445.8112779031649779
 20
1471.9799680452179018
 30
0.0
 40
2.5
  1
 
 50
90.0
 72
     4
 11
445.8112779031649779
 21
1473.1109204261699688
 31
0.0
  0
TEXT
  5
16DF
  8
VOLL
 10
579.4768814048036347
 20
820.7447469244285685
 30
0.0
 40
1.8
  1

 50
90.0
  7
GREEKS
  0
TEXT
  5
16E0
  8
TEXT
 10
573.9186458715780645
 20
1152.577015128021003
 30
0.0
 40
2.5
  1
  
 50
90.0
  7
GREEKS
 72
     1
 11
573.9186458715780645
 21
1154.8389198899260464
 31
0.0
  0
TEXT
  5
16E1
  8
BEM
 10
438.3597638411758908
 20
1396.6967324405029558
 30
0.0
 40
2.5
  1
 
 50
90.0
 72
     4
 11
438.3597638411758908
 21
1397.8276848214559323
 31
0.0
  0
TEXT
  5
16E2
  8
BEM
 10
559.1434705151272055
 20
975.8843490812246273
 30
0.0
 40
2.5
  1

 50
90.0
  7
GREEKS
  0
TEXT
  5
16E3
  8
VOLL
 10
579.3267311721622264
 20
961.8181560615031458
 30
0.0
 40
1.8
  1

 50
90.0
  7
GREEKS
  0
TEXT
  5
16E4
  8
BEM
 10
574.6010068489415517
 20
996.3062209007875936
 30
0.0
 40
2.5
  1

 50
90.0
 41
0.8
  7
GREEKS
  0
TEXT
  5
16E5
  8
BEM
 10
579.2947754029937641
 20
996.3062209007875936
 30
0.0
 40
2.5
  1

 50
90.0
 41
0.8
  7
GREEKS
  0
TEXT
  5
16E6
  8
BEM
 10
584.5326192216573418
 20
996.3062209007875936
 30
0.0
 40
2.5
  1

 50
90.0
 41
0.8
  7
GREEKS
  0
TEXT
  5
16E7
  8
BEM
 10
589.0378081717549321
 20
996.2332764234132583
 30
0.0
 40
1.8
  1

 50
90.0
 41
0.8
  7
GREEKS
  0
TEXT
  5
16E8
  8
BEM
 10
563.4462190755295978
 20
983.5497055438022471
 30
0.0
 40
2.0
  1

 50
90.0
 41
0.8
  7
GREEKS
 72
     1
 11
563.4462190755295978
 21
983.5497055438022471
 31
0.0
  0
TEXT
  5
16E9
  8
TEXT
 10
573.7684956389366562
 20
1293.650424265096035
 30
0.0
 40
2.5
  1
  
 50
90.0
  7
GREEKS
 72
     1
 11
573.7684956389366562
 21
1295.9123290270010784
 31
0.0
  0
TEXT
  5
16EA
  8
BEM
 10
438.2096136085345961
 20
1537.7701415775779878
 30
0.0
 40
2.5
  1
 
 50
90.0
 72
     4
 11
438.2096136085345961
 21
1538.9010939585300548
 31
0.0
  0
TEXT
  5
16EB
  8
VOLL
 10
384.8146519249976905
 20
451.3618872375444084
 30
0.0
 40
1.8
  1

 50
90.0
  7
GREEKS
  0
TEXT
  5
16EC
  8
VOLL
 10
379.5225352092783737
 20
541.0280611632176715
 30
0.0
 40
1.8
  1

 50
90.0
  7
GREEKS
  0
TEXT
  5
16ED
  8
TEXT
 10
373.9642996760529172
 20
872.8603293668105607
 30
0.0
 40
2.5
  1
  
 50
90.0
  7
GREEKS
 72
     1
 11
373.9642996760529172
 21
875.1222341287152631
 31
0.0
  0
TEXT
  5
16EE
  8
BEM
 10
238.4054176456506866
 20
1116.9800466792919451
 30
0.0
 40
2.5
  1
 
 50
90.0
 72
     4
 11
238.4054176456506866
 21
1118.1109990602449216
 31
0.0
  0
TEXT
  5
16EF
  8
BEM
 10
355.8858210181169852
 20
682.6693908091421008
 30
0.0
 40
2.5
  1

 50
90.0
  7
GREEKS
  0
TEXT
  5
16F0
  8
VOLL
 10
376.0690816751521197
 20
668.603197789420733
 30
0.0
 40
1.8
  1

 50
90.0
  7
GREEKS
  0
TEXT
  5
16F1
  8
BEM
 10
371.3433573519316155
 20
703.0912626287052944
 30
0.0
 40
2.5
  1

 50
90.0
 41
0.8
  7
GREEKS
  0
TEXT
  5
16F2
  8
BEM
 10
376.0371259059837143
 20
703.0912626287052944
 30
0.0
 40
2.5
  1

 50
90.0
 41
0.8
  7
GREEKS
  0
TEXT
  5
16F3
  8
BEM
 10
381.2749697246471783
 20
703.0912626287052944
 30
0.0
 40
2.5
  1

 50
90.0
 41
0.8
  7
GREEKS
  0
TEXT
  5
16F4
  8
BEM
 10
385.7801586747448255
 20
703.0183181513308455
 30
0.0
 40
1.8
  1

 50
90.0
 41
0.8
  7
GREEKS
  0
TEXT
  5
16F5
  8
BEM
 10
360.1885695785194912
 20
690.3347472717197206
 30
0.0
 40
2.0
  1

 50
90.0
 41
0.8
  7
GREEKS
 72
     1
 11
360.1885695785194912
 21
690.3347472717197206
 31
0.0
  0
TEXT
  5
16F6
  8
TEXT
 10
370.5108461419267201
 20
1000.4354659930130538
 30
0.0
 40
2.5
  1
  
 50
90.0
  7
GREEKS
 72
     1
 11
370.5108461419267201
 21
1002.6973707549179835
 31
0.0
  0
TEXT
  5
16F7
  8
BEM
 10
234.9519641115244042
 20
1244.5551833054948929
 30
0.0
 40
2.5
  1
 
 50
90.0
 72
     4
 11
234.9519641115244042
 21
1245.6861356864480967
 31
0.0
  0
TEXT
  5
16F8
  8
VOLL
 10
368.6175676131629757
 20
593.3199621847059007
 30
0.0
 40
1.8
  1

 50
90.0
  7
GREEKS
  0
TEXT
  5
16F9
  8
TEXT
 10
363.0593320799375192
 20
925.1522303882986762
 30
0.0
 40
2.5
  1
  
 50
90.0
  7
GREEKS
 72
     1
 11
363.0593320799375192
 21
927.4141351502036059
 31
0.0
  0
TEXT
  5
16FA
  8
BEM
 10
227.5004500495352886
 20
1169.2719477007810838
 30
0.0
 40
2.5
  1
 
 50
90.0
 72
     4
 11
227.5004500495352886
 21
1170.4029000817329234
 31
0.0
  0
TEXT
  5
16FB
  8
BEM
 10
348.284156723486376
 20
748.4595643415017321
 30
0.0
 40
2.5
  1

 50
90.0
  7
GREEKS
  0
TEXT
  5
16FC
  8
VOLL
 10
368.4674173805216242
 20
734.3933713217802506
 30
0.0
 40
1.8
  1

 50
90.0
  7
GREEKS
  0
TEXT
  5
16FD
  8
BEM
 10
363.7416930573010063
 20
768.8814361610649257
 30
0.0
 40
2.5
  1

 50
90.0
 41
0.8
  7
GREEKS
  0
TEXT
  5
16FE
  8
BEM
 10
368.4354616113531051
 20
768.8814361610649257
 30
0.0
 40
2.5
  1

 50
90.0
 41
0.8
  7
GREEKS
  0
TEXT
  5
16FF
  8
BEM
 10
373.6733054300166259
 20
768.8814361610649257
 30
0.0
 40
2.5
  1

 50
90.0
 41
0.8
  7
GREEKS
  0
TEXT
  5
1700
  8
BEM
 10
378.1784943801142163
 20
768.8084916836903631
 30
0.0
 40
1.8
  1

 50
90.0
 41
0.8
  7
GREEKS
  0
TEXT
  5
1701
  8
BEM
 10
352.586905283888882
 20
756.1249208040793519
 30
0.0
 40
2.0
  1

 50
90.0
 41
0.8
  7
GREEKS
 72
     1
 11
352.586905283888882
 21
756.1249208040793519
 31
0.0
  0
TEXT
  5
1702
  8
TEXT
 10
362.9091818472961108
 20
1066.2256395253730261
 30
0.0
 40
2.5
  1
  
 50
90.0
  7
GREEKS
 72
     1
 11
362.9091818472961108
 21
1068.4875442872780695
 31
0.0
  0
TEXT
  5
1703
  8
BEM
 10
227.350299816893795
 20
1310.3453568378549789
 30
0.0
 40
2.5
  1
 
 50
90.0
 72
     4
 11
227.350299816893795
 21
1311.4763092188070459
 31
0.0
  0
TEXT
  5
1704
  8
VOLL
 10
380.4332771389114782
 20
529.2977507579494159
 30
0.0
 40
1.8
  1

 50
90.0
  7
GREEKS
  0
TEXT
  5
1705
  8
TEXT
 10
374.8750416056860217
 20
861.1300189615423051
 30
0.0
 40
2.5
  1
  
 50
90.0
  7
GREEKS
 72
     1
 11
374.8750416056860217
 21
863.3919237234470074
 31
0.0
  0
TEXT
  5
1706
  8
BEM
 10
239.3161595752837911
 20
1105.2497362740239168
 30
0.0
 40
2.5
  1
 
 50
90.0
 72
     4
 11
239.3161595752837911
 21
1106.3806886549768933
 31
0.0
  0
TEXT
  5
1707
  8
BEM
 10
340.2800464403258047
 20
694.6433638375992814
 30
0.0
 40
2.5
  1

 50
90.0
  7
GREEKS
  0
TEXT
  5
1708
  8
VOLL
 10
360.4633070973608824
 20
680.5771708178779136
 30
0.0
 40
1.8
  1

 50
90.0
  7
GREEKS
  0
TEXT
  5
1709
  8
BEM
 10
355.7375827741403782
 20
715.0652356571625887
 30
0.0
 40
2.5
  1

 50
90.0
 41
0.8
  7
GREEKS
  0
TEXT
  5
170A
  8
BEM
 10
360.431351328192477
 20
715.0652356571625887
 30
0.0
 40
2.5
  1

 50
90.0
 41
0.8
  7
GREEKS
  0
TEXT
  5
170B
  8
BEM
 10
365.6691951468559978
 20
715.0652356571625887
 30
0.0
 40
2.5
  1

 50
90.0
 41
0.8
  7
GREEKS
  0
TEXT
  5
170C
  8
BEM
 10
370.1743840969537018
 20
714.9922911797881397
 30
0.0
 40
1.8
  1

 50
90.0
 41
0.8
  7
GREEKS
  0
TEXT
  5
170D
  8
BEM
 10
344.5827950007283107
 20
702.3087203001769012
 30
0.0
 40
2.0
  1

 50
90.0
 41
0.8
  7
GREEKS
 72
     1
 11
344.5827950007283107
 21
702.3087203001769012
 31
0.0
  0
TEXT
  5
170E
  8
TEXT
 10
354.9050715641354259
 20
1012.4094390214710302
 30
0.0
 40
2.5
  1
  
 50
90.0
  7
GREEKS
 72
     1
 11
354.9050715641354259
 21
1014.6713437833750504
 31
0.0
  0
TEXT
  5
170F
  8
BEM
 10
219.3461895337331953
 20
1256.5291563339530967
 30
0.0
 40
2.5
  1
 
 50
90.0
 72
     4
 11
219.3461895337331953
 21
1257.6601087149049363
 31
0.0
  0
TEXT
  5
1710
  8
VOLL
 10
406.4707489335615946
 20
457.7632401700851119
 30
0.0
 40
1.8
  1

 50
90.0
  7
GREEKS
  0
TEXT
  5
1711
  8
VOLL
 10
401.1786322178423916
 20
547.4294140957581476
 30
0.0
 40
1.8
  1

 50
90.0
  7
GREEKS
  0
TEXT
  5
1712
  8
TEXT
 10
395.6203966846168782
 20
879.2616822993511505
 30
0.0
 40
2.5
  1
  
 50
90.0
  7
GREEKS
 72
     1
 11
395.6203966846168782
 21
881.5235870612560802
 31
0.0
  0
TEXT
  5
1713
  8
BEM
 10
260.0615146542147045
 20
1123.3813996118331033
 30
0.0
 40
2.5
  1
 
 50
90.0
 72
     4
 11
260.0615146542147045
 21
1124.5123519927849429
 31
0.0
  0
TEXT
  5
1714
  8
BEM
 10
377.5419180266810031
 20
689.0707437416828043
 30
0.0
 40
2.5
  1

 50
90.0
  7
GREEKS
  0
TEXT
  5
1715
  8
VOLL
 10
397.7251786837160807
 20
675.0045507219613228
 30
0.0
 40
1.8
  1

 50
90.0
  7
GREEKS
  0
TEXT
  5
1716
  8
BEM
 10
392.9994543604955197
 20
709.4926155612458842
 30
0.0
 40
2.5
  1

 50
90.0
 41
0.8
  7
GREEKS
  0
TEXT
  5
1717
  8
BEM
 10
397.6932229145476185
 20
709.4926155612458842
 30
0.0
 40
2.5
  1

 50
90.0
 41
0.8
  7
GREEKS
  0
TEXT
  5
1718
  8
BEM
 10
402.9310667332110825
 20
709.4926155612458842
 30
0.0
 40
2.5
  1

 50
90.0
 41
0.8
  7
GREEKS
  0
TEXT
  5
1719
  8
BEM
 10
407.4362556833086728
 20
709.4196710838715489
 30
0.0
 40
1.8
  1

 50
90.0
 41
0.8
  7
GREEKS
  0
TEXT
  5
171A
  8
BEM
 10
381.8446665870835091
 20
696.7361002042601967
 30
0.0
 40
2.0
  1

 50
90.0
 41
0.8
  7
GREEKS
 72
     1
 11
381.8446665870835091
 21
696.7361002042601967
 31
0.0
  0
TEXT
  5
171B
  8
TEXT
 10
392.1669431504906242
 20
1006.8368189255539846
 30
0.0
 40
2.5
  1
  
 50
90.0
  7
GREEKS
 72
     1
 11
392.1669431504906242
 21
1009.098723687459028
 31
0.0
  0
TEXT
  5
171C
  8
BEM
 10
256.6080611200883936
 20
1250.9565362380360511
 30
0.0
 40
2.5
  1
 
 50
90.0
 72
     4
 11
256.6080611200883936
 21
1252.0874886189878907
 31
0.0
  0
TEXT
  5
171D
  8
VOLL
 10
390.2736646217269936
 20
599.7213151172464904
 30
0.0
 40
1.8
  1

 50
90.0
  7
GREEKS
  0
TEXT
  5
171E
  8
TEXT
 10
384.7154290885014802
 20
931.5535833208394934
 30
0.0
 40
2.5
  1
  
 50
90.0
  7
GREEKS
 72
     1
 11
384.7154290885014802
 21
933.8154880827444231
 31
0.0
  0
TEXT
  5
171F
  8
BEM
 10
249.1565470580991928
 20
1175.6733006333211051
 30
0.0
 40
2.5
  1
 
 50
90.0
 72
     4
 11
249.1565470580991928
 21
1176.8042530142740816
 31
0.0
  0
TEXT
  5
1720
  8
BEM
 10
369.9402537320503939
 20
754.8609172740424356
 30
0.0
 40
2.5
  1

 50
90.0
  7
GREEKS
  0
TEXT
  5
1721
  8
VOLL
 10
390.1235143890855284
 20
740.7947242543209541
 30
0.0
 40
1.8
  1

 50
90.0
  7
GREEKS
  0
TEXT
  5
1722
  8
BEM
 10
385.3977900658649105
 20
775.2827890936056292
 30
0.0
 40
2.5
  1

 50
90.0
 41
0.8
  7
GREEKS
  0
TEXT
  5
1723
  8
BEM
 10
390.091558619917123
 20
775.2827890936056292
 30
0.0
 40
2.5
  1

 50
90.0
 41
0.8
  7
GREEKS
  0
TEXT
  5
1724
  8
BEM
 10
395.3294024385805869
 20
775.2827890936056292
 30
0.0
 40
2.5
  1

 50
90.0
 41
0.8
  7
GREEKS
  0
TEXT
  5
1725
  8
BEM
 10
399.8345913886781773
 20
775.2098446162310665
 30
0.0
 40
1.8
  1

 50
90.0
 41
0.8
  7
GREEKS
  0
TEXT
  5
1726
  8
BEM
 10
374.2430022924528998
 20
762.5262737366200554
 30
0.0
 40
2.0
  1

 50
90.0
 41
0.8
  7
GREEKS
 72
     1
 11
374.2430022924528998
 21
762.5262737366200554
 31
0.0
  0
TEXT
  5
1727
  8
TEXT
 10
384.565278855860015
 20
1072.626992457913957
 30
0.0
 40
2.5
  1
  
 50
90.0
  7
GREEKS
 72
     1
 11
384.565278855860015
 21
1074.8888972198180909
 31
0.0
  0
TEXT
  5
1728
  8
BEM
 10
249.0063968254578128
 20
1316.7467097703959098
 30
0.0
 40
2.5
  1
 
 50
90.0
 72
     4
 11
249.0063968254578128
 21
1317.8776621513479768
 31
0.0
  0
TEXT
  5
1729
  8
VOLL
 10
402.0893741474754961
 20
535.6991036904901193
 30
0.0
 40
1.8
  1

 50
90.0
  7
GREEKS
  0
TEXT
  5
172A
  8
TEXT
 10
396.5311386142499828
 20
867.5313718940828949
 30
0.0
 40
2.5
  1
  
 50
90.0
  7
GREEKS
 72
     1
 11
396.5311386142499828
 21
869.7932766559878246
 31
0.0
  0
TEXT
  5
172B
  8
BEM
 10
260.9722565838476953
 20
1111.6510892065650751
 30
0.0
 40
2.5
  1
 
 50
90.0
 72
     4
 11
260.9722565838476953
 21
1112.7820415875169147
 31
0.0
  0
TEXT
  5
172C
  8
BEM
 10
361.9361434488898226
 20
701.0447167701400986
 30
0.0
 40
2.5
  1

 50
90.0
  7
GREEKS
  0
TEXT
  5
172D
  8
VOLL
 10
382.1194041059249003
 20
686.9785237504185034
 30
0.0
 40
1.8
  1

 50
90.0
  7
GREEKS
  0
TEXT
  5
172E
  8
BEM
 10
377.3936797827042824
 20
721.4665885897032922
 30
0.0
 40
2.5
  1

 50
90.0
 41
0.8
  7
GREEKS
  0
TEXT
  5
172F
  8
BEM
 10
382.0874483367563812
 20
721.4665885897032922
 30
0.0
 40
2.5
  1

 50
90.0
 41
0.8
  7
GREEKS
  0
TEXT
  5
1730
  8
BEM
 10
387.325292155419902
 20
721.4665885897032922
 30
0.0
 40
2.5
  1

 50
90.0
 41
0.8
  7
GREEKS
  0
TEXT
  5
1731
  8
BEM
 10
391.830481105517606
 20
721.3936441123288432
 30
0.0
 40
1.8
  1

 50
90.0
 41
0.8
  7
GREEKS
  0
TEXT
  5
1732
  8
BEM
 10
366.2388920092922717
 20
708.710073232717491
 30
0.0
 40
2.0
  1

 50
90.0
 41
0.8
  7
GREEKS
 72
     1
 11
366.2388920092922717
 21
708.710073232717491
 31
0.0
  0
TEXT
  5
1733
  8
TEXT
 10
376.5611685726993869
 20
1018.8107919540110515
 30
0.0
 40
2.5
  1
  
 50
90.0
  7
GREEKS
 72
     1
 11
376.5611685726993869
 21
1021.0726967159159813
 31
0.0
  0
TEXT
  5
1734
  8
BEM
 10
241.0022865422972131
 20
1262.9305092664928907
 30
0.0
 40
2.5
  1
 
 50
90.0
 72
     4
 11
241.0022865422972131
 21
1264.0614616474460945
 31
0.0
  0
TEXT
  5
1735
  8
VOLL
 10
421.6799638805138102
 20
814.100242546236359
 30
0.0
 40
1.8
  1

 50
90.0
  7
GREEKS
  0
TEXT
  5
1736
  8
TEXT
 10
416.1217283472882968
 20
1145.9325107498289071
 30
0.0
 40
2.5
  1
  
 50
90.0
  7
GREEKS
 72
     1
 11
416.1217283472882968
 21
1148.1944155117339506
 31
0.0
  0
TEXT
  5
1737
  8
BEM
 10
280.5628463168861231
 20
1390.0522280623119968
 30
0.0
 40
2.5
  1
 
 50
90.0
 72
     4
 11
280.5628463168861231
 21
1391.1831804432640638
 31
0.0
  0
TEXT
  5
1738
  8
VOLL
 10
416.1244082454426234
 20
971.6349596233982311
 30
0.0
 40
1.8
  1

 50
90.0
  7
GREEKS
  0
TEXT
  5
1739
  8
BEM
 10
411.3986839222218919
 20
1006.1230244626830199
 30
0.0
 40
2.5
  1

 50
90.0
 41
0.8
  7
GREEKS
  0
TEXT
  5
173A
  8
BEM
 10
416.0924524762741044
 20
1006.1230244626830199
 30
0.0
 40
2.5
  1

 50
90.0
 41
0.8
  7
GREEKS
  0
TEXT
  5
173B
  8
BEM
 10
421.3302962949375114
 20
1006.1230244626830199
 30
0.0
 40
2.5
  1

 50
90.0
 41
0.8
  7
GREEKS
  0
TEXT
  5
173C
  8
BEM
 10
425.8354852450351018
 20
1006.0500799853080025
 30
0.0
 40
1.8
  1

 50
90.0
 41
0.8
  7
GREEKS
  0
TEXT
  5
173D
  8
TEXT
 10
410.5661727122169964
 20
1303.4672278269908929
 30
0.0
 40
2.5
  1
  
 50
90.0
  7
GREEKS
 72
     1
 11
410.5661727122169964
 21
1305.7291325888959364
 31
0.0
  0
TEXT
  5
173E
  8
BEM
 10
275.0072906818148226
 20
1547.5869451394730731
 30
0.0
 40
2.5
  1
 
 50
90.0
 72
     4
 11
275.0072906818148226
 21
1548.7178975204260496
 31
0.0
  0
TEXT
  5
173F
  8
VOLL
 10
355.8051840847737139
 20
558.5845777677806154
 30
0.0
 40
1.8
  1

 50
90.0
  7
GREEKS
  0
TEXT
  5
1740
  8
TEXT
 10
350.2469485515482006
 20
890.4168459713735047
 30
0.0
 40
2.5
  1
  
 50
90.0
  7
GREEKS
 72
     1
 11
350.2469485515482006
 21
892.6787507332784344
 31
0.0
  0
TEXT
  5
1741
  8
BEM
 10
214.6880665211459132
 20
1134.5365632838550027
 30
0.0
 40
2.5
  1
 
 50
90.0
 72
     4
 11
214.6880665211459132
 21
1135.6675156648079792
 31
0.0
  0
TEXT
  5
1742
  8
BEM
 10
342.783986889395976
 20
996.6814533943870629
 30
0.0
 40
2.5
  1

 50
90.0
  7
GREEKS
  0
TEXT
  5
1743
  8
BEM
 10
357.7224347417160857
 20
1017.2432394540990117
 30
0.0
 40
2.5
  1

 50
90.0
 41
0.8
  7
GREEKS
  0
TEXT
  5
1744
  8
BEM
 10
367.8008848064292238
 20
1017.1039094358120565
 30
0.0
 40
2.5
  1

 50
90.0
 41
0.8
  7
GREEKS
  0
TEXT
  5
1745
  8
BEM
 10
362.8551018701135149
 20
1017.1571693195750186
 30
0.0
 40
2.5
  1

 50
90.0
 41
0.8
  7
GREEKS
  0
TEXT
  5
1746
  8
BEM
 10
372.8956724460692271
 20
1017.1996873574710207
 30
0.0
 40
1.8
  1

 50
90.0
 41
0.8
  7
GREEKS
  0
TEXT
  5
1747
  8
BEM
 10
347.4573279589009758
 20
1004.6273721138890096
 30
0.0
 40
2.0
  1

 50
90.0
 41
0.8
  7
GREEKS
 72
     1
 11
347.4573279589009758
 21
1004.6273721138890096
 31
0.0
  0
TEXT
  5
1748
  8
VOLL
 10
361.4939493191591851
 20
737.8225116385930278
 30
0.0
 40
1.8
  1

 50
90.0
  7
GREEKS
  0
TEXT
  5
1749
  8
TEXT
 10
355.9357137859336717
 20
1069.654779842185917
 30
0.0
 40
2.5
  1
  
 50
90.0
  7
GREEKS
 72
     1
 11
355.9357137859336717
 21
1071.9166846040909604
 31
0.0
  0
TEXT
  5
174A
  8
BEM
 10
220.3768317555314979
 20
1313.7744971546680972
 30
0.0
 40
2.5
  1
 
 50
90.0
 72
     4
 11
220.3768317555314979
 21
1314.9054495356199368
 31
0.0
  0
TEXT
  5
174B
  8
BEM
 10
298.5550232183855996
 20
852.3115300167601163
 30
0.0
 40
2.5
  1

 50
90.0
  7
GREEKS
  0
TEXT
  5
174C
  8
VOLL
 10
318.7382838754206773
 20
838.2453369970387484
 30
0.0
 40
1.8
  1

 50
90.0
  7
GREEKS
  0
TEXT
  5
174D
  8
BEM
 10
314.0125595522001731
 20
872.7334018363235373
 30
0.0
 40
2.5
  1

 50
90.0
 41
0.8
  7
GREEKS
  0
TEXT
  5
174E
  8
BEM
 10
318.7063281062522719
 20
872.7334018363235373
 30
0.0
 40
2.5
  1

 50
90.0
 41
0.8
  7
GREEKS
  0
TEXT
  5
174F
  8
BEM
 10
323.9441719249157927
 20
872.7334018363235373
 30
0.0
 40
2.5
  1

 50
90.0
 41
0.8
  7
GREEKS
  0
TEXT
  5
1750
  8
BEM
 10
328.4493608750133831
 20
872.6604573589489746
 30
0.0
 40
1.8
  1

 50
90.0
 41
0.8
  7
GREEKS
  0
TEXT
  5
1751
  8
BEM
 10
302.8577717787881056
 20
859.9768864793378498
 30
0.0
 40
2.0
  1

 50
90.0
 41
0.8
  7
GREEKS
 72
     1
 11
302.8577717787881056
 21
859.9768864793378498
 31
0.0
  0
TEXT
  5
1752
  8
TEXT
 10
313.1800483421951071
 20
1170.0776052006319787
 30
0.0
 40
2.5
  1
  
 50
90.0
  7
GREEKS
 72
     1
 11
313.1800483421951071
 21
1172.3395099625370221
 31
0.0
  0
TEXT
  5
1753
  8
BEM
 10
177.6211663117929049
 20
1414.1973225131130221
 30
0.0
 40
2.5
  1
 
 50
90.0
 72
     4
 11
177.6211663117929049
 21
1415.3282748940659985
 31
0.0
  0
TEXT
  5
1754
  8
VOLL
 10
402.0264016141559864
 20
546.4931298479242514
 30
0.0
 40
1.8
  1

 50
90.0
  7
GREEKS
  0
TEXT
  5
1755
  8
VOLL
 10
396.7342848984367265
 20
636.1593037735973439
 30
0.0
 40
1.8
  1

 50
90.0
  7
GREEKS
  0
TEXT
  5
1756
  8
TEXT
 10
391.1760493652113269
 20
967.9915719771903468
 30
0.0
 40
2.5
  1
  
 50
90.0
  7
GREEKS
 72
     1
 11
391.1760493652113269
 21
970.2534767390951629
 31
0.0
  0
TEXT
  5
1757
  8
BEM
 10
255.6171673348090962
 20
1212.1112892896719586
 30
0.0
 40
2.5
  1
 
 50
90.0
 72
     4
 11
255.6171673348090962
 21
1213.2422416706240256
 31
0.0
  0
TEXT
  5
1758
  8
BEM
 10
373.0975707072753949
 20
777.8006334195218869
 30
0.0
 40
2.5
  1

 50
90.0
  7
GREEKS
  0
TEXT
  5
1759
  8
VOLL
 10
393.2808313643104157
 20
763.7344403998005191
 30
0.0
 40
1.8
  1

 50
90.0
  7
GREEKS
  0
TEXT
  5
175A
  8
BEM
 10
388.5551070410899115
 20
798.2225052390850806
 30
0.0
 40
2.5
  1

 50
90.0
 41
0.8
  7
GREEKS
  0
TEXT
  5
175B
  8
BEM
 10
393.248875595142124
 20
798.2225052390850806
 30
0.0
 40
2.5
  1

 50
90.0
 41
0.8
  7
GREEKS
  0
TEXT
  5
175C
  8
BEM
 10
398.4867194138054742
 20
798.2225052390850806
 30
0.0
 40
2.5
  1

 50
90.0
 41
0.8
  7
GREEKS
  0
TEXT
  5
175D
  8
BEM
 10
402.9919083639031214
 20
798.1495607617106316
 30
0.0
 40
1.8
  1

 50
90.0
 41
0.8
  7
GREEKS
  0
TEXT
  5
175E
  8
BEM
 10
377.4003192676777871
 20
785.4659898820995068
 30
0.0
 40
2.0
  1

 50
90.0
 41
0.8
  7
GREEKS
 72
     1
 11
377.4003192676777871
 21
785.4659898820995068
 31
0.0
  0
TEXT
  5
175F
  8
TEXT
 10
387.722595831085016
 20
1095.5667086033929536
 30
0.0
 40
2.5
  1
  
 50
90.0
  7
GREEKS
 72
     1
 11
387.722595831085016
 21
1097.828613365297997
 31
0.0
  0
TEXT
  5
1760
  8
BEM
 10
252.1637138006827001
 20
1339.6864259158749064
 30
0.0
 40
2.5
  1
 
 50
90.0
 72
     4
 11
252.1637138006827001
 21
1340.8173782968281103
 31
0.0
  0
TEXT
  5
1761
  8
VOLL
 10
360.071757576435914
 20
523.021495650556858
 30
0.0
 40
1.8
  1

 50
90.0
  7
GREEKS
  0
TEXT
  5
1762
  8
VOLL
 10
354.7796408607164835
 20
612.6876695762299505
 30
0.0
 40
1.8
  1

 50
90.0
  7
GREEKS
  0
TEXT
  5
1763
  8
TEXT
 10
349.2214053274910839
 20
944.5199377798229534
 30
0.0
 40
2.5
  1
  
 50
90.0
  7
GREEKS
 72
     1
 11
349.2214053274910839
 21
946.7818425417276558
 31
0.0
  0
TEXT
  5
1764
  8
BEM
 10
213.6625232970889101
 20
1188.6396550923050199
 30
0.0
 40
2.5
  1
 
 50
90.0
 72
     4
 11
213.6625232970889101
 21
1189.7706074732570869
 31
0.0
  0
TEXT
  5
1765
  8
BEM
 10
331.142926669555095
 20
754.3289992221544935
 30
0.0
 40
2.5
  1

 50
90.0
  7
GREEKS
  0
TEXT
  5
1766
  8
VOLL
 10
351.3261873265901727
 20
740.262806202433012
 30
0.0
 40
1.8
  1

 50
90.0
  7
GREEKS
  0
TEXT
  5
1767
  8
BEM
 10
346.6004630033697254
 20
774.7508710417176871
 30
0.0
 40
2.5
  1

 50
90.0
 41
0.8
  7
GREEKS
  0
TEXT
  5
1768
  8
BEM
 10
351.2942315574218242
 20
774.7508710417176871
 30
0.0
 40
2.5
  1

 50
90.0
 41
0.8
  7
GREEKS
  0
TEXT
  5
1769
  8
BEM
 10
356.5320753760854018
 20
774.7508710417176871
 30
0.0
 40
2.5
  1

 50
90.0
 41
0.8
  7
GREEKS
  0
TEXT
  5
176A
  8
BEM
 10
361.0372643261828784
 20
774.6779265643432382
 30
0.0
 40
1.8
  1

 50
90.0
 41
0.8
  7
GREEKS
  0
TEXT
  5
176B
  8
BEM
 10
335.4456752299577147
 20
761.9943556847319996
 30
0.0
 40
2.0
  1

 50
90.0
 41
0.8
  7
GREEKS
 72
     1
 11
335.4456752299577147
 21
761.9943556847319996
 31
0.0
  0
TEXT
  5
176C
  8
TEXT
 10
345.767951793364773
 20
1072.0950744060260149
 30
0.0
 40
2.5
  1
  
 50
90.0
  7
GREEKS
 72
     1
 11
345.767951793364773
 21
1074.3569791679299215
 31
0.0
  0
TEXT
  5
176D
  8
BEM
 10
210.2090697629625993
 20
1316.2147917185079677
 30
0.0
 40
2.5
  1
 
 50
90.0
 72
     4
 11
210.2090697629625993
 21
1317.3457440994600347
 31
0.0
  0
TEXT
  5
1772
  8
VOLL
 10
576.8401637185464779
 20
756.2258735277158621
 30
0.0
 40
1.8
  1

 50
90.0
  7
GREEKS
  0
TEXT
  5
1773
  8
VOLL
 10
571.5480470028270474
 20
845.892047453389182
 30
0.0
 40
1.8
  1

 50
90.0
  7
GREEKS
  0
TEXT
  5
1774
  8
TEXT
 10
565.9898114696015909
 20
1177.7243156569820712
 30
0.0
 40
2.5
  1
  
 50
90.0
  7
GREEKS
 72
     1
 11
565.9898114696015909
 21
1179.9862204188868873
 31
0.0
  0
TEXT
  5
1775
  8
BEM
 10
430.4309294391994172
 20
1421.8440329694640241
 30
0.0
 40
2.5
  1
 
 50
90.0
 72
     4
 11
430.4309294391994172
 21
1422.974985350416091
 31
0.0
  0
TEXT
  5
1776
  8
BEM
 10
547.9113328116657158
 20
987.5333770993134976
 30
0.0
 40
2.5
  1

 50
90.0
  7
GREEKS
  0
TEXT
  5
1777
  8
VOLL
 10
568.0945934687008503
 20
973.4671840795922435
 30
0.0
 40
1.8
  1

 50
90.0
  7
GREEKS
  0
TEXT
  5
1778
  8
BEM
 10
563.3688691454801756
 20
1007.9552489188770323
 30
0.0
 40
2.5
  1

 50
90.0
 41
0.8
  7
GREEKS
  0
TEXT
  5
1779
  8
BEM
 10
568.0626376995323881
 20
1007.9552489188770323
 30
0.0
 40
2.5
  1

 50
90.0
 41
0.8
  7
GREEKS
  0
TEXT
  5
177A
  8
BEM
 10
573.300481518195852
 20
1007.9552489188770323
 30
0.0
 40
2.5
  1

 50
90.0
 41
0.8
  7
GREEKS
  0
TEXT
  5
177B
  8
BEM
 10
577.805670468293556
 20
1007.8823044415020149
 30
0.0
 40
1.8
  1

 50
90.0
 41
0.8
  7
GREEKS
  0
TEXT
  5
177C
  8
BEM
 10
552.2140813720682218
 20
995.1987335618911175
 30
0.0
 40
2.0
  1

 50
90.0
 41
0.8
  7
GREEKS
 72
     1
 11
552.2140813720682218
 21
995.1987335618911175
 31
0.0
  0
TEXT
  5
177D
  8
TEXT
 10
562.5363579354751664
 20
1305.299452283185019
 30
0.0
 40
2.5
  1
  
 50
90.0
  7
GREEKS
 72
     1
 11
562.5363579354751664
 21
1307.5613570450900625
 31
0.0
  0
TEXT
  5
177E
  8
BEM
 10
426.9774759050731063
 20
1549.4191695956669719
 30
0.0
 40
2.5
  1
 
 50
90.0
 72
     4
 11
426.9774759050731063
 21
1550.5501219766199483
 31
0.0
  0
TEXT
  5
177F
  8
VOLL
 10
560.6430794067116494
 20
898.1839484748772975
 30
0.0
 40
1.8
  1

 50
90.0
  7
GREEKS
  0
TEXT
  5
1780
  8
TEXT
 10
555.0848438734861929
 20
1230.016216678470073
 30
0.0
 40
2.5
  1
  
 50
90.0
  7
GREEKS
 72
     1
 11
555.0848438734861929
 21
1232.2781214403748891
 31
0.0
  0
TEXT
  5
1781
  8
BEM
 10
419.5259618430839055
 20
1474.1359339909520259
 30
0.0
 40
2.5
  1
 
 50
90.0
 72
     4
 11
419.5259618430839055
 21
1475.2668863719040928
 31
0.0
  0
TEXT
  5
1782
  8
BEM
 10
540.3096685170351066
 20
1053.3235506316730152
 30
0.0
 40
2.5
  1

 50
90.0
  7
GREEKS
  0
TEXT
  5
1783
  8
VOLL
 10
560.4929291740702411
 20
1039.2573576119521022
 30
0.0
 40
1.8
  1

 50
90.0
  7
GREEKS
  0
TEXT
  5
1784
  8
BEM
 10
555.7672048508495664
 20
1073.7454224512359815
 30
0.0
 40
2.5
  1

 50
90.0
 41
0.8
  7
GREEKS
  0
TEXT
  5
1785
  8
BEM
 10
560.4609734049016652
 20
1073.7454224512359815
 30
0.0
 40
2.5
  1

 50
90.0
 41
0.8
  7
GREEKS
  0
TEXT
  5
1786
  8
BEM
 10
565.6988172235653565
 20
1073.7454224512359815
 30
0.0
 40
2.5
  1

 50
90.0
 41
0.8
  7
GREEKS
  0
TEXT
  5
1787
  8
BEM
 10
570.2040061736629468
 20
1073.6724779738619873
 30
0.0
 40
1.8
  1

 50
90.0
 41
0.8
  7
GREEKS
  0
TEXT
  5
1788
  8
BEM
 10
544.6124170774376125
 20
1060.9889070942510898
 30
0.0
 40
2.0
  1

 50
90.0
 41
0.8
  7
GREEKS
 72
     1
 11
544.6124170774376125
 21
1060.9889070942510898
 31
0.0
  0
TEXT
  5
1789
  8
TEXT
 10
554.9346936408445572
 20
1371.0896258155439682
 30
0.0
 40
2.5
  1
  
 50
90.0
  7
GREEKS
 72
     1
 11
554.9346936408445572
 21
1373.3515305774490116
 31
0.0
  0
TEXT
  5
178A
  8
BEM
 10
419.3758116104423834
 20
1615.209343128025921
 30
0.0
 40
2.5
  1
 
 50
90.0
 72
     4
 11
419.3758116104423834
 21
1616.3402955089788975
 31
0.0
  0
TEXT
  5
178B
  8
VOLL
 10
572.458788932460152
 20
834.1617370481209264
 30
0.0
 40
1.8
  1

 50
90.0
  7
GREEKS
  0
TEXT
  5
178C
  8
TEXT
 10
566.9005533992345818
 20
1165.994005251714043
 30
0.0
 40
2.5
  1
  
 50
90.0
  7
GREEKS
 72
     1
 11
566.9005533992345818
 21
1168.2559100136179495
 31
0.0
  0
TEXT
  5
178D
  8
BEM
 10
431.341671368832408
 20
1410.1137225641959958
 30
0.0
 40
2.5
  1
 
 50
90.0
 72
     4
 11
431.341671368832408
 21
1411.2446749451480628
 31
0.0
  0
TEXT
  5
178E
  8
BEM
 10
532.3055582338745353
 20
999.5073501277707919
 30
0.0
 40
2.5
  1

 50
90.0
  7
GREEKS
  0
TEXT
  5
178F
  8
VOLL
 10
552.4888188909096698
 20
985.4411571080493104
 30
0.0
 40
1.8
  1

 50
90.0
  7
GREEKS
  0
TEXT
  5
1790
  8
BEM
 10
547.7630945676891088
 20
1019.9292219473339856
 30
0.0
 40
2.5
  1

 50
90.0
 41
0.8
  7
GREEKS
  0
TEXT
  5
1791
  8
BEM
 10
552.4568631217412076
 20
1019.9292219473339856
 30
0.0
 40
2.5
  1

 50
90.0
 41
0.8
  7
GREEKS
  0
TEXT
  5
1792
  8
BEM
 10
557.6947069404045578
 20
1019.9292219473339856
 30
0.0
 40
2.5
  1

 50
90.0
 41
0.8
  7
GREEKS
  0
TEXT
  5
1793
  8
BEM
 10
562.1998958905022619
 20
1019.8562774699589681
 30
0.0
 40
1.8
  1

 50
90.0
 41
0.8
  7
GREEKS
  0
TEXT
  5
1794
  8
BEM
 10
536.6083067942770413
 20
1007.172706590347957
 30
0.0
 40
2.0
  1

 50
90.0
 41
0.8
  7
GREEKS
 72
     1
 11
536.6083067942770413
 21
1007.172706590347957
 31
0.0
  0
TEXT
  5
1795
  8
TEXT
 10
546.9305833576839859
 20
1317.2734253116420859
 30
0.0
 40
2.5
  1
  
 50
90.0
  7
GREEKS
 72
     1
 11
546.9305833576839859
 21
1319.535330073546902
 31
0.0
  0
TEXT
  5
1796
  8
BEM
 10
411.3717013272819258
 20
1561.3931426241240388
 30
0.0
 40
2.5
  1
 
 50
90.0
 72
     4
 11
411.3717013272819258
 21
1562.5240950050770152
 31
0.0
  0
TEXT
  5
1797
  8
VOLL
 10
567.3403455549577075
 20
1161.7433133012320923
 30
0.0
 40
1.8
  1

 50
90.0
  7
GREEKS
  0
TEXT
  5
1798
  8
VOLL
 10
562.048228839238277
 20
1251.4094872269049574
 30
0.0
 40
1.8
  1

 50
90.0
  7
GREEKS
  0
TEXT
  5
1799
  8
TEXT
 10
556.4899933060128205
 20
1583.2417554304979603
 30
0.0
 40
2.5
  1
  
 50
90.0
  7
GREEKS
 72
     1
 11
556.4899933060128205
 21
1585.5036601924030037
 31
0.0
  0
TEXT
  5
179A
  8
BEM
 10
420.9311112756105899
 20
1827.3614727429799132
 30
0.0
 40
2.5
  1
 
 50
90.0
 72
     4
 11
420.9311112756105899
 21
1828.4924251239328896
 31
0.0
  0
TEXT
  5
179B
  8
BEM
 10
538.4115146480769454
 20
1393.0508168728290457
 30
0.0
 40
2.5
  1

 50
90.0
  7
GREEKS
  0
TEXT
  5
179C
  8
VOLL
 10
558.5947753051120799
 20
1378.9846238531079052
 30
0.0
 40
1.8
  1

 50
90.0
  7
GREEKS
  0
TEXT
  5
179D
  8
BEM
 10
553.8690509818914052
 20
1413.4726886923929214
 30
0.0
 40
2.5
  1

 50
90.0
 41
0.8
  7
GREEKS
  0
TEXT
  5
179E
  8
BEM
 10
558.562819535943504
 20
1413.4726886923929214
 30
0.0
 40
2.5
  1

 50
90.0
 41
0.8
  7
GREEKS
  0
TEXT
  5
179F
  8
BEM
 10
563.8006633546071953
 20
1413.4726886923929214
 30
0.0
 40
2.5
  1

 50
90.0
 41
0.8
  7
GREEKS
  0
TEXT
  5
17A0
  8
BEM
 10
568.3058523047047856
 20
1413.3997442150189272
 30
0.0
 40
1.8
  1

 50
90.0
 41
0.8
  7
GREEKS
  0
TEXT
  5
17A1
  8
BEM
 10
542.7142632084794514
 20
1400.7161733354068929
 30
0.0
 40
2.0
  1

 50
90.0
 41
0.8
  7
GREEKS
 72
     1
 11
542.7142632084794514
 21
1400.7161733354068929
 31
0.0
  0
TEXT
  5
17A2
  8
TEXT
 10
553.0365397718865097
 20
1710.8168920567009081
 30
0.0
 40
2.5
  1
  
 50
90.0
  7
GREEKS
 72
     1
 11
553.0365397718865097
 21
1713.0787968186059516
 31
0.0
  0
TEXT
  5
17A3
  8
BEM
 10
417.4776577414842791
 20
1954.9366093691839978
 30
0.0
 40
2.5
  1
 
 50
90.0
 72
     4
 11
417.4776577414842791
 21
1956.0675617501360648
 31
0.0
  0
TEXT
  5
17A4
  8
VOLL
 10
590.2894184474582744
 20
1169.6566279930159453
 30
0.0
 40
1.8
  1

 50
90.0
  7
GREEKS
  0
TEXT
  5
17A5
  8
VOLL
 10
584.997301731738844
 20
1259.3228019186890378
 30
0.0
 40
1.8
  1

 50
90.0
  7
GREEKS
  0
TEXT
  5
17A6
  8
TEXT
 10
579.4390661985133875
 20
1591.1550701222820408
 30
0.0
 40
2.5
  1
  
 50
90.0
  7
GREEKS
 72
     1
 11
579.4390661985133875
 21
1593.4169748841859473
 31
0.0
  0
TEXT
  5
17A7
  8
BEM
 10
443.8801841681112137
 20
1835.2747874347639936
 30
0.0
 40
2.5
  1
 
 50
90.0
 72
     4
 11
443.8801841681112137
 21
1836.4057398157160605
 31
0.0
  0
TEXT
  5
17A8
  8
BEM
 10
561.3605875405775123
 20
1400.9641315646128987
 30
0.0
 40
2.5
  1

 50
90.0
  7
GREEKS
  0
TEXT
  5
17A9
  8
VOLL
 10
581.5438481976126468
 20
1386.8979385448919857
 30
0.0
 40
1.8
  1

 50
90.0
  7
GREEKS
  0
TEXT
  5
17AA
  8
BEM
 10
576.8181238743919721
 20
1421.3860033841760924
 30
0.0
 40
2.5
  1

 50
90.0
 41
0.8
  7
GREEKS
  0
TEXT
  5
17AB
  8
BEM
 10
581.5118924284440709
 20
1421.3860033841760924
 30
0.0
 40
2.5
  1

 50
90.0
 41
0.8
  7
GREEKS
  0
TEXT
  5
17AC
  8
BEM
 10
586.7497362471076485
 20
1421.3860033841760924
 30
0.0
 40
2.5
  1

 50
90.0
 41
0.8
  7
GREEKS
  0
TEXT
  5
17AD
  8
BEM
 10
591.2549251972053526
 20
1421.3130589068020981
 30
0.0
 40
1.8
  1

 50
90.0
 41
0.8
  7
GREEKS
  0
TEXT
  5
17AE
  8
BEM
 10
565.6633361009800183
 20
1408.6294880271909733
 30
0.0
 40
2.0
  1

 50
90.0
 41
0.8
  7
GREEKS
 72
     1
 11
565.6633361009800183
 21
1408.6294880271909733
 31
0.0
  0
TEXT
  5
17AF
  8
TEXT
 10
575.9856126643869629
 20
1718.7302067484849886
 30
0.0
 40
2.5
  1
  
 50
90.0
  7
GREEKS
 72
     1
 11
575.9856126643869629
 21
1720.9921115103888951
 31
0.0
  0
TEXT
  5
17B0
  8
BEM
 10
440.4267306339849029
 20
1962.8499240609660319
 30
0.0
 40
2.5
  1
 
 50
90.0
 72
     4
 11
440.4267306339849029
 21
1963.9808764419190084
 31
0.0
  0
TEXT
  5
17B1
  8
VOLL
 10
574.0923341356234459
 20
1311.6147029401770396
 30
0.0
 40
1.8
  1

 50
90.0
  7
GREEKS
  0
TEXT
  5
17B2
  8
TEXT
 10
568.5340986023978758
 20
1643.4469711437700425
 30
0.0
 40
2.5
  1
  
 50
90.0
  7
GREEKS
 72
     1
 11
568.5340986023978758
 21
1645.7088759056739491
 31
0.0
  0
TEXT
  5
17B3
  8
BEM
 10
432.9752165719955883
 20
1887.5666884562519954
 30
0.0
 40
2.5
  1
 
 50
90.0
 72
     4
 11
432.9752165719955883
 21
1888.6976408372040623
 31
0.0
  0
TEXT
  5
17B4
  8
BEM
 10
553.7589232459469031
 20
1466.7543050969729848
 30
0.0
 40
2.5
  1

 50
90.0
  7
GREEKS
  0
TEXT
  5
17B5
  8
VOLL
 10
573.9421839029820376
 20
1452.6881120772509348
 30
0.0
 40
1.8
  1

 50
90.0
  7
GREEKS
  0
TEXT
  5
17B6
  8
BEM
 10
569.2164595797613629
 20
1487.176176916535951
 30
0.0
 40
2.5
  1

 50
90.0
 41
0.8
  7
GREEKS
  0
TEXT
  5
17B7
  8
BEM
 10
573.9102281338134617
 20
1487.176176916535951
 30
0.0
 40
2.5
  1

 50
90.0
 41
0.8
  7
GREEKS
  0
TEXT
  5
17B8
  8
BEM
 10
579.148071952477153
 20
1487.176176916535951
 30
0.0
 40
2.5
  1

 50
90.0
 41
0.8
  7
GREEKS
  0
TEXT
  5
17B9
  8
BEM
 10
583.6532609025747433
 20
1487.1032324391610473
 30
0.0
 40
1.8
  1

 50
90.0
 41
0.8
  7
GREEKS
  0
TEXT
  5
17BA
  8
BEM
 10
558.0616718063494091
 20
1474.4196615595499225
 30
0.0
 40
2.0
  1

 50
90.0
 41
0.8
  7
GREEKS
 72
     1
 11
558.0616718063494091
 21
1474.4196615595499225
 31
0.0
  0
TEXT
  5
17BB
  8
TEXT
 10
568.3839483697565811
 20
1784.5203802808439377
 30
0.0
 40
2.5
  1
  
 50
90.0
  7
GREEKS
 72
     1
 11
568.3839483697565811
 21
1786.7822850427489811
 31
0.0
  0
TEXT
  5
17BC
  8
BEM
 10
432.8250663393542936
 20
2028.6400975933258906
 30
0.0
 40
2.5
  1
 
 50
90.0
 72
     4
 11
432.8250663393542936
 21
2029.7710499742790944
 31
0.0
  0
TEXT
  5
17BD
  8
VOLL
 10
379.4301046558175017
 20
942.2318432532927091
 30
0.0
 40
1.8
  1

 50
90.0
  7
GREEKS
  0
TEXT
  5
17BE
  8
VOLL
 10
374.1379879400981849
 20
1031.898017178966029
 30
0.0
 40
1.8
  1

 50
90.0
  7
GREEKS
  0
TEXT
  5
17BF
  8
TEXT
 10
368.5797524068726716
 20
1363.7302853825590319
 30
0.0
 40
2.5
  1
  
 50
90.0
  7
GREEKS
 72
     1
 11
368.5797524068726716
 21
1365.9921901444640753
 31
0.0
  0
TEXT
  5
17C0
  8
BEM
 10
233.0208703764704978
 20
1607.8500026950409847
 30
0.0
 40
2.5
  1
 
 50
90.0
 72
     4
 11
233.0208703764704978
 21
1608.9809550759930517
 31
0.0
  0
TEXT
  5
17C1
  8
BEM
 10
350.5012737489367964
 20
1173.5393468248898898
 30
0.0
 40
2.5
  1

 50
90.0
  7
GREEKS
  0
TEXT
  5
17C2
  8
VOLL
 10
370.6845344059718741
 20
1159.4731538051689768
 30
0.0
 40
1.8
  1

 50
90.0
  7
GREEKS
  0
TEXT
  5
17C3
  8
BEM
 10
365.9588100827514268
 20
1193.961218644453993
 30
0.0
 40
2.5
  1

 50
90.0
 41
0.8
  7
GREEKS
  0
TEXT
  5
17C4
  8
BEM
 10
370.6525786368035256
 20
1193.961218644453993
 30
0.0
 40
2.5
  1

 50
90.0
 41
0.8
  7
GREEKS
  0
TEXT
  5
17C5
  8
BEM
 10
375.8904224554669895
 20
1193.961218644453993
 30
0.0
 40
2.5
  1

 50
90.0
 41
0.8
  7
GREEKS
  0
TEXT
  5
17C6
  8
BEM
 10
380.3956114055646935
 20
1193.8882741670790892
 30
0.0
 40
1.8
  1

 50
90.0
 41
0.8
  7
GREEKS
  0
TEXT
  5
17C7
  8
BEM
 10
354.8040223093394161
 20
1181.2047032874679644
 30
0.0
 40
2.0
  1

 50
90.0
 41
0.8
  7
GREEKS
 72
     1
 11
354.8040223093394161
 21
1181.2047032874679644
 31
0.0
  0
TEXT
  5
17C8
  8
TEXT
 10
365.1262988727464176
 20
1491.3054220087610702
 30
0.0
 40
2.5
  1
  
 50
90.0
  7
GREEKS
 72
     1
 11
365.1262988727464176
 21
1493.5673267706661136
 31
0.0
  0
TEXT
  5
17C9
  8
BEM
 10
229.567416842344187
 20
1735.4251393212439325
 30
0.0
 40
2.5
  1
 
 50
90.0
 72
     4
 11
229.567416842344187
 21
1736.5560917021959995
 31
0.0
  0
TEXT
  5
17CA
  8
VOLL
 10
363.2330203439829006
 20
1084.1899182004540307
 30
0.0
 40
1.8
  1

 50
90.0
  7
GREEKS
  0
TEXT
  5
17CB
  8
TEXT
 10
357.6747848107572736
 20
1416.0221864040470336
 30
0.0
 40
2.5
  1
  
 50
90.0
  7
GREEKS
 72
     1
 11
357.6747848107572736
 21
1418.2840911659520771
 31
0.0
  0
TEXT
  5
17CC
  8
BEM
 10
222.1159027803550998
 20
1660.1419037165289865
 30
0.0
 40
2.5
  1
 
 50
90.0
 72
     4
 11
222.1159027803550998
 21
1661.2728560974810534
 31
0.0
  0
TEXT
  5
17CD
  8
BEM
 10
342.8996094543061872
 20
1239.3295203572499759
 30
0.0
 40
2.5
  1

 50
90.0
  7
GREEKS
  0
TEXT
  5
17CE
  8
VOLL
 10
363.0828701113413786
 20
1225.2633273375279259
 30
0.0
 40
1.8
  1

 50
90.0
  7
GREEKS
  0
TEXT
  5
17CF
  8
BEM
 10
358.3571457881208175
 20
1259.7513921768129421
 30
0.0
 40
2.5
  1

 50
90.0
 41
0.8
  7
GREEKS
  0
TEXT
  5
17D0
  8
BEM
 10
363.0509143421729163
 20
1259.7513921768129421
 30
0.0
 40
2.5
  1

 50
90.0
 41
0.8
  7
GREEKS
  0
TEXT
  5
17D1
  8
BEM
 10
368.288758160836494
 20
1259.7513921768129421
 30
0.0
 40
2.5
  1

 50
90.0
 41
0.8
  7
GREEKS
  0
TEXT
  5
17D2
  8
BEM
 10
372.7939471109340275
 20
1259.6784476994389479
 30
0.0
 40
1.8
  1

 50
90.0
 41
0.8
  7
GREEKS
  0
TEXT
  5
17D3
  8
BEM
 10
347.2023580147088069
 20
1246.9948768198280504
 30
0.0
 40
2.0
  1

 50
90.0
 41
0.8
  7
GREEKS
 72
     1
 11
347.2023580147088069
 21
1246.9948768198280504
 31
0.0
  0
TEXT
  5
17D4
  8
TEXT
 10
357.5246345781158084
 20
1557.0955955411209288
 30
0.0
 40
2.5
  1
  
 50
90.0
  7
GREEKS
 72
     1
 11
357.5246345781158084
 21
1559.3575003030259722
 31
0.0
  0
TEXT
  5
17D5
  8
BEM
 10
221.9657525477136062
 20
1801.2153128536040185
 30
0.0
 40
2.5
  1
 
 50
90.0
 72
     4
 11
221.9657525477136062
 21
1802.3462652345560855
 31
0.0
  0
TEXT
  5
17D6
  8
VOLL
 10
375.0487298697314031
 20
1020.1677067736980007
 30
0.0
 40
1.8
  1

 50
90.0
  7
GREEKS
  0
TEXT
  5
17D7
  8
TEXT
 10
369.4904943365057761
 20
1351.9999749772910036
 30
0.0
 40
2.5
  1
  
 50
90.0
  7
GREEKS
 72
     1
 11
369.4904943365057761
 21
1354.2618797391949101
 31
0.0
  0
TEXT
  5
17D8
  8
BEM
 10
233.9316123061034887
 20
1596.1196922897729564
 30
0.0
 40
2.5
  1
 
 50
90.0
 72
     4
 11
233.9316123061034887
 21
1597.2506446707250234
 31
0.0
  0
TEXT
  5
17D9
  8
BEM
 10
334.8954991711456159
 20
1185.5133198533469567
 30
0.0
 40
2.5
  1

 50
90.0
  7
GREEKS
  0
TEXT
  5
17DA
  8
VOLL
 10
355.0787598281808073
 20
1171.4471268336260437
 30
0.0
 40
1.8
  1

 50
90.0
  7
GREEKS
  0
TEXT
  5
17DB
  8
BEM
 10
350.3530355049601894
 20
1205.9351916729110599
 30
0.0
 40
2.5
  1

 50
90.0
 41
0.8
  7
GREEKS
  0
TEXT
  5
17DC
  8
BEM
 10
355.0468040590122882
 20
1205.9351916729110599
 30
0.0
 40
2.5
  1

 50
90.0
 41
0.8
  7
GREEKS
  0
TEXT
  5
17DD
  8
BEM
 10
360.284647877675809
 20
1205.9351916729110599
 30
0.0
 40
2.5
  1

 50
90.0
 41
0.8
  7
GREEKS
  0
TEXT
  5
17DE
  8
BEM
 10
364.7898368277735131
 20
1205.8622471955359288
 30
0.0
 40
1.8
  1

 50
90.0
 41
0.8
  7
GREEKS
  0
TEXT
  5
17DF
  8
BEM
 10
339.1982477315481219
 20
1193.1786763159250313
 30
0.0
 40
2.0
  1

 50
90.0
 41
0.8
  7
GREEKS
 72
     1
 11
339.1982477315481219
 21
1193.1786763159250313
 31
0.0
  0
TEXT
  5
17E0
  8
TEXT
 10
349.5205242949551803
 20
1503.2793950372190466
 30
0.0
 40
2.5
  1
  
 50
90.0
  7
GREEKS
 72
     1
 11
349.5205242949551803
 21
1505.54129979912409
 31
0.0
  0
TEXT
  5
17E1
  8
BEM
 10
213.9616422645530065
 20
1747.3991123497009994
 30
0.0
 40
2.5
  1
 
 50
90.0
 72
     4
 11
213.9616422645530065
 21
1748.5300647306530664
 31
0.0
  0
TEXT
  5
17E2
  8
VOLL
 10
401.0862016643815195
 20
948.6331961858332988
 30
0.0
 40
1.8
  1

 50
90.0
  7
GREEKS
  0
TEXT
  5
17E3
  8
VOLL
 10
395.7940849486622028
 20
1038.2993701115060503
 30
0.0
 40
1.8
  1

 50
90.0
  7
GREEKS
  0
TEXT
  5
17E4
  8
TEXT
 10
390.2358494154365758
 20
1370.1316383150990532
 30
0.0
 40
2.5
  1
  
 50
90.0
  7
GREEKS
 72
     1
 11
390.2358494154365758
 21
1372.3935430770040966
 31
0.0
  0
TEXT
  5
17E5
  8
BEM
 10
254.6769673850344873
 20
1614.251355627581006
 30
0.0
 40
2.5
  1
 
 50
90.0
 72
     4
 11
254.6769673850344873
 21
1615.3823080085339825
 31
0.0
  0
TEXT
  5
17E6
  8
BEM
 10
372.1573707575008143
 20
1179.9406997574310481
 30
0.0
 40
2.5
  1

 50
90.0
  7
GREEKS
  0
TEXT
  5
17E7
  8
VOLL
 10
392.340631414535892
 20
1165.8745067377089981
 30
0.0
 40
1.8
  1

 50
90.0
  7
GREEKS
  0
TEXT
  5
17E8
  8
BEM
 10
387.6149070913152741
 20
1200.3625715769940143
 30
0.0
 40
2.5
  1

 50
90.0
 41
0.8
  7
GREEKS
  0
TEXT
  5
17E9
  8
BEM
 10
392.3086756453673729
 20
1200.3625715769940143
 30
0.0
 40
2.5
  1

 50
90.0
 41
0.8
  7
GREEKS
  0
TEXT
  5
17EA
  8
BEM
 10
397.5465194640308937
 20
1200.3625715769940143
 30
0.0
 40
2.5
  1

 50
90.0
 41
0.8
  7
GREEKS
  0
TEXT
  5
17EB
  8
BEM
 10
402.051708414128484
 20
1200.2896270996200201
 30
0.0
 40
1.8
  1

 50
90.0
 41
0.8
  7
GREEKS
  0
TEXT
  5
17EC
  8
BEM
 10
376.4601193179033203
 20
1187.6060562200079858
 30
0.0
 40
2.0
  1

 50
90.0
 41
0.8
  7
GREEKS
 72
     1
 11
376.4601193179033203
 21
1187.6060562200079858
 31
0.0
  0
TEXT
  5
17ED
  8
TEXT
 10
386.7823958813103786
 20
1497.706774941302001
 30
0.0
 40
2.5
  1
  
 50
90.0
  7
GREEKS
 72
     1
 11
386.7823958813103786
 21
1499.9686797032070444
 31
0.0
  0
TEXT
  5
17EE
  8
BEM
 10
251.2235138509082049
 20
1741.8264922537850907
 30
0.0
 40
2.5
  1
 
 50
90.0
 72
     4
 11
251.2235138509082049
 21
1742.9574446347369303
 31
0.0
  0
TEXT
  5
17EF
  8
VOLL
 10
384.8891173525468048
 20
1090.5912711329949616
 30
0.0
 40
1.8
  1

 50
90.0
  7
GREEKS
  0
TEXT
  5
17F0
  8
TEXT
 10
379.3308818193211778
 20
1422.4235393365879645
 30
0.0
 40
2.5
  1
  
 50
90.0
  7
GREEKS
 72
     1
 11
379.3308818193211778
 21
1424.6854440984920984
 31
0.0
  0
TEXT
  5
17F1
  8
BEM
 10
243.771999788919004
 20
1666.5432566490699173
 30
0.0
 40
2.5
  1
 
 50
90.0
 72
     4
 11
243.771999788919004
 21
1667.6742090300219843
 31
0.0
  0
TEXT
  5
17F2
  8
BEM
 10
364.5557064628702051
 20
1245.7308732897909067
 30
0.0
 40
2.5
  1

 50
90.0
  7
GREEKS
  0
TEXT
  5
17F3
  8
VOLL
 10
384.7389671199052827
 20
1231.6646802700690841
 30
0.0
 40
1.8
  1

 50
90.0
  7
GREEKS
  0
TEXT
  5
17F4
  8
BEM
 10
380.0132427966847217
 20
1266.1527451093541004
 30
0.0
 40
2.5
  1

 50
90.0
 41
0.8
  7
GREEKS
  0
TEXT
  5
17F5
  8
BEM
 10
384.7070113507368774
 20
1266.1527451093541004
 30
0.0
 40
2.5
  1

 50
90.0
 41
0.8
  7
GREEKS
  0
TEXT
  5
17F6
  8
BEM
 10
389.9448551694003982
 20
1266.1527451093541004
 30
0.0
 40
2.5
  1

 50
90.0
 41
0.8
  7
GREEKS
  0
TEXT
  5
17F7
  8
BEM
 10
394.4500441194979885
 20
1266.0798006319801061
 30
0.0
 40
1.8
  1

 50
90.0
 41
0.8
  7
GREEKS
  0
TEXT
  5
17F8
  8
BEM
 10
368.8584550232727111
 20
1253.3962297523680718
 30
0.0
 40
2.0
  1

 50
90.0
 41
0.8
  7
GREEKS
 72
     1
 11
368.8584550232727111
 21
1253.3962297523680718
 31
0.0
  0
TEXT
  5
17F9
  8
TEXT
 10
379.1807315866798263
 20
1563.4969484736620871
 30
0.0
 40
2.5
  1
  
 50
90.0
  7
GREEKS
 72
     1
 11
379.1807315866798263
 21
1565.7588532355669031
 31
0.0
  0
TEXT
  5
17FA
  8
BEM
 10
243.6218495562775956
 20
1807.6166657861440399
 30
0.0
 40
2.5
  1
 
 50
90.0
 72
     4
 11
243.6218495562775956
 21
1808.7476181670970163
 31
0.0
  0
TEXT
  5
17FB
  8
VOLL
 10
396.7048268782953073
 20
1026.569059706238022
 30
0.0
 40
1.8
  1

 50
90.0
  7
GREEKS
  0
TEXT
  5
17FC
  8
TEXT
 10
391.1465913450696803
 20
1358.401327909831025
 30
0.0
 40
2.5
  1
  
 50
90.0
  7
GREEKS
 72
     1
 11
391.1465913450696803
 21
1360.6632326717360684
 31
0.0
  0
TEXT
  5
17FD
  8
BEM
 10
255.5877093146675065
 20
1602.5210452223138873
 30
0.0
 40
2.5
  1
 
 50
90.0
 72
     4
 11
255.5877093146675065
 21
1603.6519976032659542
 31
0.0
  0
TEXT
  5
17FE
  8
BEM
 10
356.551596179709577
 20
1191.9146727858878876
 30
0.0
 40
2.5
  1

 50
90.0
  7
GREEKS
  0
TEXT
  5
17FF
  8
VOLL
 10
376.7348568367447115
 20
1177.8484797661669745
 30
0.0
 40
1.8
  1

 50
90.0
  7
GREEKS
  0
TEXT
  5
1800
  8
BEM
 10
372.0091325135240936
 20
1212.3365446054519907
 30
0.0
 40
2.5
  1

 50
90.0
 41
0.8
  7
GREEKS
  0
TEXT
  5
1801
  8
BEM
 10
376.7029010675761924
 20
1212.3365446054519907
 30
0.0
 40
2.5
  1

 50
90.0
 41
0.8
  7
GREEKS
  0
TEXT
  5
1802
  8
BEM
 10
381.9407448862398269
 20
1212.3365446054519907
 30
0.0
 40
2.5
  1

 50
90.0
 41
0.8
  7
GREEKS
  0
TEXT
  5
1803
  8
BEM
 10
386.4459338363374172
 20
1212.263600128077087
 30
0.0
 40
1.8
  1

 50
90.0
 41
0.8
  7
GREEKS
  0
TEXT
  5
1804
  8
BEM
 10
360.8543447401120829
 20
1199.5800292484659622
 30
0.0
 40
2.0
  1

 50
90.0
 41
0.8
  7
GREEKS
 72
     1
 11
360.8543447401120829
 21
1199.5800292484659622
 31
0.0
  0
TEXT
  5
1805
  8
TEXT
 10
371.1766213035191981
 20
1509.6807479697599774
 30
0.0
 40
2.5
  1
  
 50
90.0
  7
GREEKS
 72
     1
 11
371.1766213035191981
 21
1511.9426527316641113
 31
0.0
  0
TEXT
  5
1806
  8
BEM
 10
235.6177392731169107
 20
1753.8004652822419303
 30
0.0
 40
2.5
  1
 
 50
90.0
 72
     4
 11
235.6177392731169107
 21
1754.9314176631939972
 31
0.0
  0
TEXT
  5
1807
  8
VOLL
 10
416.2954166113336214
 20
1304.9701985619849438
 30
0.0
 40
1.8
  1

 50
90.0
  7
GREEKS
  0
TEXT
  5
1808
  8
TEXT
 10
410.7371810781079944
 20
1636.8024667655779467
 30
0.0
 40
2.5
  1
  
 50
90.0
  7
GREEKS
 72
     1
 11
410.7371810781079944
 21
1639.0643715274829901
 31
0.0
  0
TEXT
  5
1809
  8
BEM
 10
275.1782990477058775
 20
1880.9221840780598995
 30
0.0
 40
2.5
  1
 
 50
90.0
 72
     4
 11
275.1782990477058775
 21
1882.0531364590119665
 31
0.0
  0
TEXT
  5
180A
  8
VOLL
 10
410.7398609762623778
 20
1462.5049156391460201
 30
0.0
 40
1.8
  1

 50
90.0
  7
GREEKS
  0
TEXT
  5
180B
  8
BEM
 10
406.0141366530417031
 20
1496.9929804784310363
 30
0.0
 40
2.5
  1

 50
90.0
 41
0.8
  7
GREEKS
  0
TEXT
  5
180C
  8
BEM
 10
410.7079052070939724
 20
1496.9929804784310363
 30
0.0
 40
2.5
  1

 50
90.0
 41
0.8
  7
GREEKS
  0
TEXT
  5
180D
  8
BEM
 10
415.9457490257573795
 20
1496.9929804784310363
 30
0.0
 40
2.5
  1

 50
90.0
 41
0.8
  7
GREEKS
  0
TEXT
  5
180E
  8
BEM
 10
420.4509379758550267
 20
1496.9200360010570421
 30
0.0
 40
1.8
  1

 50
90.0
 41
0.8
  7
GREEKS
  0
TEXT
  5
180F
  8
TEXT
 10
405.1816254430368076
 20
1794.337183842739023
 30
0.0
 40
2.5
  1
  
 50
90.0
  7
GREEKS
 72
     1
 11
405.1816254430368076
 21
1796.5990886046440664
 31
0.0
  0
TEXT
  5
1810
  8
BEM
 10
269.622743412634577
 20
2038.4569011552221127
 30
0.0
 40
2.5
  1
 
 50
90.0
 72
     4
 11
269.622743412634577
 21
2039.5878535361739523
 31
0.0
  0
TEXT
  5
1811
  8
VOLL
 10
350.4206368155935252
 20
1049.4545337835290866
 30
0.0
 40
1.8
  1

 50
90.0
  7
GREEKS
  0
TEXT
  5
1812
  8
TEXT
 10
344.8624012823680118
 20
1381.2868019871220895
 30
0.0
 40
2.5
  1
  
 50
90.0
  7
GREEKS
 72
     1
 11
344.8624012823680118
 21
1383.548706749025996
 31
0.0
  0
TEXT
  5
1813
  8
BEM
 10
209.3035192519656107
 20
1625.4065192996040423
 30
0.0
 40
2.5
  1
 
 50
90.0
 72
     4
 11
209.3035192519656107
 21
1626.5374716805561093
 31
0.0
  0
TEXT
  5
1814
  8
BEM
 10
337.3994396202156736
 20
1487.5514094101349656
 30
0.0
 40
2.5
  1

 50
90.0
  7
GREEKS
  0
TEXT
  5
1815
  8
BEM
 10
352.3378874725358969
 20
1508.1131954698469144
 30
0.0
 40
2.5
  1

 50
90.0
 41
0.8
  7
GREEKS
  0
TEXT
  5
1816
  8
BEM
 10
362.4163375372489782
 20
1507.9738654515610961
 30
0.0
 40
2.5
  1

 50
90.0
 41
0.8
  7
GREEKS
  0
TEXT
  5
1817
  8
BEM
 10
357.4705546009333261
 20
1508.027125335323035
 30
0.0
 40
2.5
  1

 50
90.0
 41
0.8
  7
GREEKS
  0
TEXT
  5
1818
  8
BEM
 10
367.5111251768889815
 20
1508.0696433732189234
 30
0.0
 40
1.8
  1

 50
90.0
 41
0.8
  7
GREEKS
  0
TEXT
  5
1819
  8
BEM
 10
342.072780689720787
 20
1495.497328129637026
 30
0.0
 40
2.0
  1

 50
90.0
 41
0.8
  7
GREEKS
 72
     1
 11
342.072780689720787
 21
1495.497328129637026
 31
0.0
  0
TEXT
  5
181A
  8
VOLL
 10
356.1094020499789963
 20
1228.6924676543410442
 30
0.0
 40
1.8
  1

 50
90.0
  7
GREEKS
  0
TEXT
  5
181B
  8
TEXT
 10
350.5511665167534829
 20
1560.5247358579340471
 30
0.0
 40
2.5
  1
  
 50
90.0
  7
GREEKS
 72
     1
 11
350.5511665167534829
 21
1562.7866406198390905
 31
0.0
  0
TEXT
  5
181C
  8
BEM
 10
214.9922844863511955
 20
1804.6444531704159999
 30
0.0
 40
2.5
  1
 
 50
90.0
 72
     4
 11
214.9922844863511955
 21
1805.7754055513689764
 31
0.0
  0
TEXT
  5
181D
  8
BEM
 10
293.1704759492054109
 20
1343.181486032508019
 30
0.0
 40
2.5
  1

 50
90.0
  7
GREEKS
  0
TEXT
  5
181E
  8
VOLL
 10
313.3537366062404885
 20
1329.1152930127871059
 30
0.0
 40
1.8
  1

 50
90.0
  7
GREEKS
  0
TEXT
  5
181F
  8
BEM
 10
308.6280122830199275
 20
1363.6033578520718947
 30
0.0
 40
2.5
  1

 50
90.0
 41
0.8
  7
GREEKS
  0
TEXT
  5
1820
  8
BEM
 10
313.3217808370720263
 20
1363.6033578520718947
 30
0.0
 40
2.5
  1

 50
90.0
 41
0.8
  7
GREEKS
  0
TEXT
  5
1821
  8
BEM
 10
318.5596246557356039
 20
1363.6033578520718947
 30
0.0
 40
2.5
  1

 50
90.0
 41
0.8
  7
GREEKS
  0
TEXT
  5
1822
  8
BEM
 10
323.0648136058330806
 20
1363.530413374696991
 30
0.0
 40
1.8
  1

 50
90.0
 41
0.8
  7
GREEKS
  0
TEXT
  5
1823
  8
BEM
 10
297.4732245096078032
 20
1350.8468424950860935
 30
0.0
 40
2.0
  1

 50
90.0
 41
0.8
  7
GREEKS
 72
     1
 11
297.4732245096078032
 21
1350.8468424950860935
 31
0.0
  0
TEXT
  5
1824
  8
TEXT
 10
307.7955010730149183
 20
1660.9475612163801088
 30
0.0
 40
2.5
  1
  
 50
90.0
  7
GREEKS
 72
     1
 11
307.7955010730149183
 21
1663.2094659782849249
 31
0.0
  0
TEXT
  5
1825
  8
BEM
 10
172.2366190426126877
 20
1905.0672785288620616
 30
0.0
 40
2.5
  1
 
 50
90.0
 72
     4
 11
172.2366190426126877
 21
1906.1982309098139012
 31
0.0
  0
TEXT
  5
1826
  8
VOLL
 10
396.6418543449757976
 20
1037.3630858636720404
 30
0.0
 40
1.8
  1

 50
90.0
  7
GREEKS
  0
TEXT
  5
1827
  8
VOLL
 10
391.3497376292565946
 20
1127.0292597893449056
 30
0.0
 40
1.8
  1

 50
90.0
  7
GREEKS
  0
TEXT
  5
1828
  8
TEXT
 10
385.7915020960310244
 20
1458.8615279929390454
 30
0.0
 40
2.5
  1
  
 50
90.0
  7
GREEKS
 72
     1
 11
385.7915020960310244
 21
1461.1234327548429519
 31
0.0
  0
TEXT
  5
1829
  8
BEM
 10
250.2326200656287938
 20
1702.9812453054200887
 30
0.0
 40
2.5
  1
 
 50
90.0
 72
     4
 11
250.2326200656287938
 21
1704.1121976863730652
 31
0.0
  0
TEXT
  5
182A
  8
BEM
 10
367.7130234380950924
 20
1268.6705894352699033
 30
0.0
 40
2.5
  1

 50
90.0
  7
GREEKS
  0
TEXT
  5
182B
  8
VOLL
 10
387.8962840951302269
 20
1254.6043964155489903
 30
0.0
 40
1.8
  1

 50
90.0
  7
GREEKS
  0
TEXT
  5
182C
  8
BEM
 10
383.1705597719097227
 20
1289.092461254833097
 30
0.0
 40
2.5
  1

 50
90.0
 41
0.8
  7
GREEKS
  0
TEXT
  5
182D
  8
BEM
 10
387.8643283259618215
 20
1289.092461254833097
 30
0.0
 40
2.5
  1

 50
90.0
 41
0.8
  7
GREEKS
  0
TEXT
  5
182E
  8
BEM
 10
393.1021721446253991
 20
1289.092461254833097
 30
0.0
 40
2.5
  1

 50
90.0
 41
0.8
  7
GREEKS
  0
TEXT
  5
182F
  8
BEM
 10
397.6073610947228758
 20
1289.0195167774591027
 30
0.0
 40
1.8
  1

 50
90.0
 41
0.8
  7
GREEKS
  0
TEXT
  5
1830
  8
BEM
 10
372.0157719984975984
 20
1276.3359458978479779
 30
0.0
 40
2.0
  1

 50
90.0
 41
0.8
  7
GREEKS
 72
     1
 11
372.0157719984975984
 21
1276.3359458978479779
 31
0.0
  0
TEXT
  5
1831
  8
TEXT
 10
382.3380485619047136
 20
1586.4366646191419932
 30
0.0
 40
2.5
  1
  
 50
90.0
  7
GREEKS
 72
     1
 11
382.3380485619047136
 21
1588.6985693810458997
 31
0.0
  0
TEXT
  5
1832
  8
BEM
 10
246.7791665315025114
 20
1830.556381931623946
 30
0.0
 40
2.5
  1
 
 50
90.0
 72
     4
 11
246.7791665315025114
 21
1831.687334312576013
 31
0.0
  0
TEXT
  5
1833
  8
VOLL
 10
354.6872103072557252
 20
1013.8914516663049881
 30
0.0
 40
1.8
  1

 50
90.0
  7
GREEKS
  0
TEXT
  5
1834
  8
VOLL
 10
349.3950935915364084
 20
1103.5576255919779669
 30
0.0
 40
1.8
  1

 50
90.0
  7
GREEKS
  0
TEXT
  5
1835
  8
TEXT
 10
343.8368580583107814
 20
1435.3898937955709698
 30
0.0
 40
2.5
  1
  
 50
90.0
  7
GREEKS
 72
     1
 11
343.8368580583107814
 21
1437.6517985574760132
 31
0.0
  0
TEXT
  5
1836
  8
BEM
 10
208.2779760279086929
 20
1679.5096111080529226
 30
0.0
 40
2.5
  1
 
 50
90.0
 72
     4
 11
208.2779760279086929
 21
1680.6405634890058991
 31
0.0
  0
TEXT
  5
1837
  8
BEM
 10
325.7583794003750199
 20
1245.1989552379029647
 30
0.0
 40
2.5
  1

 50
90.0
  7
GREEKS
  0
TEXT
  5
1838
  8
VOLL
 10
345.9416400574100976
 20
1231.1327622181809147
 30
0.0
 40
1.8
  1

 50
90.0
  7
GREEKS
  0
TEXT
  5
1839
  8
BEM
 10
341.2159157341894797
 20
1265.6208270574659309
 30
0.0
 40
2.5
  1

 50
90.0
 41
0.8
  7
GREEKS
  0
TEXT
  5
183A
  8
BEM
 10
345.9096842882415785
 20
1265.6208270574659309
 30
0.0
 40
2.5
  1

 50
90.0
 41
0.8
  7
GREEKS
  0
TEXT
  5
183B
  8
BEM
 10
351.1475281069050993
 20
1265.6208270574659309
 30
0.0
 40
2.5
  1

 50
90.0
 41
0.8
  7
GREEKS
  0
TEXT
  5
183C
  8
BEM
 10
355.6527170570026897
 20
1265.5478825800910272
 30
0.0
 40
1.8
  1

 50
90.0
 41
0.8
  7
GREEKS
  0
TEXT
  5
183D
  8
BEM
 10
330.0611279607775259
 20
1252.8643117004799024
 30
0.0
 40
2.0
  1

 50
90.0
 41
0.8
  7
GREEKS
 72
     1
 11
330.0611279607775259
 21
1252.8643117004799024
 31
0.0
  0
TEXT
  5
183E
  8
TEXT
 10
340.3834045241845274
 20
1562.9650304217739176
 30
0.0
 40
2.5
  1
  
 50
90.0
  7
GREEKS
 72
     1
 11
340.3834045241845274
 21
1565.226935183678961
 31
0.0
  0
TEXT
  5
183F
  8
BEM
 10
204.8245224937824105
 20
1807.0847477342560978
 30
0.0
 40
2.5
  1
 
 50
90.0
 72
     4
 11
204.8245224937824105
 21
1808.2157001152090743
 31
0.0
  0
TEXT
  5
1840
  8
VOLL
 10
306.4619956356863213
 20
1045.8982265377669592
 30
0.0
 40
1.8
  1

 50
90.0
  7
GREEKS
  0
TEXT
  5
1841
  8
TEXT
 10
300.903760102460808
 20
1377.7304947413599621
 30
0.0
 40
2.5
  1
  
 50
90.0
  7
GREEKS
 72
     1
 11
300.903760102460808
 21
1379.9923995032650055
 31
0.0
  0
TEXT
  5
1842
  8
BEM
 10
165.3448780720584921
 20
1621.8502120538419149
 30
0.0
 40
2.5
  1
 
 50
90.0
 72
     4
 11
165.3448780720584921
 21
1622.9811644347939819
 31
0.0
  0
TEXT
  5
1843
  8
BEM
 10
293.4407984403085266
 20
1483.995102164373975
 30
0.0
 40
2.5
  1

 50
90.0
  7
GREEKS
  0
TEXT
  5
1844
  8
BEM
 10
308.379246292628693
 20
1504.5568882240859239
 30
0.0
 40
2.5
  1

 50
90.0
 41
0.8
  7
GREEKS
  0
TEXT
  5
1845
  8
BEM
 10
318.4576963573417743
 20
1504.4175582057989686
 30
0.0
 40
2.5
  1

 50
90.0
 41
0.8
  7
GREEKS
  0
TEXT
  5
1846
  8
BEM
 10
313.5119134210261223
 20
1504.4708180895609075
 30
0.0
 40
2.5
  1

 50
90.0
 41
0.8
  7
GREEKS
  0
TEXT
  5
1847
  8
BEM
 10
323.5524839969817776
 20
1504.5133361274570234
 30
0.0
 40
1.8
  1

 50
90.0
 41
0.8
  7
GREEKS
  0
TEXT
  5
1848
  8
BEM
 10
298.1141395098135263
 20
1491.9410208838760354
 30
0.0
 40
2.0
  1

 50
90.0
 41
0.8
  7
GREEKS
 72
     1
 11
298.1141395098135263
 21
1491.9410208838760354
 31
0.0
  0
TEXT
  5
1849
  8
VOLL
 10
312.1507608700717924
 20
1225.1361604085789168
 30
0.0
 40
1.8
  1

 50
90.0
  7
GREEKS
  0
TEXT
  5
184A
  8
TEXT
 10
306.5925253368462791
 20
1556.9684286121719197
 30
0.0
 40
2.5
  1
  
 50
90.0
  7
GREEKS
 72
     1
 11
306.5925253368462791
 21
1559.2303333740769631
 31
0.0
  0
TEXT
  5
184B
  8
BEM
 10
171.0336433064441053
 20
1801.0881459246550094
 30
0.0
 40
2.5
  1
 
 50
90.0
 72
     4
 11
171.0336433064441053
 21
1802.2190983056070763
 31
0.0
  0
TEXT
  5
184C
  8
BEM
 10
249.211834769298207
 20
1339.6251787867470284
 30
0.0
 40
2.5
  1

 50
90.0
  7
GREEKS
  0
TEXT
  5
184D
  8
VOLL
 10
269.3950954263332846
 20
1325.5589857670249785
 30
0.0
 40
1.8
  1

 50
90.0
  7
GREEKS
  0
TEXT
  5
184E
  8
BEM
 10
264.6693711031127236
 20
1360.0470506063099947
 30
0.0
 40
2.5
  1

 50
90.0
 41
0.8
  7
GREEKS
  0
TEXT
  5
184F
  8
BEM
 10
269.3631396571648224
 20
1360.0470506063099947
 30
0.0
 40
2.5
  1

 50
90.0
 41
0.8
  7
GREEKS
  0
TEXT
  5
1850
  8
BEM
 10
274.6009834758282864
 20
1360.0470506063099947
 30
0.0
 40
2.5
  1

 50
90.0
 41
0.8
  7
GREEKS
  0
TEXT
  5
1851
  8
BEM
 10
279.1061724259258767
 20
1359.974106128935091
 30
0.0
 40
1.8
  1

 50
90.0
 41
0.8
  7
GREEKS
  0
TEXT
  5
1852
  8
BEM
 10
253.5145833297005993
 20
1347.2905352493239661
 30
0.0
 40
2.0
  1

 50
90.0
 41
0.8
  7
GREEKS
 72
     1
 11
253.5145833297005993
 21
1347.2905352493239661
 31
0.0
  0
TEXT
  5
1853
  8
TEXT
 10
263.8368598931077145
 20
1657.3912539706179814
 30
0.0
 40
2.5
  1
  
 50
90.0
  7
GREEKS
 72
     1
 11
263.8368598931077145
 21
1659.6531587325230248
 31
0.0
  0
TEXT
  5
1854
  8
BEM
 10
128.2779778627055975
 20
1901.5109712830999342
 30
0.0
 40
2.5
  1
 
 50
90.0
 72
     4
 11
128.2779778627055975
 21
1902.6419236640529107
 31
0.0
  0
TEXT
  5
1855
  8
VOLL
 10
352.6832131650685938
 20
1033.8067786179110499
 30
0.0
 40
1.8
  1

 50
90.0
  7
GREEKS
  0
TEXT
  5
1856
  8
VOLL
 10
347.3910964493493907
 20
1123.472952543583915
 30
0.0
 40
1.8
  1

 50
90.0
  7
GREEKS
  0
TEXT
  5
1857
  8
TEXT
 10
341.8328609161238205
 20
1455.3052207471769179
 30
0.0
 40
2.5
  1
  
 50
90.0
  7
GREEKS
 72
     1
 11
341.8328609161238205
 21
1457.5671255090810519
 31
0.0
  0
TEXT
  5
1858
  8
BEM
 10
206.2739788857215899
 20
1699.4249380596590981
 30
0.0
 40
2.5
  1
 
 50
90.0
 72
     4
 11
206.2739788857215899
 21
1700.5558904406109377
 31
0.0
  0
TEXT
  5
1859
  8
BEM
 10
323.7543822581880022
 20
1265.1142821895080033
 30
0.0
 40
2.5
  1

 50
90.0
  7
GREEKS
  0
TEXT
  5
185A
  8
VOLL
 10
343.937642915223023
 20
1251.0480891697870902
 30
0.0
 40
1.8
  1

 50
90.0
  7
GREEKS
  0
TEXT
  5
185B
  8
BEM
 10
339.2119185920025188
 20
1285.5361540090709696
 30
0.0
 40
2.5
  1

 50
90.0
 41
0.8
  7
GREEKS
  0
TEXT
  5
185C
  8
BEM
 10
343.9056871460546176
 20
1285.5361540090709696
 30
0.0
 40
2.5
  1

 50
90.0
 41
0.8
  7
GREEKS
  0
TEXT
  5
185D
  8
BEM
 10
349.1435309647180816
 20
1285.5361540090709696
 30
0.0
 40
2.5
  1

 50
90.0
 41
0.8
  7
GREEKS
  0
TEXT
  5
185E
  8
BEM
 10
353.6487199148156719
 20
1285.4632095316969753
 30
0.0
 40
1.8
  1

 50
90.0
 41
0.8
  7
GREEKS
  0
TEXT
  5
185F
  8
BEM
 10
328.0571308185903945
 20
1272.7796386520860779
 30
0.0
 40
2.0
  1

 50
90.0
 41
0.8
  7
GREEKS
 72
     1
 11
328.0571308185903945
 21
1272.7796386520860779
 31
0.0
  0
TEXT
  5
1860
  8
TEXT
 10
338.3794073819975097
 20
1582.8803573733800931
 30
0.0
 40
2.5
  1
  
 50
90.0
  7
GREEKS
 72
     1
 11
338.3794073819975097
 21
1585.1422621352839997
 31
0.0
  0
TEXT
  5
1861
  8
BEM
 10
202.8205253515953927
 20
1827.000074685862046
 30
0.0
 40
2.5
  1
 
 50
90.0
 72
     4
 11
202.8205253515953927
 21
1828.1310270668141129
 31
0.0
  0
TEXT
  5
1862
  8
VOLL
 10
310.7285691273485213
 20
1010.3351444205429743
 30
0.0
 40
1.8
  1

 50
90.0
  7
GREEKS
  0
TEXT
  5
1863
  8
VOLL
 10
305.4364524116290909
 20
1100.0013183462160669
 30
0.0
 40
1.8
  1

 50
90.0
  7
GREEKS
  0
TEXT
  5
1864
  8
TEXT
 10
299.8782168784035775
 20
1431.8335865498090698
 30
0.0
 40
2.5
  1
  
 50
90.0
  7
GREEKS
 72
     1
 11
299.8782168784035775
 21
1434.0954913117141132
 31
0.0
  0
TEXT
  5
1865
  8
BEM
 10
164.3193348480012901
 20
1675.9533038622910226
 30
0.0
 40
2.5
  1
 
 50
90.0
 72
     4
 11
164.3193348480012901
 21
1677.0842562432439991
 31
0.0
  0
TEXT
  5
1866
  8
BEM
 10
281.7997382204678161
 20
1241.6426479921410646
 30
0.0
 40
2.5
  1

 50
90.0
  7
GREEKS
  0
TEXT
  5
1867
  8
VOLL
 10
301.9829988775028937
 20
1227.5764549724190147
 30
0.0
 40
1.8
  1

 50
90.0
  7
GREEKS
  0
TEXT
  5
1868
  8
BEM
 10
297.2572745542822759
 20
1262.0645198117040309
 30
0.0
 40
2.5
  1

 50
90.0
 41
0.8
  7
GREEKS
  0
TEXT
  5
1869
  8
BEM
 10
301.9510431083343747
 20
1262.0645198117040309
 30
0.0
 40
2.5
  1

 50
90.0
 41
0.8
  7
GREEKS
  0
TEXT
  5
186A
  8
BEM
 10
307.1888869269978954
 20
1262.0645198117040309
 30
0.0
 40
2.5
  1

 50
90.0
 41
0.8
  7
GREEKS
  0
TEXT
  5
186B
  8
BEM
 10
311.6940758770954858
 20
1261.9915753343300366
 30
0.0
 40
1.8
  1

 50
90.0
 41
0.8
  7
GREEKS
  0
TEXT
  5
186C
  8
BEM
 10
286.102486780870322
 20
1249.3080044547180023
 30
0.0
 40
2.0
  1

 50
90.0
 41
0.8
  7
GREEKS
 72
     1
 11
286.102486780870322
 21
1249.3080044547180023
 31
0.0
  0
TEXT
  5
186D
  8
TEXT
 10
296.4247633442773235
 20
1559.4087231760120176
 30
0.0
 40
2.5
  1
  
 50
90.0
  7
GREEKS
 72
     1
 11
296.4247633442773235
 21
1561.670627937917061
 31
0.0
  0
TEXT
  5
186E
  8
BEM
 10
160.8658813138750929
 20
1803.5284404884951073
 30
0.0
 40
2.5
  1
 
 50
90.0
 72
     4
 11
160.8658813138750929
 21
1804.6593928694469469
 31
0.0
  0
TEXT
  5
186F
  8
VOLL
 10
262.3831871363991013
 20
1032.2678285760568997
 30
0.0
 40
1.8
  1

 50
90.0
  7
GREEKS
  0
TEXT
  5
1870
  8
TEXT
 10
256.824951603173588
 20
1364.1000967796499026
 30
0.0
 40
2.5
  1
  
 50
90.0
  7
GREEKS
 72
     1
 11
256.824951603173588
 21
1366.362001541554946
 31
0.0
  0
TEXT
  5
1871
  8
BEM
 10
121.266069572771201
 20
1608.2198140921329923
 30
0.0
 40
2.5
  1
 
 50
90.0
 72
     4
 11
121.266069572771201
 21
1609.3507664730850593
 31
0.0
  0
TEXT
  5
1872
  8
BEM
 10
242.0446528518008904
 20
1259.2917173658690899
 30
0.0
 40
2.5
  1

 50
90.0
  7
GREEKS
  0
TEXT
  5
1873
  8
VOLL
 10
262.2279135088360249
 20
1245.2255243461479495
 30
0.0
 40
1.8
  1

 50
90.0
  7
GREEKS
  0
TEXT
  5
1874
  8
BEM
 10
257.5021891856152934
 20
1279.7135891854329657
 30
0.0
 40
2.5
  1

 50
90.0
 41
0.8
  7
GREEKS
  0
TEXT
  5
1875
  8
BEM
 10
262.1959577396676195
 20
1279.7135891854329657
 30
0.0
 40
2.5
  1

 50
90.0
 41
0.8
  7
GREEKS
  0
TEXT
  5
1876
  8
BEM
 10
267.4338015583310266
 20
1279.7135891854329657
 30
0.0
 40
2.5
  1

 50
90.0
 41
0.8
  7
GREEKS
  0
TEXT
  5
1877
  8
BEM
 10
271.9389905084286738
 20
1279.640644708058062
 30
0.0
 40
1.8
  1

 50
90.0
 41
0.8
  7
GREEKS
  0
TEXT
  5
1878
  8
BEM
 10
246.3474014122033964
 20
1266.9570738284469371
 30
0.0
 40
2.0
  1

 50
90.0
 41
0.8
  7
GREEKS
 72
     1
 11
246.3474014122033964
 21
1266.9570738284469371
 31
0.0
  0
TEXT
  5
1879
  8
TEXT
 10
256.6696779756103979
 20
1577.0577925497409524
 30
0.0
 40
2.5
  1
  
 50
90.0
  7
GREEKS
 72
     1
 11
256.6696779756103979
 21
1579.3196973116450863
 31
0.0
  0
TEXT
  5
187A
  8
BEM
 10
121.1107959452081957
 20
1821.1775098622229052
 30
0.0
 40
2.5
  1
 
 50
90.0
 72
     4
 11
121.1107959452081957
 21
1822.3084622431749722
 31
0.0
  0
TEXT
  5
187B
  8
VOLL
 10
575.9739147080961175
 20
809.0620915922594349
 30
0.0
 40
1.8
  1

 50
90.0
  7
GREEKS
  0
TEXT
  5
187C
  8
VOLL
 10
570.681797992376687
 20
898.7282655179326412
 30
0.0
 40
1.8
  1

 50
90.0
  7
GREEKS
  0
TEXT
  5
187D
  8
TEXT
 10
565.1235624591512305
 20
1230.5605337215249619
 30
0.0
 40
2.5
  1
  
 50
90.0
  7
GREEKS
 72
     1
 11
565.1235624591512305
 21
1232.8224384834300054
 31
0.0
  0
TEXT
  5
187E
  8
BEM
 10
429.5646804287489999
 20
1474.6802510340080516
 30
0.0
 40
2.5
  1
 
 50
90.0
 72
     4
 11
429.5646804287489999
 21
1475.8112034149598912
 31
0.0
  0
TEXT
  5
187F
  8
BEM
 10
547.0450838012153554
 20
1040.3695951638569568
 30
0.0
 40
2.5
  1

 50
90.0
  7
GREEKS
  0
TEXT
  5
1880
  8
VOLL
 10
567.2283444582502625
 20
1026.3034021441360437
 30
0.0
 40
1.8
  1

 50
90.0
  7
GREEKS
  0
TEXT
  5
1881
  8
BEM
 10
562.5026201350298152
 20
1060.7914669834199231
 30
0.0
 40
2.5
  1

 50
90.0
 41
0.8
  7
GREEKS
  0
TEXT
  5
1882
  8
BEM
 10
567.1963886890820277
 20
1060.7914669834199231
 30
0.0
 40
2.5
  1

 50
90.0
 41
0.8
  7
GREEKS
  0
TEXT
  5
1883
  8
BEM
 10
572.4342325077453779
 20
1060.7914669834199231
 30
0.0
 40
2.5
  1

 50
90.0
 41
0.8
  7
GREEKS
  0
TEXT
  5
1884
  8
BEM
 10
576.9394214578429683
 20
1060.7185225060459288
 30
0.0
 40
1.8
  1

 50
90.0
 41
0.8
  7
GREEKS
  0
TEXT
  5
1885
  8
BEM
 10
551.3478323616177477
 20
1048.0349516264338945
 30
0.0
 40
2.0
  1

 50
90.0
 41
0.8
  7
GREEKS
 72
     1
 11
551.3478323616177477
 21
1048.0349516264338945
 31
0.0
  0
TEXT
  5
1886
  8
TEXT
 10
561.670108925024806
 20
1358.1356703477279098
 30
0.0
 40
2.5
  1
  
 50
90.0
  7
GREEKS
 72
     1
 11
561.670108925024806
 21
1360.3975751096329532
 31
0.0
  0
TEXT
  5
1887
  8
BEM
 10
426.1112268946226891
 20
1602.2553876602109995
 30
0.0
 40
2.5
  1
 
 50
90.0
 72
     4
 11
426.1112268946226891
 21
1603.3863400411630664
 31
0.0
  0
TEXT
  5
1888
  8
VOLL
 10
559.7768303962611753
 20
951.0201665394207566
 30
0.0
 40
1.8
  1

 50
90.0
  7
GREEKS
  0
TEXT
  5
1889
  8
TEXT
 10
554.2185948630358325
 20
1282.8524347430129637
 30
0.0
 40
2.5
  1
  
 50
90.0
  7
GREEKS
 72
     1
 11
554.2185948630358325
 21
1285.1143395049180072
 31
0.0
  0
TEXT
  5
188A
  8
BEM
 10
418.6597128326334882
 20
1526.9721520554960534
 30
0.0
 40
2.5
  1
 
 50
90.0
 72
     4
 11
418.6597128326334882
 21
1528.103104436447893
 31
0.0
  0
TEXT
  5
188B
  8
BEM
 10
539.4434195065847462
 20
1106.1597686962170428
 30
0.0
 40
2.5
  1

 50
90.0
  7
GREEKS
  0
TEXT
  5
188C
  8
VOLL
 10
559.6266801636198807
 20
1092.0935756764949929
 30
0.0
 40
1.8
  1

 50
90.0
  7
GREEKS
  0
TEXT
  5
188D
  8
BEM
 10
554.900955840399206
 20
1126.5816405157800091
 30
0.0
 40
2.5
  1

 50
90.0
 41
0.8
  7
GREEKS
  0
TEXT
  5
188E
  8
BEM
 10
559.5947243944514184
 20
1126.5816405157800091
 30
0.0
 40
2.5
  1

 50
90.0
 41
0.8
  7
GREEKS
  0
TEXT
  5
188F
  8
BEM
 10
564.8325682131147687
 20
1126.5816405157800091
 30
0.0
 40
2.5
  1

 50
90.0
 41
0.8
  7
GREEKS
  0
TEXT
  5
1890
  8
BEM
 10
569.3377571632124727
 20
1126.5086960384051054
 30
0.0
 40
1.8
  1

 50
90.0
 41
0.8
  7
GREEKS
  0
TEXT
  5
1891
  8
BEM
 10
543.7461680669872521
 20
1113.8251251587939805
 30
0.0
 40
2.0
  1

 50
90.0
 41
0.8
  7
GREEKS
 72
     1
 11
543.7461680669872521
 21
1113.8251251587939805
 31
0.0
  0
TEXT
  5
1892
  8
TEXT
 10
554.0684446303941968
 20
1423.9258438800879958
 30
0.0
 40
2.5
  1
  
 50
90.0
  7
GREEKS
 72
     1
 11
554.0684446303941968
 21
1426.1877486419930392
 31
0.0
  0
TEXT
  5
1893
  8
BEM
 10
418.5095625999920799
 20
1668.0455611925699486
 30
0.0
 40
2.5
  1
 
 50
90.0
 72
     4
 11
418.5095625999920799
 21
1669.1765135735229251
 31
0.0
  0
TEXT
  5
1894
  8
VOLL
 10
571.5925399220097916
 20
886.9979551126642718
 30
0.0
 40
1.8
  1

 50
90.0
  7
GREEKS
  0
TEXT
  5
1895
  8
TEXT
 10
566.0343043887841077
 20
1218.8302233162569337
 30
0.0
 40
2.5
  1
  
 50
90.0
  7
GREEKS
 72
     1
 11
566.0343043887841077
 21
1221.0921280781619771
 31
0.0
  0
TEXT
  5
1896
  8
BEM
 10
430.4754223583819908
 20
1462.9499406287388865
 30
0.0
 40
2.5
  1
 
 50
90.0
 72
     4
 11
430.4754223583819908
 21
1464.0808930096920903
 31
0.0
  0
TEXT
  5
1897
  8
BEM
 10
531.4393092234240612
 20
1052.3435681923140237
 30
0.0
 40
2.5
  1

 50
90.0
  7
GREEKS
  0
TEXT
  5
1898
  8
VOLL
 10
551.6225698804591957
 20
1038.2773751725931106
 30
0.0
 40
1.8
  1

 50
90.0
  7
GREEKS
  0
TEXT
  5
1899
  8
BEM
 10
546.8968455572386347
 20
1072.7654400118778995
 30
0.0
 40
2.5
  1

 50
90.0
 41
0.8
  7
GREEKS
  0
TEXT
  5
189A
  8
BEM
 10
551.5906141112908472
 20
1072.7654400118778995
 30
0.0
 40
2.5
  1

 50
90.0
 41
0.8
  7
GREEKS
  0
TEXT
  5
189B
  8
BEM
 10
556.8284579299541974
 20
1072.7654400118778995
 30
0.0
 40
2.5
  1

 50
90.0
 41
0.8
  7
GREEKS
  0
TEXT
  5
189C
  8
BEM
 10
561.3336468800517878
 20
1072.6924955345029957
 30
0.0
 40
1.8
  1

 50
90.0
 41
0.8
  7
GREEKS
  0
TEXT
  5
189D
  8
BEM
 10
535.7420577838266809
 20
1060.0089246548920983
 30
0.0
 40
2.0
  1

 50
90.0
 41
0.8
  7
GREEKS
 72
     1
 11
535.7420577838266809
 21
1060.0089246548920983
 31
0.0
  0
TEXT
  5
189E
  8
TEXT
 10
546.0643343472337392
 20
1370.1096433761849767
 30
0.0
 40
2.5
  1
  
 50
90.0
  7
GREEKS
 72
     1
 11
546.0643343472337392
 21
1372.3715481380900201
 31
0.0
  0
TEXT
  5
189F
  8
BEM
 10
410.5054523168313949
 20
1614.2293606886680664
 30
0.0
 40
2.5
  1
 
 50
90.0
 72
     4
 11
410.5054523168313949
 21
1615.3603130696199059
 31
0.0
  0
TEXT
  5
18A0
  8
VOLL
 10
566.4740965445073471
 20
1214.5795313657758925
 30
0.0
 40
1.8
  1

 50
90.0
  7
GREEKS
  0
TEXT
  5
18A1
  8
VOLL
 10
561.1819798287879166
 20
1304.245705291448985
 30
0.0
 40
1.8
  1

 50
90.0
  7
GREEKS
  0
TEXT
  5
18A2
  8
TEXT
 10
555.6237442955623465
 20
1636.0779734950419879
 30
0.0
 40
2.5
  1
  
 50
90.0
  7
GREEKS
 72
     1
 11
555.6237442955623465
 21
1638.3398782569458945
 31
0.0
  0
TEXT
  5
18A3
  8
BEM
 10
420.0648622651602864
 20
1880.1976908075239407
 30
0.0
 40
2.5
  1
 
 50
90.0
 72
     4
 11
420.0648622651602864
 21
1881.3286431884760077
 31
0.0
  0
TEXT
  5
18A4
  8
BEM
 10
537.545265637626585
 20
1445.8870349373730733
 30
0.0
 40
2.5
  1

 50
90.0
  7
GREEKS
  0
TEXT
  5
18A5
  8
VOLL
 10
557.7285262946617195
 20
1431.8208419176519328
 30
0.0
 40
1.8
  1

 50
90.0
  7
GREEKS
  0
TEXT
  5
18A6
  8
BEM
 10
553.0028019714411585
 20
1466.3089067569360395
 30
0.0
 40
2.5
  1

 50
90.0
 41
0.8
  7
GREEKS
  0
TEXT
  5
18A7
  8
BEM
 10
557.6965705254932573
 20
1466.3089067569360395
 30
0.0
 40
2.5
  1

 50
90.0
 41
0.8
  7
GREEKS
  0
TEXT
  5
18A8
  8
BEM
 10
562.9344143441567212
 20
1466.3089067569360395
 30
0.0
 40
2.5
  1

 50
90.0
 41
0.8
  7
GREEKS
  0
TEXT
  5
18A9
  8
BEM
 10
567.4396032942544252
 20
1466.2359622795620453
 30
0.0
 40
1.8
  1

 50
90.0
 41
0.8
  7
GREEKS
  0
TEXT
  5
18AA
  8
BEM
 10
541.8480141980290909
 20
1453.5523913999509205
 30
0.0
 40
2.0
  1

 50
90.0
 41
0.8
  7
GREEKS
 72
     1
 11
541.8480141980290909
 21
1453.5523913999509205
 31
0.0
  0
TEXT
  5
18AB
  8
TEXT
 10
552.1702907614361493
 20
1763.6531101212449357
 30
0.0
 40
2.5
  1
  
 50
90.0
  7
GREEKS
 72
     1
 11
552.1702907614361493
 21
1765.9150148831490696
 31
0.0
  0
TEXT
  5
18AC
  8
BEM
 10
416.6114087310339187
 20
2007.7728274337268886
 30
0.0
 40
2.5
  1
 
 50
90.0
 72
     4
 11
416.6114087310339187
 21
2008.9037798146800924
 31
0.0
  0
TEXT
  5
18AD
  8
VOLL
 10
589.4231694370078003
 20
1222.4928460575590634
 30
0.0
 40
1.8
  1

 50
90.0
  7
GREEKS
  0
TEXT
  5
18AE
  8
VOLL
 10
584.1310527212884836
 20
1312.1590199832319286
 30
0.0
 40
1.8
  1

 50
90.0
  7
GREEKS
  0
TEXT
  5
18AF
  8
TEXT
 10
578.5728171880630271
 20
1643.9912881868249315
 30
0.0
 40
2.5
  1
  
 50
90.0
  7
GREEKS
 72
     1
 11
578.5728171880630271
 21
1646.2531929487299749
 31
0.0
  0
TEXT
  5
18B0
  8
BEM
 10
443.0139351576606828
 20
1888.1110054993071117
 30
0.0
 40
2.5
  1
 
 50
90.0
 72
     4
 11
443.0139351576606828
 21
1889.2419578802589513
 31
0.0
  0
TEXT
  5
18B1
  8
BEM
 10
560.4943385301271519
 20
1453.8003496291569263
 30
0.0
 40
2.5
  1

 50
90.0
  7
GREEKS
  0
TEXT
  5
18B2
  8
VOLL
 10
580.6775991871622864
 20
1439.7341566094351037
 30
0.0
 40
1.8
  1

 50
90.0
  7
GREEKS
  0
TEXT
  5
18B3
  8
BEM
 10
575.9518748639416117
 20
1474.2222214487198926
 30
0.0
 40
2.5
  1

 50
90.0
 41
0.8
  7
GREEKS
  0
TEXT
  5
18B4
  8
BEM
 10
580.6456434179938242
 20
1474.2222214487198926
 30
0.0
 40
2.5
  1

 50
90.0
 41
0.8
  7
GREEKS
  0
TEXT
  5
18B5
  8
BEM
 10
585.8834872366571744
 20
1474.2222214487198926
 30
0.0
 40
2.5
  1

 50
90.0
 41
0.8
  7
GREEKS
  0
TEXT
  5
18B6
  8
BEM
 10
590.3886761867547648
 20
1474.1492769713449889
 30
0.0
 40
1.8
  1

 50
90.0
 41
0.8
  7
GREEKS
  0
TEXT
  5
18B7
  8
BEM
 10
564.7970870905295442
 20
1461.4657060917340914
 30
0.0
 40
2.0
  1

 50
90.0
 41
0.8
  7
GREEKS
 72
     1
 11
564.7970870905295442
 21
1461.4657060917340914
 31
0.0
  0
TEXT
  5
18B8
  8
TEXT
 10
575.1193636539367162
 20
1771.5664248130281067
 30
0.0
 40
2.5
  1
  
 50
90.0
  7
GREEKS
 72
     1
 11
575.1193636539367162
 21
1773.8283295749329227
 31
0.0
  0
TEXT
  5
18B9
  8
BEM
 10
439.5604816235343719
 20
2015.686142125510969
 30
0.0
 40
2.5
  1
 
 50
90.0
 72
     4
 11
439.5604816235343719
 21
2016.8170945064630359
 31
0.0
  0
TEXT
  5
18BA
  8
VOLL
 10
573.2260851251729719
 20
1364.4509210047199304
 30
0.0
 40
1.8
  1

 50
90.0
  7
GREEKS
  0
TEXT
  5
18BB
  8
TEXT
 10
567.6678495919475154
 20
1696.2831892083129333
 30
0.0
 40
2.5
  1
  
 50
90.0
  7
GREEKS
 72
     1
 11
567.6678495919475154
 21
1698.5450939702179767
 31
0.0
  0
TEXT
  5
18BC
  8
BEM
 10
432.1089675615452848
 20
1940.402906520796023
 30
0.0
 40
2.5
  1
 
 50
90.0
 72
     4
 11
432.1089675615452848
 21
1941.5338589017480899
 31
0.0
  0
TEXT
  5
18BD
  8
BEM
 10
552.8926742354965427
 20
1519.5905231615161028
 30
0.0
 40
2.5
  1

 50
90.0
  7
GREEKS
  0
TEXT
  5
18BE
  8
VOLL
 10
573.0759348925316772
 20
1505.5243301417949624
 30
0.0
 40
1.8
  1

 50
90.0
  7
GREEKS
  0
TEXT
  5
18BF
  8
BEM
 10
568.3502105693110025
 20
1540.0123949810790691
 30
0.0
 40
2.5
  1

 50
90.0
 41
0.8
  7
GREEKS
  0
TEXT
  5
18C0
  8
BEM
 10
573.043979123363215
 20
1540.0123949810790691
 30
0.0
 40
2.5
  1

 50
90.0
 41
0.8
  7
GREEKS
  0
TEXT
  5
18C1
  8
BEM
 10
578.2818229420265652
 20
1540.0123949810790691
 30
0.0
 40
2.5
  1

 50
90.0
 41
0.8
  7
GREEKS
  0
TEXT
  5
18C2
  8
BEM
 10
582.7870118921243829
 20
1539.9394505037050749
 30
0.0
 40
1.8
  1

 50
90.0
 41
0.8
  7
GREEKS
  0
TEXT
  5
18C3
  8
BEM
 10
557.1954227958990487
 20
1527.2558796240930405
 30
0.0
 40
2.0
  1

 50
90.0
 41
0.8
  7
GREEKS
 72
     1
 11
557.1954227958990487
 21
1527.2558796240930405
 31
0.0
  0
TEXT
  5
18C4
  8
TEXT
 10
567.517699359306107
 20
1837.3565983453879653
 30
0.0
 40
2.5
  1
  
 50
90.0
  7
GREEKS
 72
     1
 11
567.517699359306107
 21
1839.6185031072930087
 31
0.0
  0
TEXT
  5
18C5
  8
BEM
 10
431.9588173289038764
 20
2081.4763156578701455
 30
0.0
 40
2.5
  1
 
 50
90.0
 72
     4
 11
431.9588173289038764
 21
2082.6072680388228946
 31
0.0
  0
TEXT
  5
18C6
  8
VOLL
 10
378.5638556453671981
 20
995.0680613178360545
 30
0.0
 40
1.8
  1

 50
90.0
  7
GREEKS
  0
TEXT
  5
18C7
  8
VOLL
 10
373.2717389296478245
 20
1084.7342352435089197
 30
0.0
 40
1.8
  1

 50
90.0
  7
GREEKS
  0
TEXT
  5
18C8
  8
TEXT
 10
367.7135033964223112
 20
1416.5665034471019226
 30
0.0
 40
2.5
  1
  
 50
90.0
  7
GREEKS
 72
     1
 11
367.7135033964223112
 21
1418.828408209006966
 31
0.0
  0
TEXT
  5
18C9
  8
BEM
 10
232.154621366020109
 20
1660.6862207595841028
 30
0.0
 40
2.5
  1
 
 50
90.0
 72
     4
 11
232.154621366020109
 21
1661.8171731405370792
 31
0.0
  0
TEXT
  5
18CA
  8
BEM
 10
349.6350247384863792
 20
1226.3755648894339174
 30
0.0
 40
2.5
  1

 50
90.0
  7
GREEKS
  0
TEXT
  5
18CB
  8
VOLL
 10
369.8182853955215137
 20
1212.3093718697120948
 30
0.0
 40
1.8
  1

 50
90.0
  7
GREEKS
  0
TEXT
  5
18CC
  8
BEM
 10
365.0925610723008958
 20
1246.7974367089971111
 30
0.0
 40
2.5
  1

 50
90.0
 41
0.8
  7
GREEKS
  0
TEXT
  5
18CD
  8
BEM
 10
369.7863296263529946
 20
1246.7974367089971111
 30
0.0
 40
2.5
  1

 50
90.0
 41
0.8
  7
GREEKS
  0
TEXT
  5
18CE
  8
BEM
 10
375.0241734450165723
 20
1246.7974367089971111
 30
0.0
 40
2.5
  1

 50
90.0
 41
0.8
  7
GREEKS
  0
TEXT
  5
18CF
  8
BEM
 10
379.5293623951142195
 20
1246.72449223162198
 30
0.0
 40
1.8
  1

 50
90.0
 41
0.8
  7
GREEKS
  0
TEXT
  5
18D0
  8
BEM
 10
353.9377732988889989
 20
1234.040921352011992
 30
0.0
 40
2.0
  1

 50
90.0
 41
0.8
  7
GREEKS
 72
     1
 11
353.9377732988889989
 21
1234.040921352011992
 31
0.0
  0
TEXT
  5
18D1
  8
TEXT
 10
364.2600498622960004
 20
1544.1416400733050978
 30
0.0
 40
2.5
  1
  
 50
90.0
  7
GREEKS
 72
     1
 11
364.2600498622960004
 21
1546.4035448352099138
 31
0.0
  0
TEXT
  5
18D2
  8
BEM
 10
228.7011678318937982
 20
1788.2613573857870506
 30
0.0
 40
2.5
  1
 
 50
90.0
 72
     4
 11
228.7011678318937982
 21
1789.3923097667388902
 31
0.0
  0
TEXT
  5
18D3
  8
VOLL
 10
362.3667713335324265
 20
1137.0261362649980583
 30
0.0
 40
1.8
  1

 50
90.0
  7
GREEKS
  0
TEXT
  5
18D4
  8
TEXT
 10
356.8085358003067995
 20
1468.8584044685910612
 30
0.0
 40
2.5
  1
  
 50
90.0
  7
GREEKS
 72
     1
 11
356.8085358003067995
 21
1471.1203092304949678
 31
0.0
  0
TEXT
  5
18D5
  8
BEM
 10
221.249653769904711
 20
1712.9781217810721046
 30
0.0
 40
2.5
  1
 
 50
90.0
 72
     4
 11
221.249653769904711
 21
1714.1090741620239442
 31
0.0
  0
TEXT
  5
18D6
  8
BEM
 10
342.0333604438558268
 20
1292.1657384217930939
 30
0.0
 40
2.5
  1

 50
90.0
  7
GREEKS
  0
TEXT
  5
18D7
  8
VOLL
 10
362.2166211008910182
 20
1278.0995454020719535
 30
0.0
 40
1.8
  1

 50
90.0
  7
GREEKS
  0
TEXT
  5
18D8
  8
BEM
 10
357.4908967776702866
 20
1312.5876102413560602
 30
0.0
 40
2.5
  1

 50
90.0
 41
0.8
  7
GREEKS
  0
TEXT
  5
18D9
  8
BEM
 10
362.1846653317224991
 20
1312.5876102413560602
 30
0.0
 40
2.5
  1

 50
90.0
 41
0.8
  7
GREEKS
  0
TEXT
  5
18DA
  8
BEM
 10
367.4225091503860199
 20
1312.5876102413560602
 30
0.0
 40
2.5
  1

 50
90.0
 41
0.8
  7
GREEKS
  0
TEXT
  5
18DB
  8
BEM
 10
371.9276981004836102
 20
1312.514665763982066
 30
0.0
 40
1.8
  1

 50
90.0
 41
0.8
  7
GREEKS
  0
TEXT
  5
18DC
  8
BEM
 10
346.3361090042582759
 20
1299.8310948843709411
 30
0.0
 40
2.0
  1

 50
90.0
 41
0.8
  7
GREEKS
 72
     1
 11
346.3361090042582759
 21
1299.8310948843709411
 31
0.0
  0
TEXT
  5
18DD
  8
TEXT
 10
356.6583855676653911
 20
1609.9318136056649564
 30
0.0
 40
2.5
  1
  
 50
90.0
  7
GREEKS
 72
     1
 11
356.6583855676653911
 21
1612.1937183675699998
 31
0.0
  0
TEXT
  5
18DE
  8
BEM
 10
221.0995035372631889
 20
1854.0515309181469092
 30
0.0
 40
2.5
  1
 
 50
90.0
 72
     4
 11
221.0995035372631889
 21
1855.1824832990989762
 31
0.0
  0
TEXT
  5
18DF
  8
VOLL
 10
374.1824808592808722
 20
1073.0039248382408914
 30
0.0
 40
1.8
  1

 50
90.0
  7
GREEKS
  0
TEXT
  5
18E0
  8
TEXT
 10
368.624245326055302
 20
1404.8361930418338943
 30
0.0
 40
2.5
  1
  
 50
90.0
  7
GREEKS
 72
     1
 11
368.624245326055302
 21
1407.0980978037389377
 31
0.0
  0
TEXT
  5
18E1
  8
BEM
 10
233.0653632956530998
 20
1648.9559103543160745
 30
0.0
 40
2.5
  1
 
 50
90.0
 72
     4
 11
233.0653632956530998
 21
1650.0868627352679141
 31
0.0
  0
TEXT
  5
18E2
  8
BEM
 10
334.0292501606951987
 20
1238.3495379178909843
 30
0.0
 40
2.5
  1

 50
90.0
  7
GREEKS
  0
TEXT
  5
18E3
  8
VOLL
 10
354.2125108177302764
 20
1224.2833448981700712
 30
0.0
 40
1.8
  1

 50
90.0
  7
GREEKS
  0
TEXT
  5
18E4
  8
BEM
 10
349.4867864945097722
 20
1258.7714097374539506
 30
0.0
 40
2.5
  1

 50
90.0
 41
0.8
  7
GREEKS
  0
TEXT
  5
18E5
  8
BEM
 10
354.1805550485619278
 20
1258.7714097374539506
 30
0.0
 40
2.5
  1

 50
90.0
 41
0.8
  7
GREEKS
  0
TEXT
  5
18E6
  8
BEM
 10
359.4183988672253918
 20
1258.7714097374539506
 30
0.0
 40
2.5
  1

 50
90.0
 41
0.8
  7
GREEKS
  0
TEXT
  5
18E7
  8
BEM
 10
363.9235878173229821
 20
1258.6984652600799564
 30
0.0
 40
1.8
  1

 50
90.0
 41
0.8
  7
GREEKS
  0
TEXT
  5
18E8
  8
BEM
 10
338.3319987210977047
 20
1246.0148943804690589
 30
0.0
 40
2.0
  1

 50
90.0
 41
0.8
  7
GREEKS
 72
     1
 11
338.3319987210977047
 21
1246.0148943804690589
 31
0.0
  0
TEXT
  5
18E9
  8
TEXT
 10
348.6542752845048199
 20
1556.1156131017630742
 30
0.0
 40
2.5
  1
  
 50
90.0
  7
GREEKS
 72
     1
 11
348.6542752845048199
 21
1558.3775178636669807
 31
0.0
  0
TEXT
  5
18EA
  8
BEM
 10
213.0953932541025893
 20
1800.235330414245027
 30
0.0
 40
2.5
  1
 
 50
90.0
 72
     4
 11
213.0953932541025893
 21
1801.3662827951970939
 31
0.0
  0
TEXT
  5
18EB
  8
VOLL
 10
400.2199526539309886
 20
1001.4694142503769854
 30
0.0
 40
1.8
  1

 50
90.0
  7
GREEKS
  0
TEXT
  5
18EC
  8
VOLL
 10
394.9278359382117856
 20
1091.1355881760500779
 30
0.0
 40
1.8
  1

 50
90.0
  7
GREEKS
  0
TEXT
  5
18ED
  8
TEXT
 10
389.3696004049862154
 20
1422.9678563796430808
 30
0.0
 40
2.5
  1
  
 50
90.0
  7
GREEKS
 72
     1
 11
389.3696004049862154
 21
1425.2297611415478968
 31
0.0
  0
TEXT
  5
18EE
  8
BEM
 10
253.8107183745840132
 20
1667.0875736921250336
 30
0.0
 40
2.5
  1
 
 50
90.0
 72
     4
 11
253.8107183745840132
 21
1668.2185260730771006
 31
0.0
  0
TEXT
  5
18EF
  8
BEM
 10
371.2911217470503971
 20
1232.7769178219739388
 30
0.0
 40
2.5
  1

 50
90.0
  7
GREEKS
  0
TEXT
  5
18F0
  8
VOLL
 10
391.4743824040854747
 20
1218.7107248022530257
 30
0.0
 40
1.8
  1

 50
90.0
  7
GREEKS
  0
TEXT
  5
18F1
  8
BEM
 10
386.7486580808649137
 20
1253.198789641536905
 30
0.0
 40
2.5
  1

 50
90.0
 41
0.8
  7
GREEKS
  0
TEXT
  5
18F2
  8
BEM
 10
391.4424266349170125
 20
1253.198789641536905
 30
0.0
 40
2.5
  1

 50
90.0
 41
0.8
  7
GREEKS
  0
TEXT
  5
18F3
  8
BEM
 10
396.6802704535805901
 20
1253.198789641536905
 30
0.0
 40
2.5
  1

 50
90.0
 41
0.8
  7
GREEKS
  0
TEXT
  5
18F4
  8
BEM
 10
401.1854594036781805
 20
1253.1258451641629108
 30
0.0
 40
1.8
  1

 50
90.0
 41
0.8
  7
GREEKS
  0
TEXT
  5
18F5
  8
BEM
 10
375.593870307452903
 20
1240.4422742845520133
 30
0.0
 40
2.0
  1

 50
90.0
 41
0.8
  7
GREEKS
 72
     1
 11
375.593870307452903
 21
1240.4422742845520133
 31
0.0
  0
TEXT
  5
18F6
  8
TEXT
 10
385.9161468708600182
 20
1550.5429930058460286
 30
0.0
 40
2.5
  1
  
 50
90.0
  7
GREEKS
 72
     1
 11
385.9161468708600182
 21
1552.804897767751072
 31
0.0
  0
TEXT
  5
18F7
  8
BEM
 10
250.3572648404577876
 20
1794.6627103183279814
 30
0.0
 40
2.5
  1
 
 50
90.0
 72
     4
 11
250.3572648404577876
 21
1795.7936626992800484
 31
0.0
  0
TEXT
  5
18F8
  8
VOLL
 10
384.0228683420963876
 20
1143.4274891975380797
 30
0.0
 40
1.8
  1

 50
90.0
  7
GREEKS
  0
TEXT
  5
18F9
  8
TEXT
 10
378.4646328088708174
 20
1475.2597574011310826
 30
0.0
 40
2.5
  1
  
 50
90.0
  7
GREEKS
 72
     1
 11
378.4646328088708174
 21
1477.5216621630358986
 31
0.0
  0
TEXT
  5
18FA
  8
BEM
 10
242.9057507784685868
 20
1719.3794747136130354
 30
0.0
 40
2.5
  1
 
 50
90.0
 72
     4
 11
242.9057507784685868
 21
1720.5104270945651024
 31
0.0
  0
TEXT
  5
18FB
  8
BEM
 10
363.6894574524197878
 20
1298.5670913543340248
 30
0.0
 40
2.5
  1

 50
90.0
  7
GREEKS
  0
TEXT
  5
18FC
  8
VOLL
 10
383.8727181094549223
 20
1284.5008983346131117
 30
0.0
 40
1.8
  1

 50
90.0
  7
GREEKS
  0
TEXT
  5
18FD
  8
BEM
 10
379.1469937862343045
 20
1318.9889631738969911
 30
0.0
 40
2.5
  1

 50
90.0
 41
0.8
  7
GREEKS
  0
TEXT
  5
18FE
  8
BEM
 10
383.840762340286517
 20
1318.9889631738969911
 30
0.0
 40
2.5
  1

 50
90.0
 41
0.8
  7
GREEKS
  0
TEXT
  5
18FF
  8
BEM
 10
389.0786061589499809
 20
1318.9889631738969911
 30
0.0
 40
2.5
  1

 50
90.0
 41
0.8
  7
GREEKS
  0
TEXT
  5
1900
  8
BEM
 10
393.5837951090476281
 20
1318.9160186965229968
 30
0.0
 40
1.8
  1

 50
90.0
 41
0.8
  7
GREEKS
  0
TEXT
  5
1901
  8
BEM
 10
367.9922060128222938
 20
1306.2324478169120994
 30
0.0
 40
2.0
  1

 50
90.0
 41
0.8
  7
GREEKS
 72
     1
 11
367.9922060128222938
 21
1306.2324478169120994
 31
0.0
  0
TEXT
  5
1902
  8
TEXT
 10
378.314482576229409
 20
1616.3331665382049778
 30
0.0
 40
2.5
  1
  
 50
90.0
  7
GREEKS
 72
     1
 11
378.314482576229409
 21
1618.5950713001100212
 31
0.0
  0
TEXT
  5
1903
  8
BEM
 10
242.7556005458272068
 20
1860.4528838506880675
 30
0.0
 40
2.5
  1
 
 50
90.0
 72
     4
 11
242.7556005458272068
 21
1861.5838362316399071
 31
0.0
  0
TEXT
  5
1904
  8
VOLL
 10
395.8385778678448901
 20
1079.4052777707820496
 30
0.0
 40
1.8
  1

 50
90.0
  7
GREEKS
  0
TEXT
  5
1905
  8
TEXT
 10
390.2803423346193199
 20
1411.2375459743739157
 30
0.0
 40
2.5
  1
  
 50
90.0
  7
GREEKS
 72
     1
 11
390.2803423346193199
 21
1413.4994507362789591
 31
0.0
  0
TEXT
  5
1906
  8
BEM
 10
254.7214603042170893
 20
1655.3572632868570054
 30
0.0
 40
2.5
  1
 
 50
90.0
 72
     4
 11
254.7214603042170893
 21
1656.4882156678090723
 31
0.0
  0
TEXT
  5
1907
  8
BEM
 10
355.6853471692591029
 20
1244.7508908504319152
 30
0.0
 40
2.5
  1

 50
90.0
  7
GREEKS
  0
TEXT
  5
1908
  8
VOLL
 10
375.8686078262942942
 20
1230.6846978307100926
 30
0.0
 40
1.8
  1

 50
90.0
  7
GREEKS
  0
TEXT
  5
1909
  8
BEM
 10
371.1428835030737901
 20
1265.1727626699951088
 30
0.0
 40
2.5
  1

 50
90.0
 41
0.8
  7
GREEKS
  0
TEXT
  5
190A
  8
BEM
 10
375.8366520571257752
 20
1265.1727626699951088
 30
0.0
 40
2.5
  1

 50
90.0
 41
0.8
  7
GREEKS
  0
TEXT
  5
190B
  8
BEM
 10
381.0744958757894096
 20
1265.1727626699951088
 30
0.0
 40
2.5
  1

 50
90.0
 41
0.8
  7
GREEKS
  0
TEXT
  5
190C
  8
BEM
 10
385.579684825887
 20
1265.0998181926199777
 30
0.0
 40
1.8
  1

 50
90.0
 41
0.8
  7
GREEKS
  0
TEXT
  5
190D
  8
BEM
 10
359.9880957296617225
 20
1252.4162473130090802
 30
0.0
 40
2.0
  1

 50
90.0
 41
0.8
  7
GREEKS
 72
     1
 11
359.9880957296617225
 21
1252.4162473130090802
 31
0.0
  0
TEXT
  5
190E
  8
TEXT
 10
370.310372293068724
 20
1562.5169660343030955
 30
0.0
 40
2.5
  1
  
 50
90.0
  7
GREEKS
 72
     1
 11
370.310372293068724
 21
1564.7788707962079116
 31
0.0
  0
TEXT
  5
190F
  8
BEM
 10
234.7514902626666071
 20
1806.6366833467859578
 30
0.0
 40
2.5
  1
 
 50
90.0
 72
     4
 11
234.7514902626666071
 21
1807.7676357277380248
 31
0.0
  0
TEXT
  5
1910
  8
VOLL
 10
415.4291676008830905
 20
1357.8064166265280619
 30
0.0
 40
1.8
  1

 50
90.0
  7
GREEKS
  0
TEXT
  5
1911
  8
TEXT
 10
409.8709320676576908
 20
1689.6386848301210648
 30
0.0
 40
2.5
  1
  
 50
90.0
  7
GREEKS
 72
     1
 11
409.8709320676576908
 21
1691.9005895920261082
 31
0.0
  0
TEXT
  5
1912
  8
BEM
 10
274.3120500372555171
 20
1933.7584021426030176
 30
0.0
 40
2.5
  1
 
 50
90.0
 72
     4
 11
274.3120500372555171
 21
1934.8893545235559941
 31
0.0
  0
TEXT
  5
1913
  8
VOLL
 10
409.8736119658119037
 20
1515.3411337036900477
 30
0.0
 40
1.8
  1

 50
90.0
  7
GREEKS
  0
TEXT
  5
1914
  8
BEM
 10
405.1478876425913995
 20
1549.8291985429750639
 30
0.0
 40
2.5
  1

 50
90.0
 41
0.8
  7
GREEKS
  0
TEXT
  5
1915
  8
BEM
 10
409.8416561966434983
 20
1549.8291985429750639
 30
0.0
 40
2.5
  1

 50
90.0
 41
0.8
  7
GREEKS
  0
TEXT
  5
1916
  8
BEM
 10
415.0795000153070191
 20
1549.8291985429750639
 30
0.0
 40
2.5
  1

 50
90.0
 41
0.8
  7
GREEKS
  0
TEXT
  5
1917
  8
BEM
 10
419.5846889654046095
 20
1549.7562540655999328
 30
0.0
 40
1.8
  1

 50
90.0
 41
0.8
  7
GREEKS
  0
TEXT
  5
1918
  8
TEXT
 10
404.3153764325865041
 20
1847.1734019072830506
 30
0.0
 40
2.5
  1
  
 50
90.0
  7
GREEKS
 72
     1
 11
404.3153764325865041
 21
1849.4353066691869572
 31
0.0
  0
TEXT
  5
1919
  8
BEM
 10
268.7564944021842166
 20
2091.2931192197647761
 30
0.0
 40
2.5
  1
 
 50
90.0
 72
     4
 11
268.7564944021842166
 21
2092.4240716007179799
 31
0.0
  0
TEXT
  5
191A
  8
VOLL
 10
349.5543878051431079
 20
1102.2907518480719773
 30
0.0
 40
1.8
  1

 50
90.0
  7
GREEKS
  0
TEXT
  5
191B
  8
TEXT
 10
343.9961522719174809
 20
1434.1230200516649802
 30
0.0
 40
2.5
  1
  
 50
90.0
  7
GREEKS
 72
     1
 11
343.9961522719174809
 21
1436.3849248135700236
 31
0.0
  0
TEXT
  5
191C
  8
BEM
 10
208.4372702415151934
 20
1678.242737364146933
 30
0.0
 40
2.5
  1
 
 50
90.0
 72
     4
 11
208.4372702415151934
 21
1679.373689745099
 31
0.0
  0
TEXT
  5
191D
  8
BEM
 10
336.5331906097653132
 20
1540.3876274746789932
 30
0.0
 40
2.5
  1

 50
90.0
  7
GREEKS
  0
TEXT
  5
191E
  8
BEM
 10
351.4716384620854797
 20
1560.949413534390942
 30
0.0
 40
2.5
  1

 50
90.0
 41
0.8
  7
GREEKS
  0
TEXT
  5
191F
  8
BEM
 10
361.5500885267985041
 20
1560.8100835161039868
 30
0.0
 40
2.5
  1

 50
90.0
 41
0.8
  7
GREEKS
  0
TEXT
  5
1920
  8
BEM
 10
356.6043055904827952
 20
1560.8633433998659257
 30
0.0
 40
2.5
  1

 50
90.0
 41
0.8
  7
GREEKS
  0
TEXT
  5
1921
  8
BEM
 10
366.6448761664386211
 20
1560.905861437762951
 30
0.0
 40
1.8
  1

 50
90.0
 41
0.8
  7
GREEKS
  0
TEXT
  5
1922
  8
BEM
 10
341.2065316792703129
 20
1548.3335461941810536
 30
0.0
 40
2.0
  1

 50
90.0
 41
0.8
  7
GREEKS
 72
     1
 11
341.2065316792703129
 21
1548.3335461941810536
 31
0.0
  0
TEXT
  5
1923
  8
VOLL
 10
355.243153039528579
 20
1281.5286857188850718
 30
0.0
 40
1.8
  1

 50
90.0
  7
GREEKS
  0
TEXT
  5
1924
  8
TEXT
 10
349.6849175063031225
 20
1613.3609539224769378
 30
0.0
 40
2.5
  1
  
 50
90.0
  7
GREEKS
 72
     1
 11
349.6849175063031225
 21
1615.6228586843819812
 31
0.0
  0
TEXT
  5
1925
  8
BEM
 10
214.1260354759008067
 20
1857.4806712349588906
 30
0.0
 40
2.5
  1
 
 50
90.0
 72
     4
 11
214.1260354759008067
 21
1858.6116236159120945
 31
0.0
  0
TEXT
  5
1926
  8
BEM
 10
292.3042269387548799
 20
1396.0177040970520466
 30
0.0
 40
2.5
  1

 50
90.0
  7
GREEKS
  0
TEXT
  5
1927
  8
VOLL
 10
312.4874875957901281
 20
1381.9515110773299966
 30
0.0
 40
1.8
  1

 50
90.0
  7
GREEKS
  0
TEXT
  5
1928
  8
BEM
 10
307.7617632725695103
 20
1416.4395759166150128
 30
0.0
 40
2.5
  1

 50
90.0
 41
0.8
  7
GREEKS
  0
TEXT
  5
1929
  8
BEM
 10
312.4555318266216091
 20
1416.4395759166150128
 30
0.0
 40
2.5
  1

 50
90.0
 41
0.8
  7
GREEKS
  0
TEXT
  5
192A
  8
BEM
 10
317.693375645285073
 20
1416.4395759166150128
 30
0.0
 40
2.5
  1

 50
90.0
 41
0.8
  7
GREEKS
  0
TEXT
  5
192B
  8
BEM
 10
322.1985645953827202
 20
1416.3666314392410186
 30
0.0
 40
1.8
  1

 50
90.0
 41
0.8
  7
GREEKS
  0
TEXT
  5
192C
  8
BEM
 10
296.6069754991574996
 20
1403.6830605596298938
 30
0.0
 40
2.0
  1

 50
90.0
 41
0.8
  7
GREEKS
 72
     1
 11
296.6069754991574996
 21
1403.6830605596298938
 31
0.0
  0
TEXT
  5
192D
  8
TEXT
 10
306.9292520625645011
 20
1713.7837792809229995
 30
0.0
 40
2.5
  1
  
 50
90.0
  7
GREEKS
 72
     1
 11
306.9292520625645011
 21
1716.0456840428280429
 31
0.0
  0
TEXT
  5
192E
  8
BEM
 10
171.3703700321622989
 20
1957.9034965934049524
 30
0.0
 40
2.5
  1
 
 50
90.0
 72
     4
 11
171.3703700321622989
 21
1959.0344489743579288
 31
0.0
  0
TEXT
  5
192F
  8
VOLL
 10
395.7756053345253804
 20
1090.199303928216068
 30
0.0
 40
1.8
  1

 50
90.0
  7
GREEKS
  0
TEXT
  5
1930
  8
VOLL
 10
390.4834886188061205
 20
1179.8654778538889332
 30
0.0
 40
1.8
  1

 50
90.0
  7
GREEKS
  0
TEXT
  5
1931
  8
TEXT
 10
384.9252530855806071
 20
1511.6977460574819361
 30
0.0
 40
2.5
  1
  
 50
90.0
  7
GREEKS
 72
     1
 11
384.9252530855806071
 21
1513.9596508193869795
 31
0.0
  0
TEXT
  5
1932
  8
BEM
 10
249.366371055178405
 20
1755.8174633699638889
 30
0.0
 40
2.5
  1
 
 50
90.0
 72
     4
 11
249.366371055178405
 21
1756.9484157509159559
 31
0.0
  0
TEXT
  5
1933
  8
BEM
 10
366.8467744276446751
 20
1321.5068074998130214
 30
0.0
 40
2.5
  1

 50
90.0
  7
GREEKS
  0
TEXT
  5
1934
  8
VOLL
 10
387.0300350846798096
 20
1307.4406144800921084
 30
0.0
 40
1.8
  1

 50
90.0
  7
GREEKS
  0
TEXT
  5
1935
  8
BEM
 10
382.3043107614591918
 20
1341.9286793193768972
 30
0.0
 40
2.5
  1

 50
90.0
 41
0.8
  7
GREEKS
  0
TEXT
  5
1936
  8
BEM
 10
386.9980793155114043
 20
1341.9286793193768972
 30
0.0
 40
2.5
  1

 50
90.0
 41
0.8
  7
GREEKS
  0
TEXT
  5
1937
  8
BEM
 10
392.2359231341749251
 20
1341.9286793193768972
 30
0.0
 40
2.5
  1

 50
90.0
 41
0.8
  7
GREEKS
  0
TEXT
  5
1938
  8
BEM
 10
396.7411120842725154
 20
1341.8557348420019935
 30
0.0
 40
1.8
  1

 50
90.0
 41
0.8
  7
GREEKS
  0
TEXT
  5
1939
  8
BEM
 10
371.1495229880472948
 20
1329.172163962391096
 30
0.0
 40
2.0
  1

 50
90.0
 41
0.8
  7
GREEKS
 72
     1
 11
371.1495229880472948
 21
1329.172163962391096
 31
0.0
  0
TEXT
  5
193A
  8
TEXT
 10
381.4717995514542963
 20
1639.2728826836851113
 30
0.0
 40
2.5
  1
  
 50
90.0
  7
GREEKS
 72
     1
 11
381.4717995514542963
 21
1641.5347874455890178
 31
0.0
  0
TEXT
  5
193B
  8
BEM
 10
245.9129175210520941
 20
1883.3925999961670641
 30
0.0
 40
2.5
  1
 
 50
90.0
 72
     4
 11
245.9129175210520941
 21
1884.5235523771189037
 31
0.0
  0
TEXT
  5
193C
  8
VOLL
 10
353.8209612968051943
 20
1066.7276697308479925
 30
0.0
 40
1.8
  1

 50
90.0
  7
GREEKS
  0
TEXT
  5
193D
  8
VOLL
 10
348.5288445810858775
 20
1156.393843656521085
 30
0.0
 40
1.8
  1

 50
90.0
  7
GREEKS
  0
TEXT
  5
193E
  8
TEXT
 10
342.970609047860421
 20
1488.2261118601149974
 30
0.0
 40
2.5
  1
  
 50
90.0
  7
GREEKS
 72
     1
 11
342.970609047860421
 21
1490.4880166220189039
 31
0.0
  0
TEXT
  5
193F
  8
BEM
 10
207.4117270174581904
 20
1732.3458291725969502
 30
0.0
 40
2.5
  1
 
 50
90.0
 72
     4
 11
207.4117270174581904
 21
1733.4767815535490172
 31
0.0
  0
TEXT
  5
1940
  8
BEM
 10
324.892130389924489
 20
1298.0351733024460827
 30
0.0
 40
2.5
  1

 50
90.0
  7
GREEKS
  0
TEXT
  5
1941
  8
VOLL
 10
345.0753910469596235
 20
1283.9689802827249423
 30
0.0
 40
1.8
  1

 50
90.0
  7
GREEKS
  0
TEXT
  5
1942
  8
BEM
 10
340.3496667237391193
 20
1318.457045122009049
 30
0.0
 40
2.5
  1

 50
90.0
 41
0.8
  7
GREEKS
  0
TEXT
  5
1943
  8
BEM
 10
345.0434352777912181
 20
1318.457045122009049
 30
0.0
 40
2.5
  1

 50
90.0
 41
0.8
  7
GREEKS
  0
TEXT
  5
1944
  8
BEM
 10
350.2812790964547958
 20
1318.457045122009049
 30
0.0
 40
2.5
  1

 50
90.0
 41
0.8
  7
GREEKS
  0
TEXT
  5
1945
  8
BEM
 10
354.7864680465522724
 20
1318.3841006446350548
 30
0.0
 40
1.8
  1

 50
90.0
 41
0.8
  7
GREEKS
  0
TEXT
  5
1946
  8
BEM
 10
329.194878950326995
 20
1305.7005297650239299
 30
0.0
 40
2.0
  1

 50
90.0
 41
0.8
  7
GREEKS
 72
     1
 11
329.194878950326995
 21
1305.7005297650239299
 31
0.0
  0
TEXT
  5
1947
  8
TEXT
 10
339.5171555137341102
 20
1615.8012484863179452
 30
0.0
 40
2.5
  1
  
 50
90.0
  7
GREEKS
 72
     1
 11
339.5171555137341102
 21
1618.0631532482229886
 31
0.0
  0
TEXT
  5
1948
  8
BEM
 10
203.958273483331908
 20
1859.920965798799898
 30
0.0
 40
2.5
  1
 
 50
90.0
 72
     4
 11
203.958273483331908
 21
1861.051918179751965
 31
0.0
  0
TEXT
  5
1949
  8
VOLL
 10
305.595746625235904
 20
1098.7344446023100772
 30
0.0
 40
1.8
  1

 50
90.0
  7
GREEKS
  0
TEXT
  5
194A
  8
TEXT
 10
300.037511092010277
 20
1430.5667128059030802
 30
0.0
 40
2.5
  1
  
 50
90.0
  7
GREEKS
 72
     1
 11
300.037511092010277
 21
1432.8286175678078962
 31
0.0
  0
TEXT
  5
194B
  8
BEM
 10
164.4786290616081033
 20
1674.686430118385033
 30
0.0
 40
2.5
  1
 
 50
90.0
 72
     4
 11
164.4786290616081033
 21
1675.8173824993380094
 31
0.0
  0
TEXT
  5
194C
  8
BEM
 10
292.5745494298581093
 20
1536.8313202289170931
 30
0.0
 40
2.5
  1

 50
90.0
  7
GREEKS
  0
TEXT
  5
194D
  8
BEM
 10
307.5129972821782758
 20
1557.393106288629042
 30
0.0
 40
2.5
  1

 50
90.0
 41
0.8
  7
GREEKS
  0
TEXT
  5
194E
  8
BEM
 10
317.5914473468913002
 20
1557.2537762703420867
 30
0.0
 40
2.5
  1

 50
90.0
 41
0.8
  7
GREEKS
  0
TEXT
  5
194F
  8
BEM
 10
312.6456644105755913
 20
1557.3070361541049351
 30
0.0
 40
2.5
  1

 50
90.0
 41
0.8
  7
GREEKS
  0
TEXT
  5
1950
  8
BEM
 10
322.6862349865314172
 20
1557.349554192001051
 30
0.0
 40
1.8
  1

 50
90.0
 41
0.8
  7
GREEKS
  0
TEXT
  5
1951
  8
BEM
 10
297.247890499363109
 20
1544.7772389484189262
 30
0.0
 40
2.0
  1

 50
90.0
 41
0.8
  7
GREEKS
 72
     1
 11
297.247890499363109
 21
1544.7772389484189262
 31
0.0
  0
TEXT
  5
1952
  8
VOLL
 10
311.2845118596213752
 20
1277.9723784731229443
 30
0.0
 40
1.8
  1

 50
90.0
  7
GREEKS
  0
TEXT
  5
1953
  8
TEXT
 10
305.7262763263959187
 20
1609.8046466767159473
 30
0.0
 40
2.5
  1
  
 50
90.0
  7
GREEKS
 72
     1
 11
305.7262763263959187
 21
1612.0665514386200812
 31
0.0
  0
TEXT
  5
1954
  8
BEM
 10
170.167394295993688
 20
1853.9243639891979001
 30
0.0
 40
2.5
  1
 
 50
90.0
 72
     4
 11
170.167394295993688
 21
1855.055316370149967
 31
0.0
  0
TEXT
  5
1955
  8
BEM
 10
248.3455857588477045
 20
1392.4613968512899191
 30
0.0
 40
2.5
  1

 50
90.0
  7
GREEKS
  0
TEXT
  5
1956
  8
VOLL
 10
268.5288464158829242
 20
1378.3952038315680966
 30
0.0
 40
1.8
  1

 50
90.0
  7
GREEKS
  0
TEXT
  5
1957
  8
BEM
 10
263.8031220926623064
 20
1412.8832686708531128
 30
0.0
 40
2.5
  1

 50
90.0
 41
0.8
  7
GREEKS
  0
TEXT
  5
1958
  8
BEM
 10
268.4968906467144052
 20
1412.8832686708531128
 30
0.0
 40
2.5
  1

 50
90.0
 41
0.8
  7
GREEKS
  0
TEXT
  5
1959
  8
BEM
 10
273.734734465377926
 20
1412.8832686708531128
 30
0.0
 40
2.5
  1

 50
90.0
 41
0.8
  7
GREEKS
  0
TEXT
  5
195A
  8
BEM
 10
278.2399234154755163
 20
1412.8103241934788912
 30
0.0
 40
1.8
  1

 50
90.0
 41
0.8
  7
GREEKS
  0
TEXT
  5
195B
  8
BEM
 10
252.6483343192502105
 20
1400.1267533138679937
 30
0.0
 40
2.0
  1

 50
90.0
 41
0.8
  7
GREEKS
 72
     1
 11
252.6483343192502105
 21
1400.1267533138679937
 31
0.0
  0
TEXT
  5
195C
  8
TEXT
 10
262.9706108826572972
 20
1710.227472035162009
 30
0.0
 40
2.5
  1
  
 50
90.0
  7
GREEKS
 72
     1
 11
262.9706108826572972
 21
1712.4893767970659155
 31
0.0
  0
TEXT
  5
195D
  8
BEM
 10
127.4117288522551945
 20
1954.3471893476439618
 30
0.0
 40
2.5
  1
 
 50
90.0
 72
     4
 11
127.4117288522551945
 21
1955.4781417285960288
 31
0.0
  0
TEXT
  5
195E
  8
VOLL
 10
351.8169641546181765
 20
1086.6429966824539406
 30
0.0
 40
1.8
  1

 50
90.0
  7
GREEKS
  0
TEXT
  5
195F
  8
VOLL
 10
346.5248474388989166
 20
1176.3091706081270331
 30
0.0
 40
1.8
  1

 50
90.0
  7
GREEKS
  0
TEXT
  5
1960
  8
TEXT
 10
340.9666119056734033
 20
1508.141438811720036
 30
0.0
 40
2.5
  1
  
 50
90.0
  7
GREEKS
 72
     1
 11
340.9666119056734033
 21
1510.4033435736250794
 31
0.0
  0
TEXT
  5
1961
  8
BEM
 10
205.4077298752712011
 20
1752.2611561242019889
 30
0.0
 40
2.5
  1
 
 50
90.0
 72
     4
 11
205.4077298752712011
 21
1753.3921085051540558
 31
0.0
  0
TEXT
  5
1962
  8
BEM
 10
322.8881332477375281
 20
1317.9505002540520309
 30
0.0
 40
2.5
  1

 50
90.0
  7
GREEKS
  0
TEXT
  5
1963
  8
VOLL
 10
343.0713939047726058
 20
1303.8843072343299809
 30
0.0
 40
1.8
  1

 50
90.0
  7
GREEKS
  0
TEXT
  5
1964
  8
BEM
 10
338.3456695815519879
 20
1338.3723720736149971
 30
0.0
 40
2.5
  1

 50
90.0
 41
0.8
  7
GREEKS
  0
TEXT
  5
1965
  8
BEM
 10
343.0394381356042004
 20
1338.3723720736149971
 30
0.0
 40
2.5
  1

 50
90.0
 41
0.8
  7
GREEKS
  0
TEXT
  5
1966
  8
BEM
 10
348.2772819542677212
 20
1338.3723720736149971
 30
0.0
 40
2.5
  1

 50
90.0
 41
0.8
  7
GREEKS
  0
TEXT
  5
1967
  8
BEM
 10
352.7824709043653115
 20
1338.2994275962400934
 30
0.0
 40
1.8
  1

 50
90.0
 41
0.8
  7
GREEKS
  0
TEXT
  5
1968
  8
BEM
 10
327.1908818081399772
 20
1325.6158567166289686
 30
0.0
 40
2.0
  1

 50
90.0
 41
0.8
  7
GREEKS
 72
     1
 11
327.1908818081399772
 21
1325.6158567166289686
 31
0.0
  0
TEXT
  5
1969
  8
TEXT
 10
337.5131583715470924
 20
1635.7165754379229838
 30
0.0
 40
2.5
  1
  
 50
90.0
  7
GREEKS
 72
     1
 11
337.5131583715470924
 21
1637.9784801998280273
 31
0.0
  0
TEXT
  5
196A
  8
BEM
 10
201.9542763411448902
 20
1879.8362927504049367
 30
0.0
 40
2.5
  1
 
 50
90.0
 72
     4
 11
201.9542763411448902
 21
1880.9672451313579131
 31
0.0
  0
TEXT
  5
196B
  8
VOLL
 10
309.8623201168979904
 20
1063.1713624850860924
 30
0.0
 40
1.8
  1

 50
90.0
  7
GREEKS
  0
TEXT
  5
196C
  8
VOLL
 10
304.5702034011786736
 20
1152.8375364107589576
 30
0.0
 40
1.8
  1

 50
90.0
  7
GREEKS
  0
TEXT
  5
196D
  8
TEXT
 10
299.0119678679532171
 20
1484.6698046143519605
 30
0.0
 40
2.5
  1
  
 50
90.0
  7
GREEKS
 72
     1
 11
299.0119678679532171
 21
1486.9317093762570039
 31
0.0
  0
TEXT
  5
196E
  8
BEM
 10
163.4530858375509865
 20
1728.7895219268350502
 30
0.0
 40
2.5
  1
 
 50
90.0
 72
     4
 11
163.4530858375509865
 21
1729.9204743077868898
 31
0.0
  0
TEXT
  5
196F
  8
BEM
 10
280.9334892100172851
 20
1294.4788660566839553
 30
0.0
 40
2.5
  1

 50
90.0
  7
GREEKS
  0
TEXT
  5
1970
  8
VOLL
 10
301.1167498670524196
 20
1280.4126730369630423
 30
0.0
 40
1.8
  1

 50
90.0
  7
GREEKS
  0
TEXT
  5
1971
  8
BEM
 10
296.3910255438319155
 20
1314.9007378762480585
 30
0.0
 40
2.5
  1

 50
90.0
 41
0.8
  7
GREEKS
  0
TEXT
  5
1972
  8
BEM
 10
301.0847940978840143
 20
1314.9007378762480585
 30
0.0
 40
2.5
  1

 50
90.0
 41
0.8
  7
GREEKS
  0
TEXT
  5
1973
  8
BEM
 10
306.3226379165474782
 20
1314.9007378762480585
 30
0.0
 40
2.5
  1

 50
90.0
 41
0.8
  7
GREEKS
  0
TEXT
  5
1974
  8
BEM
 10
310.8278268666451254
 20
1314.8277933988729274
 30
0.0
 40
1.8
  1

 50
90.0
 41
0.8
  7
GREEKS
  0
TEXT
  5
1975
  8
BEM
 10
285.2362377704197911
 20
1302.1442225192620299
 30
0.0
 40
2.0
  1

 50
90.0
 41
0.8
  7
GREEKS
 72
     1
 11
285.2362377704197911
 21
1302.1442225192620299
 31
0.0
  0
TEXT
  5
1976
  8
TEXT
 10
295.5585143338269063
 20
1612.2449412405549083
 30
0.0
 40
2.5
  1
  
 50
90.0
  7
GREEKS
 72
     1
 11
295.5585143338269063
 21
1614.5068460024599517
 31
0.0
  0
TEXT
  5
1977
  8
BEM
 10
159.9996323034247041
 20
1856.364658553037998
 30
0.0
 40
2.5
  1
 
 50
90.0
 72
     4
 11
159.9996323034247041
 21
1857.495610933990065
 31
0.0
  0
TEXT
  5
1978
  8
VOLL
 10
261.516938125948684
 20
1085.1040466406009273
 30
0.0
 40
1.8
  1

 50
90.0
  7
GREEKS
  0
TEXT
  5
1979
  8
TEXT
 10
255.9587025927231991
 20
1416.9363148441939302
 30
0.0
 40
2.5
  1
  
 50
90.0
  7
GREEKS
 72
     1
 11
255.9587025927231991
 21
1419.1982196060989736
 31
0.0
  0
TEXT
  5
197A
  8
BEM
 10
120.3998205623208975
 20
1661.0560321566761104
 30
0.0
 40
2.5
  1
 
 50
90.0
 72
     4
 11
120.3998205623208975
 21
1662.1869845376290868
 31
0.0
  0
TEXT
  5
197B
  8
BEM
 10
241.1784038413505016
 20
1312.1279354304128901
 30
0.0
 40
2.5
  1

 50
90.0
  7
GREEKS
  0
TEXT
  5
197C
  8
VOLL
 10
261.3616644983856077
 20
1298.0617424106910676
 30
0.0
 40
1.8
  1

 50
90.0
  7
GREEKS
  0
TEXT
  5
197D
  8
BEM
 10
256.6359401751649898
 20
1332.5498072499760838
 30
0.0
 40
2.5
  1

 50
90.0
 41
0.8
  7
GREEKS
  0
TEXT
  5
197E
  8
BEM
 10
261.3297087292170886
 20
1332.5498072499760838
 30
0.0
 40
2.5
  1

 50
90.0
 41
0.8
  7
GREEKS
  0
TEXT
  5
197F
  8
BEM
 10
266.5675525478806094
 20
1332.5498072499760838
 30
0.0
 40
2.5
  1

 50
90.0
 41
0.8
  7
GREEKS
  0
TEXT
  5
1980
  8
BEM
 10
271.0727414979781997
 20
1332.4768627726009527
 30
0.0
 40
1.8
  1

 50
90.0
 41
0.8
  7
GREEKS
  0
TEXT
  5
1981
  8
BEM
 10
245.4811524017530076
 20
1319.7932918929900552
 30
0.0
 40
2.0
  1

 50
90.0
 41
0.8
  7
GREEKS
 72
     1
 11
245.4811524017530076
 21
1319.7932918929900552
 31
0.0
  0
TEXT
  5
1982
  8
TEXT
 10
255.8034289651600943
 20
1629.8940106142840705
 30
0.0
 40
2.5
  1
  
 50
90.0
  7
GREEKS
 72
     1
 11
255.8034289651600943
 21
1632.1559153761888865
 31
0.0
  0
TEXT
  5
1983
  8
BEM
 10
120.2445469347578069
 20
1874.0137279267660233
 30
0.0
 40
2.5
  1
 
 50
90.0
 72
     4
 11
120.2445469347578069
 21
1875.1446803077189998
 31
0.0
  0
TEXT
  5
1984
  8
VOLL
 10
322.8153410932304723
 20
1122.6473612016359311
 30
0.0
 40
1.8
  1

 50
90.0
  7
GREEKS
  0
TEXT
  5
1985
  8
TEXT
 10
317.2571055600050158
 20
1454.479629405228934
 30
0.0
 40
2.5
  1
  
 50
90.0
  7
GREEKS
 72
     1
 11
317.2571055600050158
 21
1456.741534167133068
 31
0.0
  0
TEXT
  5
1986
  8
BEM
 10
181.6982235296028136
 20
1698.5993467177108869
 30
0.0
 40
2.5
  1
 
 50
90.0
 72
     4
 11
181.6982235296028136
 21
1699.7302990986629538
 31
0.0
  0
TEXT
  5
1987
  8
BEM
 10
309.794143897852905
 20
1560.7442368282420375
 30
0.0
 40
2.5
  1

 50
90.0
  7
GREEKS
  0
TEXT
  5
1988
  8
BEM
 10
324.7325917501730146
 20
1581.3060228879539864
 30
0.0
 40
2.5
  1

 50
90.0
 41
0.8
  7
GREEKS
  0
TEXT
  5
1989
  8
BEM
 10
334.8110418148860958
 20
1581.1666928696679406
 30
0.0
 40
2.5
  1

 50
90.0
 41
0.8
  7
GREEKS
  0
TEXT
  5
198A
  8
BEM
 10
329.8652588785702733
 20
1581.2199527534301069
 30
0.0
 40
2.5
  1

 50
90.0
 41
0.8
  7
GREEKS
  0
TEXT
  5
198B
  8
BEM
 10
339.9058294545259855
 20
1581.2624707913259954
 30
0.0
 40
1.8
  1

 50
90.0
 41
0.8
  7
GREEKS
  0
TEXT
  5
198C
  8
BEM
 10
314.467484967357791
 20
1568.6901555477440979
 30
0.0
 40
2.0
  1

 50
90.0
 41
0.8
  7
GREEKS
 72
     1
 11
314.467484967357791
 21
1568.6901555477440979
 31
0.0
  0
TEXT
  5
198D
  8
VOLL
 10
328.504106327616114
 20
1301.8852950724478887
 30
0.0
 40
1.8
  1

 50
90.0
  7
GREEKS
  0
TEXT
  5
198E
  8
TEXT
 10
322.9458707943904869
 20
1633.7175632760408917
 30
0.0
 40
2.5
  1
  
 50
90.0
  7
GREEKS
 72
     1
 11
322.9458707943904869
 21
1635.9794680379459351
 31
0.0
  0
TEXT
  5
198F
  8
BEM
 10
187.3869887639883984
 20
1877.8372805885230719
 30
0.0
 40
2.5
  1
 
 50
90.0
 72
     4
 11
187.3869887639883984
 21
1878.9682329694749114
 31
0.0
  0
TEXT
  5
1990
  8
BEM
 10
265.5651802268424149
 20
1416.3743134506150909
 30
0.0
 40
2.5
  1

 50
90.0
  7
GREEKS
  0
TEXT
  5
1991
  8
VOLL
 10
285.7484408838774925
 20
1402.3081204308939505
 30
0.0
 40
1.8
  1

 50
90.0
  7
GREEKS
  0
TEXT
  5
1992
  8
BEM
 10
281.0227165606569883
 20
1436.7961852701789667
 30
0.0
 40
2.5
  1

 50
90.0
 41
0.8
  7
GREEKS
  0
TEXT
  5
1993
  8
BEM
 10
285.7164851147090872
 20
1436.7961852701789667
 30
0.0
 40
2.5
  1

 50
90.0
 41
0.8
  7
GREEKS
  0
TEXT
  5
1994
  8
BEM
 10
290.9543289333726079
 20
1436.7961852701789667
 30
0.0
 40
2.5
  1

 50
90.0
 41
0.8
  7
GREEKS
  0
TEXT
  5
1995
  8
BEM
 10
295.4595178834701983
 20
1436.7232407928040629
 30
0.0
 40
1.8
  1

 50
90.0
 41
0.8
  7
GREEKS
  0
TEXT
  5
1996
  8
BEM
 10
269.8679287872449208
 20
1424.0396699131929381
 30
0.0
 40
2.0
  1

 50
90.0
 41
0.8
  7
GREEKS
 72
     1
 11
269.8679287872449208
 21
1424.0396699131929381
 31
0.0
  0
TEXT
  5
1997
  8
TEXT
 10
280.1902053506519792
 20
1734.1403886344869534
 30
0.0
 40
2.5
  1
  
 50
90.0
  7
GREEKS
 72
     1
 11
280.1902053506519792
 21
1736.4022933963910873
 31
0.0
  0
TEXT
  5
1998
  8
BEM
 10
144.6313233202498054
 20
1978.2601059469689062
 30
0.0
 40
2.5
  1
 
 50
90.0
 72
     4
 11
144.6313233202498054
 21
1979.3910583279209732
 31
0.0
  0
TEXT
  5
1999
  8
VOLL
 10
369.0365586226129722
 20
1110.5559132817791124
 30
0.0
 40
1.8
  1

 50
90.0
  7
GREEKS
  0
TEXT
  5
199A
  8
VOLL
 10
363.7444419068937123
 20
1200.222087207452887
 30
0.0
 40
1.8
  1

 50
90.0
  7
GREEKS
  0
TEXT
  5
199B
  8
TEXT
 10
358.1862063736680852
 20
1532.0543554110449804
 30
0.0
 40
2.5
  1
  
 50
90.0
  7
GREEKS
 72
     1
 11
358.1862063736680852
 21
1534.3162601729500238
 31
0.0
  0
TEXT
  5
199C
  8
BEM
 10
222.6273243432659967
 20
1776.1740727235269333
 30
0.0
 40
2.5
  1
 
 50
90.0
 72
     4
 11
222.6273243432659967
 21
1777.3050251044790002
 31
0.0
  0
TEXT
  5
199D
  8
BEM
 10
340.1077277157322101
 20
1341.8634168533760658
 30
0.0
 40
2.5
  1

 50
90.0
  7
GREEKS
  0
TEXT
  5
199E
  8
VOLL
 10
360.2909883727674014
 20
1327.7972238336549253
 30
0.0
 40
1.8
  1

 50
90.0
  7
GREEKS
  0
TEXT
  5
199F
  8
BEM
 10
355.5652640495467267
 20
1362.2852886729399415
 30
0.0
 40
2.5
  1

 50
90.0
 41
0.8
  7
GREEKS
  0
TEXT
  5
19A0
  8
BEM
 10
360.2590326035988824
 20
1362.2852886729399415
 30
0.0
 40
2.5
  1

 50
90.0
 41
0.8
  7
GREEKS
  0
TEXT
  5
19A1
  8
BEM
 10
365.4968764222624031
 20
1362.2852886729399415
 30
0.0
 40
2.5
  1

 50
90.0
 41
0.8
  7
GREEKS
  0
TEXT
  5
19A2
  8
BEM
 10
370.0020653723599935
 20
1362.2123441955659473
 30
0.0
 40
1.8
  1

 50
90.0
 41
0.8
  7
GREEKS
  0
TEXT
  5
19A3
  8
BEM
 10
344.410476276134716
 20
1349.528773315953913
 30
0.0
 40
2.0
  1

 50
90.0
 41
0.8
  7
GREEKS
 72
     1
 11
344.410476276134716
 21
1349.528773315953913
 31
0.0
  0
TEXT
  5
19A4
  8
TEXT
 10
354.7327528395417744
 20
1659.6294920372479282
 30
0.0
 40
2.5
  1
  
 50
90.0
  7
GREEKS
 72
     1
 11
354.7327528395417744
 21
1661.8913967991529717
 31
0.0
  0
TEXT
  5
19A5
  8
BEM
 10
219.1738708091396859
 20
1903.7492093497310179
 30
0.0
 40
2.5
  1
 
 50
90.0
 72
     4
 11
219.1738708091396859
 21
1904.8801617306830849
 31
0.0
  0
TEXT
  5
19A6
  8
VOLL
 10
327.081914584892786
 20
1087.0842790844119463
 30
0.0
 40
1.8
  1

 50
90.0
  7
GREEKS
  0
TEXT
  5
19A7
  8
VOLL
 10
321.7897978691734124
 20
1176.7504530100850388
 30
0.0
 40
1.8
  1

 50
90.0
  7
GREEKS
  0
TEXT
  5
19A8
  8
TEXT
 10
316.2315623359478991
 20
1508.5827212136780417
 30
0.0
 40
2.5
  1
  
 50
90.0
  7
GREEKS
 72
     1
 11
316.2315623359478991
 21
1510.8446259755830852
 31
0.0
  0
TEXT
  5
19A9
  8
BEM
 10
180.6726803055458106
 20
1752.7024385261599946
 30
0.0
 40
2.5
  1
 
 50
90.0
 72
     4
 11
180.6726803055458106
 21
1753.8333909071120615
 31
0.0
  0
TEXT
  5
19AA
  8
BEM
 10
298.1530836780120239
 20
1318.3917826560088997
 30
0.0
 40
2.5
  1

 50
90.0
  7
GREEKS
  0
TEXT
  5
19AB
  8
VOLL
 10
318.3363443350472153
 20
1304.3255896362879867
 30
0.0
 40
1.8
  1

 50
90.0
  7
GREEKS
  0
TEXT
  5
19AC
  8
BEM
 10
313.6106200118264837
 20
1338.8136544755720934
 30
0.0
 40
2.5
  1

 50
90.0
 41
0.8
  7
GREEKS
  0
TEXT
  5
19AD
  8
BEM
 10
318.3043885658786962
 20
1338.8136544755720934
 30
0.0
 40
2.5
  1

 50
90.0
 41
0.8
  7
GREEKS
  0
TEXT
  5
19AE
  8
BEM
 10
323.542232384542217
 20
1338.8136544755720934
 30
0.0
 40
2.5
  1

 50
90.0
 41
0.8
  7
GREEKS
  0
TEXT
  5
19AF
  8
BEM
 10
328.0474213346398074
 20
1338.7407099981980991
 30
0.0
 40
1.8
  1

 50
90.0
 41
0.8
  7
GREEKS
  0
TEXT
  5
19B0
  8
BEM
 10
302.4558322384144731
 20
1326.0571391185869743
 30
0.0
 40
2.0
  1

 50
90.0
 41
0.8
  7
GREEKS
 72
     1
 11
302.4558322384144731
 21
1326.0571391185869743
 31
0.0
  0
TEXT
  5
19B1
  8
TEXT
 10
312.7781088018215883
 20
1636.1578578398809896
 30
0.0
 40
2.5
  1
  
 50
90.0
  7
GREEKS
 72
     1
 11
312.7781088018215883
 21
1638.419762601786033
 31
0.0
  0
TEXT
  5
19B2
  8
BEM
 10
177.2192267714194998
 20
1880.2775751523629424
 30
0.0
 40
2.5
  1
 
 50
90.0
 72
     4
 11
177.2192267714194998
 21
1881.4085275333150094
 31
0.0
  0
TEXT
  5
19B3
  8
VOLL
 10
278.7365325939433092
 20
1109.016963239926099
 30
0.0
 40
1.8
  1

 50
90.0
  7
GREEKS
  0
TEXT
  5
19B4
  8
TEXT
 10
273.1782970607179095
 20
1440.849231443519102
 30
0.0
 40
2.5
  1
  
 50
90.0
  7
GREEKS
 72
     1
 11
273.1782970607179095
 21
1443.111136205423918
 31
0.0
  0
TEXT
  5
19B5
  8
BEM
 10
137.6194150303155936
 20
1684.9689487560010548
 30
0.0
 40
2.5
  1
 
 50
90.0
 72
     4
 11
137.6194150303155936
 21
1686.0999011369528944
 31
0.0
  0
TEXT
  5
19B6
  8
BEM
 10
258.397998309345212
 20
1336.0408520297380619
 30
0.0
 40
2.5
  1

 50
90.0
  7
GREEKS
  0
TEXT
  5
19B7
  8
VOLL
 10
278.5812589663801759
 20
1321.974659010016012
 30
0.0
 40
1.8
  1

 50
90.0
  7
GREEKS
  0
TEXT
  5
19B8
  8
BEM
 10
273.8555346431596149
 20
1356.4627238493010282
 30
0.0
 40
2.5
  1

 50
90.0
 41
0.8
  7
GREEKS
  0
TEXT
  5
19B9
  8
BEM
 10
278.5493031972118274
 20
1356.4627238493010282
 30
0.0
 40
2.5
  1

 50
90.0
 41
0.8
  7
GREEKS
  0
TEXT
  5
19BA
  8
BEM
 10
283.7871470158752913
 20
1356.4627238493010282
 30
0.0
 40
2.5
  1

 50
90.0
 41
0.8
  7
GREEKS
  0
TEXT
  5
19BB
  8
BEM
 10
288.2923359659728817
 20
1356.3897793719270339
 30
0.0
 40
1.8
  1

 50
90.0
 41
0.8
  7
GREEKS
  0
TEXT
  5
19BC
  8
BEM
 10
262.7007468697477179
 20
1343.7062084923149996
 30
0.0
 40
2.0
  1

 50
90.0
 41
0.8
  7
GREEKS
 72
     1
 11
262.7007468697477179
 21
1343.7062084923149996
 31
0.0
  0
TEXT
  5
19BD
  8
TEXT
 10
273.0230234331547194
 20
1653.8069272136099244
 30
0.0
 40
2.5
  1
  
 50
90.0
  7
GREEKS
 72
     1
 11
273.0230234331547194
 21
1656.0688319755140583
 31
0.0
  0
TEXT
  5
19BE
  8
BEM
 10
137.4641414027524888
 20
1897.9266445260909677
 30
0.0
 40
2.5
  1
 
 50
90.0
 72
     4
 11
137.4641414027524888
 21
1899.0575969070430347
 31
0.0
  0
TEXT
  5
19BF
  8
VOLL
 10
285.1440123646373763
 20
985.1101047032132101
 30
0.0
 40
1.8
  1

 50
90.0
  7
GREEKS
  0
TEXT
  5
19C0
  8
TEXT
 10
279.5857768314119198
 20
1316.9423729068059856
 30
0.0
 40
2.5
  1
  
 50
90.0
  7
GREEKS
 72
     1
 11
279.5857768314119198
 21
1319.204277668711029
 31
0.0
  0
TEXT
  5
19C1
  8
BEM
 10
144.026894801009604
 20
1561.0620902192879385
 30
0.0
 40
2.5
  1
 
 50
90.0
 72
     4
 11
144.026894801009604
 21
1562.1930426002400054
 31
0.0
  0
TEXT
  5
19C2
  8
BEM
 10
272.1228151692596953
 20
1423.2069803298199986
 30
0.0
 40
2.5
  1

 50
90.0
  7
GREEKS
  0
TEXT
  5
19C3
  8
BEM
 10
287.0612630215798049
 20
1443.7687663895319474
 30
0.0
 40
2.5
  1

 50
90.0
 41
0.8
  7
GREEKS
  0
TEXT
  5
19C4
  8
BEM
 10
297.1397130862928861
 20
1443.6294363712449922
 30
0.0
 40
2.5
  1

 50
90.0
 41
0.8
  7
GREEKS
  0
TEXT
  5
19C5
  8
BEM
 10
292.1939301499771773
 20
1443.682696255008068
 30
0.0
 40
2.5
  1

 50
90.0
 41
0.8
  7
GREEKS
  0
TEXT
  5
19C6
  8
BEM
 10
302.2345007259328895
 20
1443.725214292903047
 30
0.0
 40
1.8
  1

 50
90.0
 41
0.8
  7
GREEKS
  0
TEXT
  5
19C7
  8
BEM
 10
276.7961562387645813
 20
1431.152899049322059
 30
0.0
 40
2.0
  1

 50
90.0
 41
0.8
  7
GREEKS
 72
     1
 11
276.7961562387645813
 21
1431.152899049322059
 31
0.0
  0
POINT
  5
20A1
  8
STEMPEL
 10
77.7502267294814828
 20
0.0
 30
0.0
210
0.0
220
-1.0
230
0.0000000000000001
  0
INSERT
  5
2429
  8
STEMPEL
  2
A$C2B3D6D54
 10
0.0192659215767525
 20
-172.5192682903056891
 30
0.0
  0
INSERT
  5
2473
  8
STEMPEL
  2
A$C72F100DE
 10
0.0
 20
0.0
 30
0.0
  0
VIEWPORT
  5
20DB
 67
     1
  8
0
 10
4.9168240128782301
 20
7.148739704404143
 30
0.0
 40
28.827907822744681
 41
14.6819424303088795
 68
     1
 69
     1
1001
ACAD
1000
MVIEW
1002
{
1070
    16
1010
0.0
1020
0.0
1030
0.0
1010
0.0
1020
0.0
1030
1.0
1040
0.0
1040
14.6819424303088795
1040
4.9168240128782301
1040
7.148739704404143
1040
50.0
1040
0.0
1040
0.0
1070
     0
1070
  1500
1070
     1
1070
     1
1070
     0
1070
     0
1070
     0
1070
     0
1040
0.0
1040
0.0
1040
0.0
1040
10.0
1040
10.0
1040
10.0
1040
10.0
1070
     0
1002
{
1002
}
1002
}
  0
VIEWPORT
  5
20DF
 67
     1
  8
DEFPOINTS
 10
4.9168114312670781
 20
7.1486694464680598
 30
0.0
 40
10.2111923186105606
 41
14.5660142713375897
 68
     2
 69
     2
1001
ACAD
1000
MVIEW
1002
{
1070
    16
1010
0.0
1020
0.0
1030
0.0
1010
0.0
1020
0.0
1030
1.0
1040
0.0
1040
617.950202551956977
1040
207.3298045725076975
1040
302.3122813479474189
1040
50.0
1040
0.0
1040
0.0
1070
     0
1070
  1500
1070
     1
1070
     0
1070
     0
1070
     0
1070
     0
1070
     0
1040
0.0
1040
0.0
1040
0.0
1040
1.0
1040
1.0
1040
10.0
1040
10.0
1070
     0
1002
{
1002
}
1002
}
  0
VIEWPORT
  5
20E3
 67
     1
  8
DEFPOINTS
 10
8.1742000935205006
 20
6.5405768787557959
 30
0.0
 40
2.5664077423193201
 41
3.9638362209284841
 68
     3
 69
     3
1001
ACAD
1000
MVIEW
1002
{
1070
    16
1010
776.2139154917223323
1020
367.114684447798993
1030
-2.6228456811686152
1010
0.0
1020
81.3162656693313437
1030
550.2345191602987597
1040
3.225100800510432
1040
392.1904718711332976
1040
0.0
1040
0.0
1040
50.0
1040
0.0
1040
0.0
1070
     0
1070
  1500
1070
     1
1070
     0
1070
     0
1070
     0
1070
     0
1070
     0
1040
0.0
1040
0.0
1040
0.0
1040
1.0
1040
1.0
1040
10.0
1040
10.0
1070
     0
1002
{
1002
}
1002
}
  0
ENDSEC
  0
EOF
