  0
SECTION
  2
HEADER
  9
$ACADVER
  1
AC1009
  9
$INSBASE
 10
0.0
 20
0.0
 30
0.0
  9
$EXTMIN
 10
-110.0161730824221991
 20
-270.0263661188383821
 30
-0.0000000000000819
  9
$EXTMAX
 10
110.0354012637812957
 20
325.0068980425207883
 30
0.0000000000000097
  9
$LIMMIN
 10
0.0
 20
0.0
  9
$LIMMAX
 10
419.9999999999998863
 20
594.0
  9
$ORTHOMODE
 70
     1
  9
$REGENMODE
 70
     1
  9
$FILLMODE
 70
     1
  9
$QTEXTMODE
 70
     0
  9
$MIRRTEXT
 70
     1
  9
$DRAGMODE
 70
     2
  9
$LTSCALE
 40
20.0
  9
$OSMODE
 70
  2559
  9
$ATTMODE
 70
     1
  9
$TEXTSIZE
 40
3.5
  9
$TRACEWID
 40
0.5
  9
$TEXTSTYLE
  7
STANDARD
  9
$CLAYER
  8
STEMPEL
  9
$CELTYPE
  6
BYLAYER
  9
$CECOLOR
 62
   256
  9
$DIMSCALE
 40
2.0
  9
$DIMASZ
 40
3.5
  9
$DIMEXO
 40
1.0
  9
$DIMDLI
 40
7.0
  9
$DIMRND
 40
0.0
  9
$DIMDLE
 40
0.0
  9
$DIMEXE
 40
1.0
  9
$DIMTP
 40
1.5
  9
$DIMTM
 40
0.0
  9
$DIMTXT
 40
3.5
  9
$DIMCEN
 40
1.5
  9
$DIMTSZ
 40
0.0
  9
$DIMTOL
 70
     0
  9
$DIMLIM
 70
     0
  9
$DIMTIH
 70
     0
  9
$DIMTOH
 70
     0
  9
$DIMSE1
 70
     0
  9
$DIMSE2
 70
     0
  9
$DIMTAD
 70
     1
  9
$DIMZIN
 70
     8
  9
$DIMBLK
  1

  9
$DIMASO
 70
     1
  9
$DIMSHO
 70
     0
  9
$DIMPOST
  1

  9
$DIMAPOST
  1

  9
$DIMALT
 70
     0
  9
$DIMALTD
 70
     2
  9
$DIMALTF
 40
25.3999999999999986
  9
$DIMLFAC
 40
1.0
  9
$DIMTOFL
 70
     1
  9
$DIMTVP
 40
0.0
  9
$DIMTIX
 70
     0
  9
$DIMSOXD
 70
     0
  9
$DIMSAH
 70
     0
  9
$DIMBLK1
  1

  9
$DIMBLK2
  1

  9
$DIMSTYLE
  2
STANDARD
  9
$DIMCLRD
 70
     0
  9
$DIMCLRE
 70
     0
  9
$DIMCLRT
 70
     1
  9
$DIMTFAC
 40
0.5
  9
$DIMGAP
 40
1.5
  9
$LUNITS
 70
     2
  9
$LUPREC
 70
     2
  9
$SKETCHINC
 40
1.0
  9
$FILLETRAD
 40
0.0
  9
$AUNITS
 70
     0
  9
$AUPREC
 70
     0
  9
$MENU
  1
ACAD
  9
$ELEVATION
 40
0.0
  9
$PELEVATION
 40
0.0
  9
$THICKNESS
 40
0.0
  9
$LIMCHECK
 70
     0
  9
$BLIPMODE
 70
     0
  9
$CHAMFERA
 40
0.0
  9
$CHAMFERB
 40
0.0
  9
$SKPOLY
 70
     0
  9
$TDCREATE
 40
2455397.8646990740671754
  9
$TDUPDATE
 40
2458389.6227199081331491
  9
$TDINDWG
 40
0.1833554861
  9
$TDUSRTIMER
 40
0.1833554861
  9
$USRTIMER
 70
     1
  9
$ANGBASE
 50
0.0
  9
$ANGDIR
 70
     0
  9
$PDMODE
 70
     0
  9
$PDSIZE
 40
0.0
  9
$PLINEWID
 40
0.0
  9
$COORDS
 70
     1
  9
$SPLFRAME
 70
     0
  9
$SPLINETYPE
 70
     6
  9
$SPLINESEGS
 70
     8
  9
$ATTDIA
 70
     1
  9
$ATTREQ
 70
     1
  9
$HANDLING
 70
     1
  9
$HANDSEED
  5
1ADF
  9
$SURFTAB1
 70
     6
  9
$SURFTAB2
 70
     6
  9
$SURFTYPE
 70
     6
  9
$SURFU
 70
     6
  9
$SURFV
 70
     6
  9
$UCSNAME
  2

  9
$UCSORG
 10
0.0
 20
0.0
 30
0.0
  9
$UCSXDIR
 10
1.0
 20
0.0
 30
0.0
  9
$UCSYDIR
 10
0.0
 20
1.0
 30
0.0
  9
$PUCSNAME
  2

  9
$PUCSORG
 10
0.0
 20
0.0
 30
0.0
  9
$PUCSXDIR
 10
1.0
 20
0.0
 30
0.0
  9
$PUCSYDIR
 10
0.0
 20
1.0
 30
0.0
  9
$USERI1
 70
     0
  9
$USERI2
 70
     0
  9
$USERI3
 70
     0
  9
$USERI4
 70
     0
  9
$USERI5
 70
     0
  9
$USERR1
 40
0.0
  9
$USERR2
 40
0.0
  9
$USERR3
 40
0.0
  9
$USERR4
 40
0.0
  9
$USERR5
 40
0.0
  9
$WORLDVIEW
 70
     1
  9
$SHADEDGE
 70
     3
  9
$SHADEDIF
 70
    70
  9
$TILEMODE
 70
     1
  9
$MAXACTVP
 70
    16
  9
$PLIMCHECK
 70
     0
  9
$PEXTMIN
 10
-0.1890718712180117
 20
-0.1352325116438777
 30
-0.0000000000112498
  9
$PEXTMAX
 10
8.7882075934037651
 20
12.7631997077556694
 30
0.0000000000002956
  9
$PLIMMIN
 10
-0.2500002402958907
 20
-0.2499999962453767
  9
$PLIMMAX
 10
10.7499995194082203
 20
8.2499997634587334
  9
$UNITMODE
 70
     0
  9
$VISRETAIN
 70
     0
  9
$PLINEGEN
 70
     0
  9
$PSLTSCALE
 70
     0
  0
ENDSEC
  0
SECTION
  2
TABLES
  0
TABLE
  2
VPORT
 70
     1
  0
VPORT
  2
*ACTIVE
 70
     0
 10
0.0
 20
0.0
 11
1.0
 21
1.0
 12
0.0096140906795199
 22
-80.0135716236080157
 13
0.0
 23
0.0
 14
1.0
 24
1.0
 15
10.0
 25
10.0
 16
-0.0000000000002784
 26
0.0
 36
1253.6004918745441046
 17
0.0
 27
107.5038375854492045
 37
-0.0000000000000361
 40
598.0665688214850206
 41
1.868197278911564
 42
50.0
 43
0.0
 44
0.0
 50
0.0
 51
0.0
 71
     0
 72
  1500
 73
     1
 74
     0
 75
     0
 76
     0
 77
     0
 78
     0
  0
ENDTAB
  0
TABLE
  2
LTYPE
 70
     5
  0
LTYPE
  2
CONTINUOUS
 70
     0
  3
Solid line
 72
    65
 73
     0
 40
0.0
  0
LTYPE
  2
PHANTOM2
 70
     0
  3
Phantom (.5x) ___ _ _ ___ _ _ ___ _ _ ___ _ _
 72
    65
 73
     6
 40
1.25
 49
0.625
 49
-0.125
 49
0.125
 49
-0.125
 49
0.125
 49
-0.125
  0
LTYPE
  2
VERDECKT
 70
     0
  3
_ _ _ _ _ _ _ _ _ _ _ _ _ _ _ _ _ _ _ _ _ _ _
 72
    65
 73
     2
 40
0.375
 49
0.25
 49
-0.125
  0
ENDTAB
  0
TABLE
  2
LAYER
 70
    11
  0
LAYER
  2
0
 70
     0
 62
     7
  6
CONTINUOUS
  0
LAYER
  2
VOLL
 70
     0
 62
     1
  6
CONTINUOUS
  0
LAYER
  2
BEM
 70
     0
 62
     7
  6
CONTINUOUS
  0
LAYER
  2
STEMPEL
 70
     0
 62
     3
  6
CONTINUOUS
  0
LAYER
  2
TEXT
 70
     0
 62
     7
  6
CONTINUOUS
  0
LAYER
  2
DEFPOINTS
 70
     0
 62
     7
  6
CONTINUOUS
  0
ENDTAB
  0
TABLE
  2
STYLE
 70
     2
  0
STYLE
  2
STANDARD
 70
     0
 40
0.0
 41
0.8
 50
0.0
 71
     0
 42
3.5
  3
simplex.shx
  4

  0
STYLE
  2
GREEKS
 70
     0
 40
0.0
 41
0.8
 50
0.0
 71
     0
 42
2.5
  3
SIMPLEX.shx
  4

  0
ENDTAB
  0
TABLE
  2
VIEW
 70
     1
  0
ENDTAB
  0
TABLE
  2
UCS
 70
     0
  0
ENDTAB
  0
TABLE
  2
APPID
 70
    14
  0
APPID
  2
ACAD
 70
     0
  0
APPID
  2
ACAD_EXEMPT_FROM_CAD_STANDARDS
 70
     0
  0
APPID
  2
ACAD_NAV_VCDISPLAY
 70
     0
  0
APPID
  2
ACAD_MLEADERVER
 70
     0
  0
APPID
  2
ACAD_PSEXT
 70
     0
  0
APPID
  2
ACAD_DSTYLE_DIMRADIAL_EXTENSION
 70
     0
  0
APPID
  2
GRADIENTCOLOR1ACI
 70
     0
  0
APPID
  2
GRADIENTCOLOR2ACI
 70
     0
  0
APPID
  2
ACAECLAYERSTANDARD
 70
     0
  0
APPID
  2
ACCMTRANSPARENCY
 70
     0
  0
APPID
  2
ACAD_OBJECT_CHANGE_GUID
 70
     0
  0
APPID
  2
ACAUTHENVIRON
 70
     0
  0
APPID
  2
ACDBDYNAMICBLOCKTRUENAME
 70
     0
  0
APPID
  2
ACDBDYNAMICBLOCKGUID
 70
     0
  0
ENDTAB
  0
TABLE
  2
DIMSTYLE
 70
     2
  0
DIMSTYLE
  2
STANDARD
 70
     0
  3

  4

  5

  6

  7

 40
1.0
 41
0.18
 42
0.0625
 43
0.38
 44
0.18
 45
0.0
 46
0.0
 47
0.0
 48
0.0
140
0.18
141
0.09
142
0.0
143
25.3999999999999986
144
1.0
145
0.0
146
1.0
147
0.09
 71
     0
 72
     0
 73
     1
 74
     1
 75
     0
 76
     0
 77
     0
 78
     0
170
     0
171
     2
172
     0
173
     0
174
     0
175
     0
176
     0
177
     0
178
     0
  0
ENDTAB
  0
ENDSEC
  0
SECTION
  2
BLOCKS
  0
BLOCK
  8
0
  2
$MODEL_SPACE
 70
     0
 10
0.0
 20
0.0
 30
0.0
  3
$MODEL_SPACE
  1

  0
ENDBLK
  5
36
  8
0
  0
BLOCK
 67
     1
  8
0
  2
$PAPER_SPACE
 70
     0
 10
0.0
 20
0.0
 30
0.0
  3
$PAPER_SPACE
  1

  0
ENDBLK
  5
34
 67
     1
  8
0
  0
BLOCK
  8
0
  2
A$C22E75416
 70
     0
 10
0.0
 20
0.0
 30
0.0
  3
A$C22E75416
  1

  0
CIRCLE
  5
19F7
  8
0
  6
CONTINUOUS
 62
     3
 10
0.0000000000006376
 20
0.0000000000000173
 30
0.0
 40
76.0000000000001137
  0
CIRCLE
  5
19F8
  8
0
  6
CONTINUOUS
 62
     3
 10
0.0
 20
-0.0000000000000018
 30
0.0
 40
62.503143126200797
  0
CIRCLE
  5
19F9
  8
0
  6
CONTINUOUS
 62
     3
 10
0.0000000000005086
 20
0.000000000000013
 30
0.0
 40
64.0000000000002416
  0
CIRCLE
  5
19FA
  8
0
  6
CONTINUOUS
 62
     3
 10
0.0000000000005174
 20
0.0000000000000155
 30
0.0
 40
69.0000000000001705
  0
CIRCLE
  5
19FB
  8
0
  6
CONTINUOUS
 62
     3
 10
0.0000000000006406
 20
0.0000000000000181
 30
0.0
 40
70.0000000000000995
  0
CIRCLE
  5
19FC
  8
0
  6
CONTINUOUS
 62
     3
 10
0.0000000000006406
 20
0.0000000000000181
 30
0.0
 40
72.7584447974064545
  0
CIRCLE
  5
19FD
  8
0
  6
CONTINUOUS
 62
     3
 10
0.0000000000006217
 20
0.0000000000000147
 30
0.0
 40
110.0
  0
CIRCLE
  5
19FE
  8
0
  6
VERDECKT
 62
     1
 10
0.0000000000006356
 20
0.0000000000000167
 30
0.0
 40
75.9997362596922414
  0
CIRCLE
  5
19FF
  8
0
  6
VERDECKT
 62
     1
 10
0.0000000000005174
 20
0.0000000000000155
 30
0.0
 40
71.5000000000001705
  0
CIRCLE
  5
1A00
  8
0
  6
VERDECKT
 62
     1
 10
0.0000000000005086
 20
0.000000000000013
 30
0.0
 40
66.5000000000002416
  0
CIRCLE
  5
1A01
  8
0
  6
VERDECKT
 62
     1
 10
0.0
 20
-0.0000000000000018
 30
0.0
 40
65.0126927200592206
  0
CIRCLE
  5
1A02
  8
0
  6
VERDECKT
 62
     1
 10
0.0000000000006376
 20
0.0000000000000173
 30
0.0
 40
73.5000000000001137
  0
CIRCLE
  5
1A03
  8
0
  6
VERDECKT
 62
     1
 10
0.0000000000006217
 20
0.0000000000000147
 30
0.0
 40
67.5
  0
ENDBLK
  5
1A05
  8
0
  0
BLOCK
  8
0
  2
A$C00F9610B
 70
     0
 10
0.0
 20
0.0
 30
0.0
  3
A$C00F9610B
  1

  0
LINE
  5
1A4B
  8
0
  6
CONTINUOUS
 62
     3
 10
-65.012692720059249
 20
0.0000000000001137
 30
0.0
 11
65.012692720059249
 21
-0.0000000000001137
 31
0.0
210
0.0
220
1.0
230
-0.0000000000000002
  0
LINE
  5
1A4C
  8
0
  6
CONTINUOUS
 62
     3
 10
-72.7584447974059003
 20
325.0000000000002274
 30
-0.0000000000000722
 11
72.7584447974070372
 21
325.0
 31
-0.0000000000000722
210
0.0
220
1.0
230
-0.0000000000000002
  0
LINE
  5
1A4D
  8
0
  6
CONTINUOUS
 62
     3
 10
76.0000000000006963
 20
311.3976225555355768
 30
-0.0000000000000691
 11
76.0000000000006679
 21
302.2909999999998831
 31
-0.0000000000000671
210
0.0
220
1.0
230
-0.0000000000000002
  0
LINE
  5
1A4E
  8
0
  6
CONTINUOUS
 62
     3
 10
-75.999999999999531
 20
311.3976225555358042
 30
-0.0000000000000691
 11
-75.9999999999995595
 21
302.2910000000001105
 31
-0.0000000000000671
210
0.0
220
1.0
230
-0.0000000000000002
  0
ARC
  5
1A4F
  8
0
  6
CONTINUOUS
 62
     3
 10
45.9999999999985576
 20
302.2910000000002242
 30
0.0
 40
29.9997362596931012
210
0.0
220
-0.0000000000000002
230
-1.0
 50
334.9928416634477912
 51
359.9999999999998863
  0
ARC
  5
1A50
  8
0
  6
CONTINUOUS
 62
     3
 10
-45.9999999999996518
 20
302.2909999999999968
 30
0.0
 40
29.9997362596931403
210
0.0
220
-0.0000000000000002
230
-1.0
 50
180.000000000000199
 51
205.0071583365524077
  0
ARC
  5
1A51
  8
0
  6
CONTINUOUS
 62
     3
 10
89.5000000000003837
 20
282.0000000000001137
 30
0.0
 40
18.0000000000006608
210
0.0
220
-0.0000000000000002
230
-1.0
 50
154.9928416634494113
 51
179.9999999999996021
  0
ARC
  5
1A52
  8
0
  6
CONTINUOUS
 62
     3
 10
-89.5000000000014779
 20
281.9999999999997158
 30
0.0
 40
18.0000000000008491
210
0.0
220
-0.0000000000000002
230
-1.0
 50
0.0000000000007252
 51
25.0071583365508801
  0
LINE
  5
1A53
  8
0
  6
CONTINUOUS
 62
     3
 10
71.5000000000006963
 20
281.9999999999998863
 30
-0.0000000000000626
 11
71.5000000000006537
 21
258.4687194226709721
 31
-0.0000000000000574
210
0.0
220
1.0
230
-0.0000000000000002
  0
LINE
  5
1A54
  8
0
  6
CONTINUOUS
 62
     3
 10
-71.4999999999997584
 20
282.0000000000001137
 30
-0.0000000000000626
 11
-71.4999999999997868
 21
258.4687194226713132
 31
-0.0000000000000574
210
0.0
220
1.0
230
-0.0000000000000002
  0
ARC
  5
1A55
  8
0
  6
CONTINUOUS
 62
     3
 10
53.4999999999994031
 20
258.4687194226714837
 30
0.0
 40
18.0000000000003801
210
0.0
220
-0.0000000000000002
230
-1.0
 50
325.2280559680518763
 51
359.9999999999990905
  0
ARC
  5
1A56
  8
0
  6
CONTINUOUS
 62
     3
 10
-53.5000000000002984
 20
258.4687194226713132
 30
0.0
 40
18.0000000000003801
210
0.0
220
-0.0000000000000002
230
-1.0
 50
180.0000000000007958
 51
214.77194403194801
  0
ARC
  5
1A57
  8
0
  6
CONTINUOUS
 62
     3
 10
76.4999999999991616
 20
242.5000000000003126
 30
0.0
 40
9.9999999999993818
210
0.0
220
-0.0000000000000002
230
-1.0
 50
145.2280559680498015
 51
180.0000000000009095
  0
ARC
  5
1A58
  8
0
  6
CONTINUOUS
 62
     3
 10
-76.4999999999998863
 20
242.5000000000001137
 30
0.0
 40
9.9999999999991882
210
0.0
220
-0.0000000000000002
230
-1.0
 50
359.9999999999989768
 51
34.7719440319506887
  0
LINE
  5
1A59
  8
0
  6
CONTINUOUS
 62
     3
 10
66.5000000000008811
 20
242.4999999999998863
 30
-0.0000000000000538
 11
66.5000000000008811
 21
240.0000000000001137
 31
-0.0000000000000533
210
0.0
220
1.0
230
-0.0000000000000002
  0
LINE
  5
1A5A
  8
0
  6
CONTINUOUS
 62
     3
 10
66.5000000000008527
 20
224.0000000000001137
 30
-0.0000000000000497
 11
66.5000000000004832
 21
17.0000000000057412
 31
-0.0000000000000038
210
0.0
220
1.0
230
-0.0000000000000002
  0
LINE
  5
1A5B
  8
0
  6
CONTINUOUS
 62
     3
 10
-66.5000000000000284
 20
242.5000000000001137
 30
-0.0000000000000538
 11
-66.5000000000000284
 21
240.0000000000001137
 31
-0.0000000000000533
210
0.0
220
1.0
230
-0.0000000000000002
  0
LINE
  5
1A5C
  8
0
  6
CONTINUOUS
 62
     3
 10
-66.5000000000000568
 20
224.0000000000001137
 30
-0.0000000000000497
 11
-66.5000000000004263
 21
17.0000000000059686
 31
-0.0000000000000038
210
0.0
220
1.0
230
-0.0000000000000002
  0
LINE
  5
1A5D
  8
0
  6
CONTINUOUS
 62
     3
 10
-65.0126927200592633
 20
0.0000000000001101
 30
0.0
 11
-66.5000000000006537
 21
17.0000000000059686
 31
-0.0000000000000038
210
0.0
220
1.0
230
-0.0000000000000002
  0
LINE
  5
1A5E
  8
0
  6
CONTINUOUS
 62
     3
 10
65.012692720059249
 20
-0.0000000000001119
 30
0.0
 11
66.5000000000006821
 21
17.0000000000057412
 31
-0.0000000000000038
210
0.0
220
1.0
230
-0.0000000000000002
  0
LINE
  5
1A5F
  8
0
  6
CONTINUOUS
 62
     3
 10
72.7584447974070656
 20
325.0
 30
-0.0000000000000722
 11
73.1892336111007182
 21
324.0761704077556828
 31
-0.000000000000072
210
0.0
220
1.0
230
-0.0000000000000002
  0
LINE
  5
1A60
  8
0
  6
CONTINUOUS
 62
     3
 10
-72.7584447974059145
 20
325.0000000000002274
 30
-0.0000000000000722
 11
-73.1892336110995529
 21
324.0761704077559102
 31
-0.000000000000072
210
0.0
220
1.0
230
-0.0000000000000002
  0
ARC
  5
1A61
  8
0
  6
CONTINUOUS
 62
     3
 10
46.0000000000020393
 20
311.3976225555364863
 30
0.0
 40
29.9999999999974989
210
0.0
220
-0.0000000000000002
230
-1.0
 50
359.9999999999988063
 51
24.9999999999989306
  0
ARC
  5
1A62
  8
0
  6
CONTINUOUS
 62
     3
 10
-46.0000000000026787
 20
311.3976225555363158
 30
0.0
 40
29.9999999999979892
210
0.0
220
-0.0000000000000002
230
-1.0
 50
155.0000000000015916
 51
180.0000000000011937
  0
LINE
  5
1A63
  8
0
  6
CONTINUOUS
 62
     3
 10
110.0000000000004974
 20
232.0000000000001137
 30
-0.0000000000000515
 11
-109.9999999999994031
 21
232.0000000000001137
 31
-0.0000000000000515
210
0.0
220
1.0
230
-0.0000000000000002
  0
LINE
  5
1A64
  8
0
  6
CONTINUOUS
 62
     3
 10
-109.9999999999994031
 20
224.0000000000001137
 30
-0.0000000000000497
 11
110.0000000000004974
 21
224.0000000000001137
 31
-0.0000000000000497
210
0.0
220
1.0
230
-0.0000000000000002
  0
LINE
  5
1A65
  8
0
  6
CONTINUOUS
 62
     3
 10
110.0000000000004974
 20
232.0000000000001137
 30
-0.0000000000000515
 11
110.0000000000004974
 21
224.0000000000001137
 31
-0.0000000000000497
210
0.0
220
1.0
230
-0.0000000000000002
  0
LINE
  5
1A66
  8
0
  6
CONTINUOUS
 62
     3
 10
-109.9999999999994031
 20
232.0000000000001137
 30
-0.0000000000000515
 11
-109.9999999999994031
 21
224.0000000000001137
 31
-0.0000000000000497
210
0.0
220
1.0
230
-0.0000000000000002
  0
LINE
  5
1A67
  8
0
  6
CONTINUOUS
 62
     3
 10
110.0000000000004974
 20
240.0000000000001137
 30
-0.0000000000000533
 11
-109.9999999999994031
 21
240.0000000000001137
 31
-0.0000000000000533
210
0.0
220
1.0
230
-0.0000000000000002
  0
LINE
  5
1A68
  8
0
  6
CONTINUOUS
 62
     3
 10
-109.9999999999994031
 20
232.0000000000001137
 30
-0.0000000000000515
 11
110.0000000000004974
 21
232.0000000000001137
 31
-0.0000000000000515
210
0.0
220
1.0
230
-0.0000000000000002
  0
LINE
  5
1A69
  8
0
  6
CONTINUOUS
 62
     3
 10
110.0000000000004974
 20
240.0000000000001137
 30
-0.0000000000000533
 11
110.0000000000004974
 21
232.0000000000001137
 31
-0.0000000000000515
210
0.0
220
1.0
230
-0.0000000000000002
  0
LINE
  5
1A6A
  8
0
  6
CONTINUOUS
 62
     3
 10
-109.9999999999994031
 20
240.0000000000001137
 30
-0.0000000000000533
 11
-109.9999999999994031
 21
232.0000000000001137
 31
-0.0000000000000515
210
0.0
220
1.0
230
-0.0000000000000002
  0
LINE
  5
1A6B
  8
0
  6
VERDECKT
 62
     1
 10
66.5000000000008811
 20
240.0000000000001137
 30
-0.0000000000000533
 11
66.5000000000008527
 21
224.0000000000001137
 31
-0.0000000000000497
210
0.0
220
1.0
230
-0.0000000000000002
  0
LINE
  5
1A6C
  8
0
  6
VERDECKT
 62
     1
 10
-66.5000000000000284
 20
240.0000000000001137
 30
-0.0000000000000533
 11
-66.5000000000000568
 21
224.0000000000001137
 31
-0.0000000000000497
210
0.0
220
1.0
230
-0.0000000000000002
  0
LINE
  5
1A6D
  8
0
  6
VERDECKT
 62
     1
 10
-62.503143126200797
 20
0.0000000000001101
 30
0.0
 11
-64.0000000000005969
 21
17.1091523572773099
 31
-0.0000000000000038
210
0.0
220
1.0
230
-0.0000000000000002
  0
LINE
  5
1A6E
  8
0
  6
VERDECKT
 62
     1
 10
62.5031431262007615
 20
-0.0000000000001084
 30
0.0
 11
64.0000000000006253
 21
17.1091523572770896
 31
-0.0000000000000038
210
0.0
220
1.0
230
-0.0000000000000002
  0
LINE
  5
1A6F
  8
0
  6
VERDECKT
 62
     1
 10
64.0000000000008811
 20
242.4999999999998863
 30
-0.0000000000000538
 11
64.0000000000004832
 21
17.1091523572770789
 31
-0.0000000000000038
210
0.0
220
1.0
230
-0.0000000000000002
  0
LINE
  5
1A70
  8
0
  6
VERDECKT
 62
     1
 10
-64.0000000000000284
 20
242.5000000000001137
 30
-0.0000000000000538
 11
-64.0000000000004263
 21
17.1091523572773099
 31
-0.0000000000000038
210
0.0
220
1.0
230
-0.0000000000000002
  0
ARC
  5
1A71
  8
0
  6
VERDECKT
 62
     1
 10
76.4999999999975842
 20
242.5000000000007105
 30
0.0
 40
12.4999999999978009
210
0.0
220
-0.0000000000000002
230
-1.0
 50
145.2280559680488921
 51
180.0000000000028137
  0
ARC
  5
1A72
  8
0
  6
VERDECKT
 62
     1
 10
-76.4999999999985931
 20
242.5000000000005116
 30
0.0
 40
12.4999999999979092
210
0.0
220
-0.0000000000000002
230
-1.0
 50
359.9999999999973852
 51
34.7719440319508593
  0
ARC
  5
1A73
  8
0
  6
VERDECKT
 62
     1
 10
53.5000000000000426
 20
258.4687194226713132
 30
0.0
 40
15.4999999999996998
210
0.0
220
-0.0000000000000002
230
-1.0
 50
325.2280559680505121
 51
0.0000000000002099
  0
ARC
  5
1A74
  8
0
  6
VERDECKT
 62
     1
 10
-53.5000000000009592
 20
258.4687194226709721
 30
0.0
 40
15.4999999999997105
210
0.0
220
-0.0000000000000002
230
-1.0
 50
179.999999999999801
 51
214.7719440319494879
  0
LINE
  5
1A75
  8
0
  6
VERDECKT
 62
     1
 10
69.0000000000006963
 20
281.9999999999998863
 30
-0.0000000000000626
 11
69.0000000000006537
 21
258.4687194226710858
 31
-0.0000000000000574
210
0.0
220
1.0
230
-0.0000000000000002
  0
LINE
  5
1A76
  8
0
  6
VERDECKT
 62
     1
 10
-68.9999999999997584
 20
282.0000000000001137
 30
-0.0000000000000626
 11
-68.9999999999997868
 21
258.4687194226713132
 31
-0.0000000000000574
210
0.0
220
1.0
230
-0.0000000000000002
  0
ARC
  5
1A77
  8
0
  6
VERDECKT
 62
     1
 10
89.4999999999990052
 20
282.0000000000005116
 30
0.0
 40
20.4999999999992895
210
0.0
220
-0.0000000000000002
230
-1.0
 50
155.2128276928110893
 51
180.0000000000011084
  0
ARC
  5
1A78
  8
0
  6
VERDECKT
 62
     1
 10
-89.5000000000006537
 20
282.0000000000001137
 30
0.0
 40
20.5
210
0.0
220
-0.0000000000000002
230
-1.0
 50
359.9999999999996021
 51
24.7871723071889107
  0
ARC
  5
1A79
  8
0
  6
VERDECKT
 62
     1
 10
46.0000000000008598
 20
302.2909999999998263
 30
0.0
 40
27.499999999998721
210
0.0
220
-0.0000000000000002
230
-1.0
 50
334.8288522569350221
 51
0.0000000000008397
  0
ARC
  5
1A7A
  8
0
  6
VERDECKT
 62
     1
 10
-46.0000000000027072
 20
302.2909999999994852
 30
0.0
 40
27.4999999999979998
210
0.0
220
-0.0000000000000002
230
-1.0
 50
179.9999999999992042
 51
205.1711477430654895
  0
LINE
  5
1A7B
  8
0
  6
VERDECKT
 62
     1
 10
73.5000000000006963
 20
311.3976225555355768
 30
-0.0000000000000691
 11
73.5000000000006679
 21
302.2909999999998831
 31
-0.0000000000000671
210
0.0
220
1.0
230
-0.0000000000000002
  0
LINE
  5
1A7C
  8
0
  6
VERDECKT
 62
     1
 10
-73.499999999999531
 20
311.3976225555358042
 30
-0.0000000000000691
 11
-73.4999999999995595
 21
302.2910000000002242
 31
-0.0000000000000671
210
0.0
220
1.0
230
-0.0000000000000002
  0
ARC
  5
1A7D
  8
0
  6
VERDECKT
 62
     1
 10
46.0000000000007532
 20
311.3976225555355768
 30
0.0
 40
27.4999999999988205
210
0.0
220
-0.0000000000000002
230
-1.0
 50
0.0000000000004834
 51
25.0000000000012683
  0
ARC
  5
1A7E
  8
0
  6
VERDECKT
 62
     1
 10
-46.0000000000022169
 20
311.3976225555355768
 30
0.0
 40
27.4999999999984901
210
0.0
220
-0.0000000000000002
230
-1.0
 50
154.9999999999988063
 51
179.9999999999998863
  0
LINE
  5
1A7F
  8
0
  6
VERDECKT
 62
     1
 10
70.0000000000006821
 20
325.0
 30
-0.0000000000000722
 11
70.9234641435084541
 21
323.0196247534046847
 31
-0.0000000000000717
210
0.0
220
1.0
230
-0.0000000000000002
  0
LINE
  5
1A80
  8
0
  6
VERDECKT
 62
     1
 10
-69.9999999999995453
 20
325.0000000000002274
 30
-0.0000000000000722
 11
-70.9234641435073172
 21
323.0196247534049121
 31
-0.0000000000000717
210
0.0
220
1.0
230
-0.0000000000000002
  0
LINE
  5
1A81
  8
0
  6
VERDECKT
 62
     1
 10
67.5000000000005542
 20
232.0000000000001137
 30
-0.0000000000000515
 11
67.5000000000005542
 21
224.0000000000001137
 31
-0.0000000000000497
210
0.0
220
1.0
230
-0.0000000000000002
  0
LINE
  5
1A82
  8
0
  6
VERDECKT
 62
     1
 10
-67.4999999999994316
 20
232.0000000000001137
 30
-0.0000000000000515
 11
-67.4999999999994316
 21
224.0000000000001137
 31
-0.0000000000000497
210
0.0
220
1.0
230
-0.0000000000000002
  0
LINE
  5
1A83
  8
0
  6
VERDECKT
 62
     1
 10
67.5000000000005542
 20
240.0000000000001137
 30
-0.0000000000000533
 11
67.5000000000005542
 21
232.0000000000001137
 31
-0.0000000000000515
210
0.0
220
1.0
230
-0.0000000000000002
  0
LINE
  5
1A84
  8
0
  6
VERDECKT
 62
     1
 10
-67.4999999999994316
 20
240.0000000000001137
 30
-0.0000000000000533
 11
-67.4999999999994316
 21
232.0000000000001137
 31
-0.0000000000000515
210
0.0
220
1.0
230
-0.0000000000000002
  0
ENDBLK
  5
1A45
  8
0
  0
ENDSEC
  0
SECTION
  2
ENTITIES
  0
TEXT
  5
8F
  8
VOLL
 10
78.076754716981128
 20
31.025947764705851
 30
0.0
 40
1.8
  1

  7
GREEKS
  0
TEXT
  5
41E
  8
VOLL
 10
215.158822220035205
 20
289.1472996291067261
 30
0.0
 40
1.8
  1

 50
90.0
  7
GREEKS
  0
TEXT
  5
41F
  8
VOLL
 10
209.8667055043158882
 20
378.8134735547798186
 30
0.0
 40
1.8
  1

 50
90.0
  7
GREEKS
  0
TEXT
  5
420
  8
TEXT
 10
204.3084699710902896
 20
710.645741758372651
 30
0.0
 40
2.5
  1
  
 50
90.0
  7
GREEKS
 72
     1
 11
204.3084699710902896
 21
712.9076465202775807
 31
0.0
  0
TEXT
  5
421
  8
BEM
 10
68.7495879406881443
 20
954.7654590708546039
 30
0.0
 40
2.5
  1
 
 50
90.0
 72
     4
 11
68.7495879406881443
 21
955.8964114518071256
 31
0.0
  0
TEXT
  5
422
  8
BEM
 10
186.229991313154386
 20
520.4548032007043048
 30
0.0
 40
2.5
  1

 50
90.0
  7
GREEKS
  0
TEXT
  5
423
  8
VOLL
 10
206.4132519701896058
 20
506.3886101809828801
 30
0.0
 40
1.8
  1

 50
90.0
  7
GREEKS
  0
TEXT
  5
424
  8
BEM
 10
201.6875276469689879
 20
540.8766750202674984
 30
0.0
 40
2.5
  1

 50
90.0
 41
0.8
  7
GREEKS
  0
TEXT
  5
425
  8
BEM
 10
206.3812962010210867
 20
540.8766750202674984
 30
0.0
 40
2.5
  1

 50
90.0
 41
0.8
  7
GREEKS
  0
TEXT
  5
426
  8
BEM
 10
211.6191400196846075
 20
540.8766750202674984
 30
0.0
 40
2.5
  1

 50
90.0
 41
0.8
  7
GREEKS
  0
TEXT
  5
427
  8
BEM
 10
216.1243289697821979
 20
540.8037305428931631
 30
0.0
 40
1.8
  1

 50
90.0
 41
0.8
  7
GREEKS
  0
TEXT
  5
428
  8
BEM
 10
190.5327398735570057
 20
528.1201596632818109
 30
0.0
 40
2.0
  1

 50
90.0
 41
0.8
  7
GREEKS
 72
     1
 11
190.5327398735570057
 21
528.1201596632818109
 31
0.0
  0
TEXT
  5
429
  8
TEXT
 10
200.8550164369640925
 20
838.2208783845755988
 30
0.0
 40
2.5
  1
  
 50
90.0
  7
GREEKS
 72
     1
 11
200.8550164369640925
 21
840.4827831464805286
 31
0.0
  0
TEXT
  5
42A
  8
BEM
 10
65.2961344065618619
 20
1082.3405956970580064
 30
0.0
 40
2.5
  1
 
 50
90.0
 72
     4
 11
65.2961344065618619
 21
1083.4715480780100734
 31
0.0
  0
TEXT
  5
42D
  8
VOLL
 10
198.9617379082004049
 20
431.105374576267991
 30
0.0
 40
1.8
  1

 50
90.0
  7
GREEKS
  0
TEXT
  5
42E
  8
TEXT
 10
193.4035023749748916
 20
762.9376427798609939
 30
0.0
 40
2.5
  1
  
 50
90.0
  7
GREEKS
 72
     1
 11
193.4035023749748916
 21
765.1995475417658099
 31
0.0
  0
TEXT
  5
42F
  8
BEM
 10
57.8446203445726894
 20
1007.0573600923429467
 30
0.0
 40
2.5
  1
 
 50
90.0
 72
     4
 11
57.8446203445726894
 21
1008.1883124732950137
 31
0.0
  0
TEXT
  5
430
  8
BEM
 10
178.6283270185238052
 20
586.2449767330640498
 30
0.0
 40
2.5
  1

 50
90.0
  7
GREEKS
  0
TEXT
  5
431
  8
VOLL
 10
198.8115876755589966
 20
572.1787837133424546
 30
0.0
 40
1.8
  1

 50
90.0
  7
GREEKS
  0
TEXT
  5
432
  8
BEM
 10
194.0858633523382935
 20
606.6668485526271297
 30
0.0
 40
2.5
  1

 50
90.0
 41
0.8
  7
GREEKS
  0
TEXT
  5
433
  8
BEM
 10
198.7796319063905059
 20
606.6668485526271297
 30
0.0
 40
2.5
  1

 50
90.0
 41
0.8
  7
GREEKS
  0
TEXT
  5
434
  8
BEM
 10
204.0174757250539983
 20
606.6668485526271297
 30
0.0
 40
2.5
  1

 50
90.0
 41
0.8
  7
GREEKS
  0
TEXT
  5
435
  8
BEM
 10
208.5226646751517023
 20
606.5939040752526807
 30
0.0
 40
1.8
  1

 50
90.0
 41
0.8
  7
GREEKS
  0
TEXT
  5
436
  8
BEM
 10
182.9310755789263112
 20
593.9103331956415559
 30
0.0
 40
2.0
  1

 50
90.0
 41
0.8
  7
GREEKS
 72
     1
 11
182.9310755789263112
 21
593.9103331956415559
 31
0.0
  0
TEXT
  5
437
  8
TEXT
 10
193.253352142333398
 20
904.0110519169353438
 30
0.0
 40
2.5
  1
  
 50
90.0
  7
GREEKS
 72
     1
 11
193.253352142333398
 21
906.2729566788402735
 31
0.0
  0
TEXT
  5
438
  8
BEM
 10
57.6944701119312526
 20
1148.1307692294180924
 30
0.0
 40
2.5
  1
 
 50
90.0
 72
     4
 11
57.6944701119312526
 21
1149.261721610369932
 31
0.0
  0
TEXT
  5
439
  8
VOLL
 10
210.7774474339489075
 20
367.0831631495116767
 30
0.0
 40
1.8
  1

 50
90.0
  7
GREEKS
  0
TEXT
  5
43A
  8
TEXT
 10
205.2192119007233941
 20
698.9154313531045091
 30
0.0
 40
2.5
  1
  
 50
90.0
  7
GREEKS
 72
     1
 11
205.2192119007233941
 21
701.1773361150093251
 31
0.0
  0
TEXT
  5
43B
  8
BEM
 10
69.6603298703211919
 20
943.0351486655864619
 30
0.0
 40
2.5
  1
 
 50
90.0
 72
     4
 11
69.6603298703211919
 21
944.1661010465389836
 31
0.0
  0
TEXT
  5
43C
  8
BEM
 10
170.6242167353632908
 20
532.4287762291615991
 30
0.0
 40
2.5
  1

 50
90.0
  7
GREEKS
  0
TEXT
  5
43D
  8
VOLL
 10
190.8074773923983116
 20
518.3625832094401176
 30
0.0
 40
1.8
  1

 50
90.0
  7
GREEKS
  0
TEXT
  5
43E
  8
BEM
 10
186.0817530691778074
 20
552.8506480487247927
 30
0.0
 40
2.5
  1

 50
90.0
 41
0.8
  7
GREEKS
  0
TEXT
  5
43F
  8
BEM
 10
190.7755216232299063
 20
552.8506480487247927
 30
0.0
 40
2.5
  1

 50
90.0
 41
0.8
  7
GREEKS
  0
TEXT
  5
440
  8
BEM
 10
196.0133654418933986
 20
552.8506480487247927
 30
0.0
 40
2.5
  1

 50
90.0
 41
0.8
  7
GREEKS
  0
TEXT
  5
441
  8
BEM
 10
200.5185543919911026
 20
552.7777035713503437
 30
0.0
 40
1.8
  1

 50
90.0
 41
0.8
  7
GREEKS
  0
TEXT
  5
442
  8
BEM
 10
174.9269652957657968
 20
540.0941326917391052
 30
0.0
 40
2.0
  1

 50
90.0
 41
0.8
  7
GREEKS
 72
     1
 11
174.9269652957657968
 21
540.0941326917391052
 31
0.0
  0
TEXT
  5
443
  8
TEXT
 10
185.2492418591727983
 20
850.1948514130328931
 30
0.0
 40
2.5
  1
  
 50
90.0
  7
GREEKS
 72
     1
 11
185.2492418591727983
 21
852.4567561749378228
 31
0.0
  0
TEXT
  5
444
  8
BEM
 10
49.6903598287706316
 20
1094.3145687255150733
 30
0.0
 40
2.5
  1
 
 50
90.0
 72
     4
 11
49.6903598287706316
 21
1095.4455211064669129
 31
0.0
  0
TEXT
  5
445
  8
VOLL
 10
205.6590040564464061
 20
694.6647394026227857
 30
0.0
 40
1.8
  1

 50
90.0
  7
GREEKS
  0
TEXT
  5
446
  8
VOLL
 10
200.3668873407270894
 20
784.3309133282961056
 30
0.0
 40
1.8
  1

 50
90.0
  7
GREEKS
  0
TEXT
  5
447
  8
TEXT
 10
194.8086518075014908
 20
1116.1631815318889949
 30
0.0
 40
2.5
  1
  
 50
90.0
  7
GREEKS
 72
     1
 11
194.8086518075014908
 21
1118.4250862937940383
 31
0.0
  0
TEXT
  5
448
  8
BEM
 10
59.2497697770994023
 20
1360.2828988443709477
 30
0.0
 40
2.5
  1
 
 50
90.0
 72
     4
 11
59.2497697770994023
 21
1361.4138512253230147
 31
0.0
  0
TEXT
  5
449
  8
BEM
 10
176.7301731495657009
 20
925.9722429742206486
 30
0.0
 40
2.5
  1

 50
90.0
  7
GREEKS
  0
TEXT
  5
44A
  8
VOLL
 10
196.913433806600807
 20
911.9060499544990535
 30
0.0
 40
1.8
  1

 50
90.0
  7
GREEKS
  0
TEXT
  5
44B
  8
BEM
 10
192.1877094833801891
 20
946.3941147937838423
 30
0.0
 40
2.5
  1

 50
90.0
 41
0.8
  7
GREEKS
  0
TEXT
  5
44C
  8
BEM
 10
196.8814780374322879
 20
946.3941147937838423
 30
0.0
 40
2.5
  1

 50
90.0
 41
0.8
  7
GREEKS
  0
TEXT
  5
44D
  8
BEM
 10
202.119321856095894
 20
946.3941147937838423
 30
0.0
 40
2.5
  1

 50
90.0
 41
0.8
  7
GREEKS
  0
TEXT
  5
44E
  8
BEM
 10
206.6245108061935127
 20
946.3211703164092796
 30
0.0
 40
1.8
  1

 50
90.0
 41
0.8
  7
GREEKS
  0
TEXT
  5
44F
  8
BEM
 10
181.0329217099682069
 20
933.6375994367980411
 30
0.0
 40
2.0
  1

 50
90.0
 41
0.8
  7
GREEKS
 72
     1
 11
181.0329217099682069
 21
933.6375994367980411
 31
0.0
  0
TEXT
  5
450
  8
TEXT
 10
191.3551982733752936
 20
1243.7383181580919427
 30
0.0
 40
2.5
  1
  
 50
90.0
  7
GREEKS
 72
     1
 11
191.3551982733752936
 21
1246.0002229199969861
 31
0.0
  0
TEXT
  5
451
  8
BEM
 10
55.7963162429730914
 20
1487.8580354705738955
 30
0.0
 40
2.5
  1
 
 50
90.0
 72
     4
 11
55.7963162429730914
 21
1488.9889878515259625
 31
0.0
  0
TEXT
  5
452
  8
VOLL
 10
228.6080769489470015
 20
702.5780540944062977
 30
0.0
 40
1.8
  1

 50
90.0
  7
GREEKS
  0
TEXT
  5
453
  8
VOLL
 10
223.3159602332277132
 20
792.2442280200793903
 30
0.0
 40
1.8
  1

 50
90.0
  7
GREEKS
  0
TEXT
  5
454
  8
TEXT
 10
217.7577247000021998
 20
1124.0764962236719384
 30
0.0
 40
2.5
  1
  
 50
90.0
  7
GREEKS
 72
     1
 11
217.7577247000021998
 21
1126.3384009855769818
 31
0.0
  0
TEXT
  5
455
  8
BEM
 10
82.1988426695999266
 20
1368.1962135361538913
 30
0.0
 40
2.5
  1
 
 50
90.0
 72
     4
 11
82.1988426695999266
 21
1369.3271659171070951
 31
0.0
  0
TEXT
  5
456
  8
BEM
 10
199.679246042066211
 20
933.8855576660037059
 30
0.0
 40
2.5
  1

 50
90.0
  7
GREEKS
  0
TEXT
  5
457
  8
VOLL
 10
219.8625066991012886
 20
919.8193646462824518
 30
0.0
 40
1.8
  1

 50
90.0
  7
GREEKS
  0
TEXT
  5
458
  8
BEM
 10
215.1367823758808129
 20
954.3074294855668995
 30
0.0
 40
2.5
  1

 50
90.0
 41
0.8
  7
GREEKS
  0
TEXT
  5
459
  8
BEM
 10
219.8305509299329117
 20
954.3074294855668995
 30
0.0
 40
2.5
  1

 50
90.0
 41
0.8
  7
GREEKS
  0
TEXT
  5
45A
  8
BEM
 10
225.068394748596404
 20
954.3074294855668995
 30
0.0
 40
2.5
  1

 50
90.0
 41
0.8
  7
GREEKS
  0
TEXT
  5
45B
  8
BEM
 10
229.5735836986939944
 20
954.2344850081925642
 30
0.0
 40
1.8
  1

 50
90.0
 41
0.8
  7
GREEKS
  0
TEXT
  5
45C
  8
BEM
 10
203.9819946024688022
 20
941.5509141285815531
 30
0.0
 40
2.0
  1

 50
90.0
 41
0.8
  7
GREEKS
 72
     1
 11
203.9819946024688022
 21
941.5509141285815531
 31
0.0
  0
TEXT
  5
45D
  8
TEXT
 10
214.3042711658758037
 20
1251.6516328498751136
 30
0.0
 40
2.5
  1
  
 50
90.0
  7
GREEKS
 72
     1
 11
214.3042711658758037
 21
1253.9135376117799296
 31
0.0
  0
TEXT
  5
45E
  8
BEM
 10
78.7453891354736015
 20
1495.7713501623570664
 30
0.0
 40
2.5
  1
 
 50
90.0
 72
     4
 11
78.7453891354736015
 21
1496.902302543308906
 31
0.0
  0
TEXT
  5
45F
  8
VOLL
 10
212.4109926371122015
 20
844.5361290415675057
 30
0.0
 40
1.8
  1

 50
90.0
  7
GREEKS
  0
TEXT
  5
460
  8
TEXT
 10
206.8527571038866881
 20
1176.3683972451599402
 30
0.0
 40
2.5
  1
  
 50
90.0
  7
GREEKS
 72
     1
 11
206.8527571038866881
 21
1178.6303020070649836
 31
0.0
  0
TEXT
  5
461
  8
BEM
 10
71.2938750734844575
 20
1420.488114557641893
 30
0.0
 40
2.5
  1
 
 50
90.0
 72
     4
 11
71.2938750734844575
 21
1421.6190669385950969
 31
0.0
  0
TEXT
  5
462
  8
BEM
 10
192.0775817474356018
 20
999.6757311983634509
 30
0.0
 40
2.5
  1

 50
90.0
  7
GREEKS
  0
TEXT
  5
463
  8
VOLL
 10
212.2608424044707931
 20
985.6095381786419694
 30
0.0
 40
1.8
  1

 50
90.0
  7
GREEKS
  0
TEXT
  5
464
  8
BEM
 10
207.5351180812502037
 20
1020.0976030179259624
 30
0.0
 40
2.5
  1

 50
90.0
 41
0.8
  7
GREEKS
  0
TEXT
  5
465
  8
BEM
 10
212.2288866353023025
 20
1020.0976030179259624
 30
0.0
 40
2.5
  1

 50
90.0
 41
0.8
  7
GREEKS
  0
TEXT
  5
466
  8
BEM
 10
217.4667304539659085
 20
1020.0976030179259624
 30
0.0
 40
2.5
  1

 50
90.0
 41
0.8
  7
GREEKS
  0
TEXT
  5
467
  8
BEM
 10
221.9719194040634989
 20
1020.0246585405519681
 30
0.0
 40
1.8
  1

 50
90.0
 41
0.8
  7
GREEKS
  0
TEXT
  5
468
  8
BEM
 10
196.380330307838193
 20
1007.341087660940957
 30
0.0
 40
2.0
  1

 50
90.0
 41
0.8
  7
GREEKS
 72
     1
 11
196.380330307838193
 21
1007.341087660940957
 31
0.0
  0
TEXT
  5
469
  8
TEXT
 10
206.7026068712451945
 20
1317.4418063822349723
 30
0.0
 40
2.5
  1
  
 50
90.0
  7
GREEKS
 72
     1
 11
206.7026068712451945
 21
1319.7037111441400157
 31
0.0
  0
TEXT
  5
46A
  8
BEM
 10
71.1437248408430776
 20
1561.5615236947169251
 30
0.0
 40
2.5
  1
 
 50
90.0
 72
     4
 11
71.1437248408430776
 21
1562.6924760756689921
 31
0.0
  0
TEXT
  5
46B
  8
VOLL
 10
17.7487631573062501
 20
475.1532693546834025
 30
0.0
 40
1.8
  1

 50
90.0
  7
GREEKS
  0
TEXT
  5
46C
  8
VOLL
 10
12.4566464415869405
 20
564.8194432803566087
 30
0.0
 40
1.8
  1

 50
90.0
  7
GREEKS
  0
TEXT
  5
46D
  8
TEXT
 10
6.8984109083614271
 20
896.651711483949498
 30
0.0
 40
2.5
  1
  
 50
90.0
  7
GREEKS
 72
     1
 11
6.8984109083614271
 21
898.9136162458542003
 31
0.0
  0
TEXT
  5
46E
  8
BEM
 10
-128.6604711220406898
 20
1140.7714287964311097
 30
0.0
 40
2.5
  1
 
 50
90.0
 72
     4
 11
-128.6604711220406898
 21
1141.9023811773840862
 31
0.0
  0
TEXT
  5
46F
  8
BEM
 10
-11.1800677495744498
 20
706.4607729262810381
 30
0.0
 40
2.5
  1

 50
90.0
  7
GREEKS
  0
TEXT
  5
470
  8
VOLL
 10
9.0031929074606296
 20
692.3945799065595565
 30
0.0
 40
1.8
  1

 50
90.0
  7
GREEKS
  0
TEXT
  5
471
  8
BEM
 10
4.2774685842400677
 20
726.8826447458442317
 30
0.0
 40
2.5
  1

 50
90.0
 41
0.8
  7
GREEKS
  0
TEXT
  5
472
  8
BEM
 10
8.9712371382921674
 20
726.8826447458442317
 30
0.0
 40
2.5
  1

 50
90.0
 41
0.8
  7
GREEKS
  0
TEXT
  5
473
  8
BEM
 10
14.20908095695569
 20
726.8826447458442317
 30
0.0
 40
2.5
  1

 50
90.0
 41
0.8
  7
GREEKS
  0
TEXT
  5
474
  8
BEM
 10
18.7142699070533283
 20
726.809700268469669
 30
0.0
 40
1.8
  1

 50
90.0
 41
0.8
  7
GREEKS
  0
TEXT
  5
475
  8
BEM
 10
-6.8773191891719421
 20
714.1261293888585442
 30
0.0
 40
2.0
  1

 50
90.0
 41
0.8
  7
GREEKS
 72
     1
 11
-6.8773191891719421
 21
714.1261293888585442
 31
0.0
  0
TEXT
  5
476
  8
TEXT
 10
3.4449573742351731
 20
1024.2268481101521047
 30
0.0
 40
2.5
  1
  
 50
90.0
  7
GREEKS
 72
     1
 11
3.4449573742351731
 21
1026.4887528720569208
 31
0.0
  0
TEXT
  5
477
  8
BEM
 10
-132.1139246561670006
 20
1268.346565422634967
 30
0.0
 40
2.5
  1
 
 50
90.0
 72
     4
 11
-132.1139246561670006
 21
1269.477517803587034
 31
0.0
  0
TEXT
  5
478
  8
VOLL
 10
1.551678845471542
 20
617.1113443018448379
 30
0.0
 40
1.8
  1

 50
90.0
  7
GREEKS
  0
TEXT
  5
479
  8
TEXT
 10
-4.00655668775397
 20
948.9436125054377271
 30
0.0
 40
2.5
  1
  
 50
90.0
  7
GREEKS
 72
     1
 11
-4.00655668775397
 21
951.2055172673425432
 31
0.0
  0
TEXT
  5
47A
  8
BEM
 10
-139.5654387181562015
 20
1193.0633298179191115
 30
0.0
 40
2.5
  1
 
 50
90.0
 72
     4
 11
-139.5654387181562015
 21
1194.194282198872088
 31
0.0
  0
TEXT
  5
47B
  8
BEM
 10
-18.7817320442050502
 20
772.2509464586406693
 30
0.0
 40
2.5
  1

 50
90.0
  7
GREEKS
  0
TEXT
  5
47C
  8
VOLL
 10
1.401528612830077
 20
758.1847534389193015
 30
0.0
 40
1.8
  1

 50
90.0
  7
GREEKS
  0
TEXT
  5
47D
  8
BEM
 10
-3.3241957103905402
 20
792.672818278203863
 30
0.0
 40
2.5
  1

 50
90.0
 41
0.8
  7
GREEKS
  0
TEXT
  5
47E
  8
BEM
 10
1.369572843661615
 20
792.672818278203863
 30
0.0
 40
2.5
  1

 50
90.0
 41
0.8
  7
GREEKS
  0
TEXT
  5
47F
  8
BEM
 10
6.6074166623251349
 20
792.672818278203863
 30
0.0
 40
2.5
  1

 50
90.0
 41
0.8
  7
GREEKS
  0
TEXT
  5
480
  8
BEM
 10
11.1126056124227208
 20
792.599873800829414
 30
0.0
 40
1.8
  1

 50
90.0
 41
0.8
  7
GREEKS
  0
TEXT
  5
481
  8
BEM
 10
-14.4789834838025495
 20
779.9163029212181755
 30
0.0
 40
2.0
  1

 50
90.0
 41
0.8
  7
GREEKS
 72
     1
 11
-14.4789834838025495
 21
779.9163029212181755
 31
0.0
  0
TEXT
  5
482
  8
TEXT
 10
-4.1567069203954361
 20
1090.0170216425119634
 30
0.0
 40
2.5
  1
  
 50
90.0
  7
GREEKS
 72
     1
 11
-4.1567069203954361
 21
1092.2789264044170068
 31
0.0
  0
TEXT
  5
483
  8
BEM
 10
-139.7155889507976099
 20
1334.1367389549939162
 30
0.0
 40
2.5
  1
 
 50
90.0
 72
     4
 11
-139.7155889507976099
 21
1335.2676913359459832
 31
0.0
  0
TEXT
  5
484
  8
VOLL
 10
13.3673883712200396
 20
553.0891328750883531
 30
0.0
 40
1.8
  1

 50
90.0
  7
GREEKS
  0
TEXT
  5
485
  8
TEXT
 10
7.8091528379945307
 20
884.921401078681356
 30
0.0
 40
2.5
  1
  
 50
90.0
  7
GREEKS
 72
     1
 11
7.8091528379945307
 21
887.1833058405859447
 31
0.0
  0
TEXT
  5
486
  8
BEM
 10
-127.749729192407699
 20
1129.0411183911630815
 30
0.0
 40
2.5
  1
 
 50
90.0
 72
     4
 11
-127.749729192407699
 21
1130.1720707721149211
 31
0.0
  0
TEXT
  5
487
  8
BEM
 10
-26.7858423273656783
 20
718.4347459547383323
 30
0.0
 40
2.5
  1

 50
90.0
  7
GREEKS
  0
TEXT
  5
488
  8
VOLL
 10
-6.60258167033055
 20
704.3685529350168508
 30
0.0
 40
1.8
  1

 50
90.0
  7
GREEKS
  0
TEXT
  5
489
  8
BEM
 10
-11.3283059935511101
 20
738.856617774301526
 30
0.0
 40
2.5
  1

 50
90.0
 41
0.8
  7
GREEKS
  0
TEXT
  5
48A
  8
BEM
 10
-6.6345374394990131
 20
738.856617774301526
 30
0.0
 40
2.5
  1

 50
90.0
 41
0.8
  7
GREEKS
  0
TEXT
  5
48B
  8
BEM
 10
-1.3966936208354921
 20
738.856617774301526
 30
0.0
 40
2.5
  1

 50
90.0
 41
0.8
  7
GREEKS
  0
TEXT
  5
48C
  8
BEM
 10
3.108495329262154
 20
738.783673296927077
 30
0.0
 40
1.8
  1

 50
90.0
 41
0.8
  7
GREEKS
  0
TEXT
  5
48D
  8
BEM
 10
-22.4830937669631794
 20
726.1001024173158385
 30
0.0
 40
2.0
  1

 50
90.0
 41
0.8
  7
GREEKS
 72
     1
 11
-22.4830937669631794
 21
726.1001024173158385
 31
0.0
  0
TEXT
  5
48E
  8
TEXT
 10
-12.1608172035560607
 20
1036.2008211386100811
 30
0.0
 40
2.5
  1
  
 50
90.0
  7
GREEKS
 72
     1
 11
-12.1608172035560607
 21
1038.4627259005139877
 31
0.0
  0
TEXT
  5
48F
  8
BEM
 10
-147.7196992339582096
 20
1280.3205384510920339
 30
0.0
 40
2.5
  1
 
 50
90.0
 72
     4
 11
-147.7196992339582096
 21
1281.4514908320441009
 31
0.0
  0
TEXT
  5
490
  8
VOLL
 10
39.4048601658702182
 20
481.5546222872239923
 30
0.0
 40
1.8
  1

 50
90.0
  7
GREEKS
  0
TEXT
  5
491
  8
VOLL
 10
34.1127434501509015
 20
571.2207962128971985
 30
0.0
 40
1.8
  1

 50
90.0
  7
GREEKS
  0
TEXT
  5
492
  8
TEXT
 10
28.5545079169253917
 20
903.0530644164900878
 30
0.0
 40
2.5
  1
  
 50
90.0
  7
GREEKS
 72
     1
 11
28.5545079169253917
 21
905.3149691783950175
 31
0.0
  0
TEXT
  5
493
  8
BEM
 10
-107.0043741134767998
 20
1147.1727817289720406
 30
0.0
 40
2.5
  1
 
 50
90.0
 72
     4
 11
-107.0043741134767998
 21
1148.3037341099241075
 31
0.0
  0
TEXT
  5
494
  8
BEM
 10
10.4760292589895094
 20
712.8621258588217415
 30
0.0
 40
2.5
  1

 50
90.0
  7
GREEKS
  0
TEXT
  5
495
  8
VOLL
 10
30.6592899160246191
 20
698.7959328391001463
 30
0.0
 40
1.8
  1

 50
90.0
  7
GREEKS
  0
TEXT
  5
496
  8
BEM
 10
25.9335655928040296
 20
733.2839976783849352
 30
0.0
 40
2.5
  1

 50
90.0
 41
0.8
  7
GREEKS
  0
TEXT
  5
497
  8
BEM
 10
30.6273341468561604
 20
733.2839976783849352
 30
0.0
 40
2.5
  1

 50
90.0
 41
0.8
  7
GREEKS
  0
TEXT
  5
498
  8
BEM
 10
35.8651779655196776
 20
733.2839976783849352
 30
0.0
 40
2.5
  1

 50
90.0
 41
0.8
  7
GREEKS
  0
TEXT
  5
499
  8
BEM
 10
40.3703669156173177
 20
733.2110532010104862
 30
0.0
 40
1.8
  1

 50
90.0
 41
0.8
  7
GREEKS
  0
TEXT
  5
49A
  8
BEM
 10
14.7787778193920207
 20
720.5274823213992477
 30
0.0
 40
2.0
  1

 50
90.0
 41
0.8
  7
GREEKS
 72
     1
 11
14.7787778193920207
 21
720.5274823213992477
 31
0.0
  0
TEXT
  5
49B
  8
TEXT
 10
25.1010543827991306
 20
1030.6282010426930356
 30
0.0
 40
2.5
  1
  
 50
90.0
  7
GREEKS
 72
     1
 11
25.1010543827991306
 21
1032.890105804598079
 31
0.0
  0
TEXT
  5
49C
  8
BEM
 10
-110.4578276476030965
 20
1274.7479183551749884
 30
0.0
 40
2.5
  1
 
 50
90.0
 72
     4
 11
-110.4578276476030965
 21
1275.8788707361279648
 31
0.0
  0
TEXT
  5
49D
  8
VOLL
 10
23.2077758540355106
 20
623.5126972343854277
 30
0.0
 40
1.8
  1

 50
90.0
  7
GREEKS
  0
TEXT
  5
49E
  8
TEXT
 10
17.6495403208099901
 20
955.3449654379784306
 30
0.0
 40
2.5
  1
  
 50
90.0
  7
GREEKS
 72
     1
 11
17.6495403208099901
 21
957.6068701998832466
 31
0.0
  0
TEXT
  5
49F
  8
BEM
 10
-117.9093417095921978
 20
1199.4646827504600424
 30
0.0
 40
2.5
  1
 
 50
90.0
 72
     4
 11
-117.9093417095921978
 21
1200.5956351314121093
 31
0.0
  0
TEXT
  5
4A0
  8
BEM
 10
2.8743649643589029
 20
778.6522993911812591
 30
0.0
 40
2.5
  1

 50
90.0
  7
GREEKS
  0
TEXT
  5
4A1
  8
VOLL
 10
23.0576256213940383
 20
764.5861063714598913
 30
0.0
 40
1.8
  1

 50
90.0
  7
GREEKS
  0
TEXT
  5
4A2
  8
BEM
 10
18.3319012981734204
 20
799.0741712107444528
 30
0.0
 40
2.5
  1

 50
90.0
 41
0.8
  7
GREEKS
  0
TEXT
  5
4A3
  8
BEM
 10
23.0256698522255796
 20
799.0741712107444528
 30
0.0
 40
2.5
  1

 50
90.0
 41
0.8
  7
GREEKS
  0
TEXT
  5
4A4
  8
BEM
 10
28.2635136708891004
 20
799.0741712107444528
 30
0.0
 40
2.5
  1

 50
90.0
 41
0.8
  7
GREEKS
  0
TEXT
  5
4A5
  8
BEM
 10
32.7687026209867227
 20
799.0012267333701175
 30
0.0
 40
1.8
  1

 50
90.0
 41
0.8
  7
GREEKS
  0
TEXT
  5
4A6
  8
BEM
 10
7.1771135247614088
 20
786.3176558537588789
 30
0.0
 40
2.0
  1

 50
90.0
 41
0.8
  7
GREEKS
 72
     1
 11
7.1771135247614088
 21
786.3176558537588789
 31
0.0
  0
TEXT
  5
4A7
  8
TEXT
 10
17.4993900881685214
 20
1096.4183745750519847
 30
0.0
 40
2.5
  1
  
 50
90.0
  7
GREEKS
 72
     1
 11
17.4993900881685214
 21
1098.6802793369570281
 31
0.0
  0
TEXT
  5
4A8
  8
BEM
 10
-118.0594919422337057
 20
1340.5380918875350744
 30
0.0
 40
2.5
  1
 
 50
90.0
 72
     4
 11
-118.0594919422337057
 21
1341.669044268486914
 31
0.0
  0
TEXT
  5
4A9
  8
VOLL
 10
35.0234853797840131
 20
559.4904858076290566
 30
0.0
 40
1.8
  1

 50
90.0
  7
GREEKS
  0
TEXT
  5
4AA
  8
TEXT
 10
29.4652498465584713
 20
891.3227540112218321
 30
0.0
 40
2.5
  1
  
 50
90.0
  7
GREEKS
 72
     1
 11
29.4652498465584713
 21
893.5846587731266482
 31
0.0
  0
TEXT
  5
4AB
  8
BEM
 10
-106.0936321838436953
 20
1135.4424713237040123
 30
0.0
 40
2.5
  1
 
 50
90.0
 72
     4
 11
-106.0936321838436953
 21
1136.5734237046560793
 31
0.0
  0
TEXT
  5
4AC
  8
BEM
 10
-5.1297453188017244
 20
724.8360988872790358
 30
0.0
 40
2.5
  1

 50
90.0
  7
GREEKS
  0
TEXT
  5
4AD
  8
VOLL
 10
15.0535153382334101
 20
710.7699058675574406
 30
0.0
 40
1.8
  1

 50
90.0
  7
GREEKS
  0
TEXT
  5
4AE
  8
BEM
 10
10.3277910150128491
 20
745.2579707068422294
 30
0.0
 40
2.5
  1

 50
90.0
 41
0.8
  7
GREEKS
  0
TEXT
  5
4AF
  8
BEM
 10
15.0215595690649497
 20
745.2579707068422294
 30
0.0
 40
2.5
  1

 50
90.0
 41
0.8
  7
GREEKS
  0
TEXT
  5
4B0
  8
BEM
 10
20.2594033877284687
 20
745.2579707068422294
 30
0.0
 40
2.5
  1

 50
90.0
 41
0.8
  7
GREEKS
  0
TEXT
  5
4B1
  8
BEM
 10
24.7645923378261195
 20
745.1850262294676668
 30
0.0
 40
1.8
  1

 50
90.0
 41
0.8
  7
GREEKS
  0
TEXT
  5
4B2
  8
BEM
 10
-0.8269967583992183
 20
732.5014553498564283
 30
0.0
 40
2.0
  1

 50
90.0
 41
0.8
  7
GREEKS
 72
     1
 11
-0.8269967583992183
 21
732.5014553498564283
 31
0.0
  0
TEXT
  5
4B3
  8
TEXT
 10
9.4952798050078968
 20
1042.6021740711501025
 30
0.0
 40
2.5
  1
  
 50
90.0
  7
GREEKS
 72
     1
 11
9.4952798050078968
 21
1044.8640788330549185
 31
0.0
  0
TEXT
  5
4B4
  8
BEM
 10
-126.0636022253943054
 20
1286.7218913836320553
 30
0.0
 40
2.5
  1
 
 50
90.0
 72
     4
 11
-126.0636022253943054
 21
1287.8528437645850317
 31
0.0
  0
TEXT
  5
4B5
  8
VOLL
 10
54.6140751128223485
 20
837.8916246633752962
 30
0.0
 40
1.8
  1

 50
90.0
  7
GREEKS
  0
TEXT
  5
4B6
  8
TEXT
 10
49.0558395795968067
 20
1169.7238928669680718
 30
0.0
 40
2.5
  1
  
 50
90.0
  7
GREEKS
 72
     1
 11
49.0558395795968067
 21
1171.9857976288728878
 31
0.0
  0
TEXT
  5
4B7
  8
BEM
 10
-86.5030424508054239
 20
1413.8436101794509341
 30
0.0
 40
2.5
  1
 
 50
90.0
 72
     4
 11
-86.5030424508054239
 21
1414.974562560403001
 31
0.0
  0
TEXT
  5
4B8
  8
VOLL
 10
49.058519477751112
 20
995.4263417405370546
 30
0.0
 40
1.8
  1

 50
90.0
  7
GREEKS
  0
TEXT
  5
4B9
  8
BEM
 10
44.3327951545304799
 20
1029.9144065798220709
 30
0.0
 40
2.5
  1

 50
90.0
 41
0.8
  7
GREEKS
  0
TEXT
  5
4BA
  8
BEM
 10
49.0265637085826427
 20
1029.9144065798220709
 30
0.0
 40
2.5
  1

 50
90.0
 41
0.8
  7
GREEKS
  0
TEXT
  5
4BB
  8
BEM
 10
54.2644075272461635
 20
1029.9144065798220709
 30
0.0
 40
2.5
  1

 50
90.0
 41
0.8
  7
GREEKS
  0
TEXT
  5
4BC
  8
BEM
 10
58.7695964773437467
 20
1029.8414621024469398
 30
0.0
 40
1.8
  1

 50
90.0
 41
0.8
  7
GREEKS
  0
TEXT
  5
4BD
  8
TEXT
 10
43.50028394452562
 20
1327.2586099441300576
 30
0.0
 40
2.5
  1
  
 50
90.0
  7
GREEKS
 72
     1
 11
43.50028394452562
 21
1329.5205147060339641
 31
0.0
  0
TEXT
  5
4BE
  8
BEM
 10
-92.0585980858766533
 20
1571.3783272566120104
 30
0.0
 40
2.5
  1
 
 50
90.0
 72
     4
 11
-92.0585980858766533
 21
1572.5092796375640773
 31
0.0
  0
TEXT
  5
4BF
  8
VOLL
 10
-11.2607046829177708
 20
582.3759598849195527
 30
0.0
 40
1.8
  1

 50
90.0
  7
GREEKS
  0
TEXT
  5
4C0
  8
TEXT
 10
-16.8189402161432895
 20
914.2082280885125556
 30
0.0
 40
2.5
  1
  
 50
90.0
  7
GREEKS
 72
     1
 11
-16.8189402161432895
 21
916.4701328504173716
 31
0.0
  0
TEXT
  5
4C1
  8
BEM
 10
-152.3778222465456054
 20
1158.32794540099394
 30
0.0
 40
2.5
  1
 
 50
90.0
 72
     4
 11
-152.3778222465456054
 21
1159.4588977819469164
 31
0.0
  0
TEXT
  5
4C2
  8
BEM
 10
-24.2819018782955212
 20
1020.4728355115260001
 30
0.0
 40
2.5
  1

 50
90.0
  7
GREEKS
  0
TEXT
  5
4C3
  8
BEM
 10
-9.3434540259753476
 20
1041.034621571237949
 30
0.0
 40
2.5
  1

 50
90.0
 41
0.8
  7
GREEKS
  0
TEXT
  5
4C4
  8
BEM
 10
0.7349960387377337
 20
1040.8952915529509937
 30
0.0
 40
2.5
  1

 50
90.0
 41
0.8
  7
GREEKS
  0
TEXT
  5
4C5
  8
BEM
 10
-4.2107868975779752
 20
1040.9485514367140695
 30
0.0
 40
2.5
  1

 50
90.0
 41
0.8
  7
GREEKS
  0
TEXT
  5
4C6
  8
BEM
 10
5.829783678377737
 20
1040.991069474609958
 30
0.0
 40
1.8
  1

 50
90.0
 41
0.8
  7
GREEKS
  0
TEXT
  5
4C7
  8
BEM
 10
-19.6085608087905108
 20
1028.4187542310280605
 30
0.0
 40
2.0
  1

 50
90.0
 41
0.8
  7
GREEKS
 72
     1
 11
-19.6085608087905108
 21
1028.4187542310280605
 31
0.0
  0
TEXT
  5
4C8
  8
VOLL
 10
-5.5719394485323051
 20
761.613893755731965
 30
0.0
 40
1.8
  1

 50
90.0
  7
GREEKS
  0
TEXT
  5
4C9
  8
TEXT
 10
-11.1301749817577598
 20
1093.4461619593239448
 30
0.0
 40
2.5
  1
  
 50
90.0
  7
GREEKS
 72
     1
 11
-11.1301749817577598
 21
1095.7080667212289882
 31
0.0
  0
TEXT
  5
4CA
  8
BEM
 10
-146.6890570121599922
 20
1337.5658792718070345
 30
0.0
 40
2.5
  1
 
 50
90.0
 72
     4
 11
-146.6890570121599922
 21
1338.6968316527591014
 31
0.0
  0
TEXT
  5
4DE
  8
BEM
 10
-68.5108655493058905
 20
876.1029121338990535
 30
0.0
 40
2.5
  1

 50
90.0
  7
GREEKS
  0
TEXT
  5
4DF
  8
VOLL
 10
-48.3276048922707631
 20
862.0367191141776857
 30
0.0
 40
1.8
  1

 50
90.0
  7
GREEKS
  0
TEXT
  5
4E0
  8
BEM
 10
-53.053329215491317
 20
896.5247839534623608
 30
0.0
 40
2.5
  1

 50
90.0
 41
0.8
  7
GREEKS
  0
TEXT
  5
4E1
  8
BEM
 10
-48.3595606614392111
 20
896.5247839534623608
 30
0.0
 40
2.5
  1

 50
90.0
 41
0.8
  7
GREEKS
  0
TEXT
  5
4E2
  8
BEM
 10
-43.1217168427756903
 20
896.5247839534623608
 30
0.0
 40
2.5
  1

 50
90.0
 41
0.8
  7
GREEKS
  0
TEXT
  5
4E3
  8
BEM
 10
-38.616527892678107
 20
896.4518394760879119
 30
0.0
 40
1.8
  1

 50
90.0
 41
0.8
  7
GREEKS
  0
TEXT
  5
4E4
  8
BEM
 10
-64.2081169889033845
 20
883.768268596476787
 30
0.0
 40
2.0
  1

 50
90.0
 41
0.8
  7
GREEKS
 72
     1
 11
-64.2081169889033845
 21
883.768268596476787
 31
0.0
  0
TEXT
  5
4E5
  8
TEXT
 10
-53.885840425496319
 20
1193.8689873177700065
 30
0.0
 40
2.5
  1
  
 50
90.0
  7
GREEKS
 72
     1
 11
-53.885840425496319
 21
1196.1308920796750499
 31
0.0
  0
TEXT
  5
4E6
  8
BEM
 10
-189.4447224558984999
 20
1437.9887046302519593
 30
0.0
 40
2.5
  1
 
 50
90.0
 72
     4
 11
-189.4447224558984999
 21
1439.1196570112049358
 31
0.0
  0
TEXT
  5
4E7
  8
VOLL
 10
34.9605128464645531
 20
570.284511965063075
 30
0.0
 40
1.8
  1

 50
90.0
  7
GREEKS
  0
TEXT
  5
4E8
  8
VOLL
 10
29.6683961307452613
 20
659.9506858907361675
 30
0.0
 40
1.8
  1

 50
90.0
  7
GREEKS
  0
TEXT
  5
4E9
  8
TEXT
 10
24.1101605975197799
 20
991.7829540943292841
 30
0.0
 40
2.5
  1
  
 50
90.0
  7
GREEKS
 72
     1
 11
24.1101605975197799
 21
994.0448588562341001
 31
0.0
  0
TEXT
  5
4EA
  8
BEM
 10
-111.4487214328823939
 20
1235.9026714068108959
 30
0.0
 40
2.5
  1
 
 50
90.0
 72
     4
 11
-111.4487214328823939
 21
1237.0336237877640997
 31
0.0
  0
TEXT
  5
4EB
  8
BEM
 10
6.031681939583847
 20
801.5920155366607105
 30
0.0
 40
2.5
  1

 50
90.0
  7
GREEKS
  0
TEXT
  5
4EC
  8
VOLL
 10
26.2149425966189291
 20
787.5258225169394564
 30
0.0
 40
1.8
  1

 50
90.0
  7
GREEKS
  0
TEXT
  5
4ED
  8
BEM
 10
21.4892182733984214
 20
822.0138873562239041
 30
0.0
 40
2.5
  1

 50
90.0
 41
0.8
  7
GREEKS
  0
TEXT
  5
4EE
  8
BEM
 10
26.1829868274505806
 20
822.0138873562239041
 30
0.0
 40
2.5
  1

 50
90.0
 41
0.8
  7
GREEKS
  0
TEXT
  5
4EF
  8
BEM
 10
31.4208306461140694
 20
822.0138873562239041
 30
0.0
 40
2.5
  1

 50
90.0
 41
0.8
  7
GREEKS
  0
TEXT
  5
4F0
  8
BEM
 10
35.9260195962116597
 20
821.9409428788494552
 30
0.0
 40
1.8
  1

 50
90.0
 41
0.8
  7
GREEKS
  0
TEXT
  5
4F1
  8
BEM
 10
10.3344304999863503
 20
809.2573719992383303
 30
0.0
 40
2.0
  1

 50
90.0
 41
0.8
  7
GREEKS
 72
     1
 11
10.3344304999863503
 21
809.2573719992383303
 31
0.0
  0
TEXT
  5
4F2
  8
TEXT
 10
20.6567070633934691
 20
1119.3580907205318908
 30
0.0
 40
2.5
  1
  
 50
90.0
  7
GREEKS
 72
     1
 11
20.6567070633934691
 21
1121.6199954824369343
 31
0.0
  0
TEXT
  5
4F3
  8
BEM
 10
-114.9021749670087047
 20
1363.477808033014071
 30
0.0
 40
2.5
  1
 
 50
90.0
 72
     4
 11
-114.9021749670087047
 21
1364.6087604139659106
 31
0.0
  0
TEXT
  5
4F7
  8
VOLL
 10
-6.9941311912556321
 20
546.8128777676957952
 30
0.0
 40
1.8
  1

 50
90.0
  7
GREEKS
  0
TEXT
  5
4F8
  8
VOLL
 10
-12.2862479069749497
 20
636.4790516933687741
 30
0.0
 40
1.8
  1

 50
90.0
  7
GREEKS
  0
TEXT
  5
4F9
  8
TEXT
 10
-17.8444834402003991
 20
968.3113198969618907
 30
0.0
 40
2.5
  1
  
 50
90.0
  7
GREEKS
 72
     1
 11
-17.8444834402003991
 21
970.5732246588667067
 31
0.0
  0
TEXT
  5
4FA
  8
BEM
 10
-153.4033654706026084
 20
1212.4310372094439572
 30
0.0
 40
2.5
  1
 
 50
90.0
 72
     4
 11
-153.4033654706026084
 21
1213.5619895903960241
 31
0.0
  0
TEXT
  5
4FB
  8
BEM
 10
-35.9229620981363382
 20
778.1203813392934308
 30
0.0
 40
2.5
  1

 50
90.0
  7
GREEKS
  0
TEXT
  5
4FC
  8
VOLL
 10
-15.7397014411012606
 20
764.0541883195719493
 30
0.0
 40
1.8
  1

 50
90.0
  7
GREEKS
  0
TEXT
  5
4FD
  8
BEM
 10
-20.4654257643218216
 20
798.5422531588566244
 30
0.0
 40
2.5
  1

 50
90.0
 41
0.8
  7
GREEKS
  0
TEXT
  5
4FE
  8
BEM
 10
-15.7716572102696606
 20
798.5422531588566244
 30
0.0
 40
2.5
  1

 50
90.0
 41
0.8
  7
GREEKS
  0
TEXT
  5
4FF
  8
BEM
 10
-10.5338133916061398
 20
798.5422531588566244
 30
0.0
 40
2.5
  1

 50
90.0
 41
0.8
  7
GREEKS
  0
TEXT
  5
500
  8
BEM
 10
-6.0286244415085539
 20
798.4693086814821754
 30
0.0
 40
1.8
  1

 50
90.0
 41
0.8
  7
GREEKS
  0
TEXT
  5
501
  8
BEM
 10
-31.6202135377338287
 20
785.7857378018709369
 30
0.0
 40
2.0
  1

 50
90.0
 41
0.8
  7
GREEKS
 72
     1
 11
-31.6202135377338287
 21
785.7857378018709369
 31
0.0
  0
TEXT
  5
502
  8
TEXT
 10
-21.2979369743267206
 20
1095.8864565231649522
 30
0.0
 40
2.5
  1
  
 50
90.0
  7
GREEKS
 72
     1
 11
-21.2979369743267206
 21
1098.1483612850690861
 31
0.0
  0
TEXT
  5
503
  8
BEM
 10
-156.8568190047288908
 20
1340.006173835646905
 30
0.0
 40
2.5
  1
 
 50
90.0
 72
     4
 11
-156.8568190047288908
 21
1341.137126216598972
 31
0.0
  0
TEXT
  5
C7D
  8
VOLL
 10
577.2740684541586234
 20
260.5642768959455111
 30
0.0
 40
1.8
  1

 50
90.0
  7
GREEKS
  0
TEXT
  5
C7E
  8
VOLL
 10
571.9819517384393066
 20
350.2304508216186036
 30
0.0
 40
1.8
  1

 50
90.0
  7
GREEKS
  0
TEXT
  5
C7F
  8
TEXT
 10
566.4237162052138501
 20
682.0627190252115497
 30
0.0
 40
2.5
  1
  
 50
90.0
  7
GREEKS
 72
     1
 11
566.4237162052138501
 21
684.3246237871162521
 31
0.0
  0
TEXT
  5
C80
  8
BEM
 10
430.8648341748115058
 20
926.1824363376933889
 30
0.0
 40
2.5
  1
 
 50
90.0
 72
     4
 11
430.8648341748115058
 21
927.3133887186459106
 31
0.0
  0
TEXT
  5
C81
  8
BEM
 10
548.3452375472778613
 20
491.8717804675430898
 30
0.0
 40
2.5
  1

 50
90.0
  7
GREEKS
  0
TEXT
  5
C82
  8
VOLL
 10
568.5284982043128821
 20
477.805587447821722
 30
0.0
 40
1.8
  1

 50
90.0
  7
GREEKS
  0
TEXT
  5
C83
  8
BEM
 10
563.8027738810924347
 20
512.2936522871062834
 30
0.0
 40
2.5
  1

 50
90.0
 41
0.8
  7
GREEKS
  0
TEXT
  5
C84
  8
BEM
 10
568.4965424351445336
 20
512.2936522871062834
 30
0.0
 40
2.5
  1

 50
90.0
 41
0.8
  7
GREEKS
  0
TEXT
  5
C85
  8
BEM
 10
573.7343862538081112
 20
512.2936522871062834
 30
0.0
 40
2.5
  1

 50
90.0
 41
0.8
  7
GREEKS
  0
TEXT
  5
C86
  8
BEM
 10
578.2395752039055878
 20
512.2207078097319481
 30
0.0
 40
1.8
  1

 50
90.0
 41
0.8
  7
GREEKS
  0
TEXT
  5
C87
  8
BEM
 10
552.6479861076803672
 20
499.5371369301205959
 30
0.0
 40
2.0
  1

 50
90.0
 41
0.8
  7
GREEKS
 72
     1
 11
552.6479861076803672
 21
499.5371369301205959
 31
0.0
  0
TEXT
  5
C88
  8
TEXT
 10
562.9702626710875393
 20
809.6378556514143838
 30
0.0
 40
2.5
  1
  
 50
90.0
  7
GREEKS
 72
     1
 11
562.9702626710875393
 21
811.8997604133193136
 31
0.0
  0
TEXT
  5
C89
  8
BEM
 10
427.4113806406853087
 20
1053.7575729638961093
 30
0.0
 40
2.5
  1
 
 50
90.0
 72
     4
 11
427.4113806406853087
 21
1054.8885253448490857
 31
0.0
  0
TEXT
  5
C8C
  8
VOLL
 10
561.0769841423237949
 20
402.522351843106776
 30
0.0
 40
1.8
  1

 50
90.0
  7
GREEKS
  0
TEXT
  5
C8D
  8
TEXT
 10
555.5187486090983384
 20
734.3546200466996652
 30
0.0
 40
2.5
  1
  
 50
90.0
  7
GREEKS
 72
     1
 11
555.5187486090983384
 21
736.6165248086045949
 31
0.0
  0
TEXT
  5
C8E
  8
BEM
 10
419.9598665786961078
 20
978.4743373591817317
 30
0.0
 40
2.5
  1
 
 50
90.0
 72
     4
 11
419.9598665786961078
 21
979.6052897401342534
 31
0.0
  0
TEXT
  5
C8F
  8
BEM
 10
540.743573252647252
 20
557.6619539999028348
 30
0.0
 40
2.5
  1

 50
90.0
  7
GREEKS
  0
TEXT
  5
C90
  8
VOLL
 10
560.9268339096825002
 20
543.5957609801813533
 30
0.0
 40
1.8
  1

 50
90.0
  7
GREEKS
  0
TEXT
  5
C91
  8
BEM
 10
556.2011095864618255
 20
578.0838258194659147
 30
0.0
 40
2.5
  1

 50
90.0
 41
0.8
  7
GREEKS
  0
TEXT
  5
C92
  8
BEM
 10
560.894878140514038
 20
578.0838258194659147
 30
0.0
 40
2.5
  1

 50
90.0
 41
0.8
  7
GREEKS
  0
TEXT
  5
C93
  8
BEM
 10
566.1327219591773883
 20
578.0838258194659147
 30
0.0
 40
2.5
  1

 50
90.0
 41
0.8
  7
GREEKS
  0
TEXT
  5
C94
  8
BEM
 10
570.6379109092749786
 20
578.0108813420914657
 30
0.0
 40
1.8
  1

 50
90.0
 41
0.8
  7
GREEKS
  0
TEXT
  5
C95
  8
BEM
 10
545.046321813049758
 20
565.3273104624803409
 30
0.0
 40
2.0
  1

 50
90.0
 41
0.8
  7
GREEKS
 72
     1
 11
545.046321813049758
 21
565.3273104624803409
 31
0.0
  0
TEXT
  5
C96
  8
TEXT
 10
555.3685983764569301
 20
875.4280291837742425
 30
0.0
 40
2.5
  1
  
 50
90.0
  7
GREEKS
 72
     1
 11
555.3685983764569301
 21
877.6899339456789448
 31
0.0
  0
TEXT
  5
C97
  8
BEM
 10
419.8097163460546994
 20
1119.5477464962559679
 30
0.0
 40
2.5
  1
 
 50
90.0
 72
     4
 11
419.8097163460546994
 21
1120.6786988772089444
 31
0.0
  0
TEXT
  5
C98
  8
VOLL
 10
572.8926936680724111
 20
338.5001404163505185
 30
0.0
 40
1.8
  1

 50
90.0
  7
GREEKS
  0
TEXT
  5
C99
  8
TEXT
 10
567.3344581348468409
 20
670.3324086199431804
 30
0.0
 40
2.5
  1
  
 50
90.0
  7
GREEKS
 72
     1
 11
567.3344581348468409
 21
672.5943133818481101
 31
0.0
  0
TEXT
  5
C9A
  8
BEM
 10
431.775576104444724
 20
914.4521259324252469
 30
0.0
 40
2.5
  1
 
 50
90.0
 72
     4
 11
431.775576104444724
 21
915.5830783133777686
 31
0.0
  0
TEXT
  5
C9B
  8
BEM
 10
532.7394629694865671
 20
503.8457534960003272
 30
0.0
 40
2.5
  1

 50
90.0
  7
GREEKS
  0
TEXT
  5
C9C
  8
VOLL
 10
552.9227236265218153
 20
489.7795604762789026
 30
0.0
 40
1.8
  1

 50
90.0
  7
GREEKS
  0
TEXT
  5
C9D
  8
BEM
 10
548.1969993033012543
 20
524.267625315563464
 30
0.0
 40
2.5
  1

 50
90.0
 41
0.8
  7
GREEKS
  0
TEXT
  5
C9E
  8
BEM
 10
552.8907678573533531
 20
524.267625315563464
 30
0.0
 40
2.5
  1

 50
90.0
 41
0.8
  7
GREEKS
  0
TEXT
  5
C9F
  8
BEM
 10
558.1286116760169307
 20
524.267625315563464
 30
0.0
 40
2.5
  1

 50
90.0
 41
0.8
  7
GREEKS
  0
TEXT
  5
CA0
  8
BEM
 10
562.6338006261144074
 20
524.1946808381891287
 30
0.0
 40
1.8
  1

 50
90.0
 41
0.8
  7
GREEKS
  0
TEXT
  5
CA1
  8
BEM
 10
537.0422115298890731
 20
511.5111099585778902
 30
0.0
 40
2.0
  1

 50
90.0
 41
0.8
  7
GREEKS
 72
     1
 11
537.0422115298890731
 21
511.5111099585778902
 31
0.0
  0
TEXT
  5
CA2
  8
TEXT
 10
547.3644880932963588
 20
821.6118286798716781
 30
0.0
 40
2.5
  1
  
 50
90.0
  7
GREEKS
 72
     1
 11
547.3644880932963588
 21
823.8737334417766078
 31
0.0
  0
TEXT
  5
CA3
  8
BEM
 10
411.8056060628941282
 20
1065.7315459923529488
 30
0.0
 40
2.5
  1
 
 50
90.0
 72
     4
 11
411.8056060628941282
 21
1066.8624983733059253
 31
0.0
  0
TEXT
  5
CA4
  8
VOLL
 10
567.774250290569853
 20
666.0817166694615707
 30
0.0
 40
1.8
  1

 50
90.0
  7
GREEKS
  0
TEXT
  5
CA5
  8
VOLL
 10
562.4821335748505362
 20
755.7478905951348906
 30
0.0
 40
1.8
  1

 50
90.0
  7
GREEKS
  0
TEXT
  5
CA6
  8
TEXT
 10
556.9238980416248523
 20
1087.5801587987270977
 30
0.0
 40
2.5
  1
  
 50
90.0
  7
GREEKS
 72
     1
 11
556.9238980416248523
 21
1089.8420635606319138
 31
0.0
  0
TEXT
  5
CA7
  8
BEM
 10
421.3650160112227923
 20
1331.6998761112099601
 30
0.0
 40
2.5
  1
 
 50
90.0
 72
     4
 11
421.3650160112227923
 21
1332.830828492162027
 31
0.0
  0
TEXT
  5
CA8
  8
BEM
 10
538.8454193836890909
 20
897.3892202410594336
 30
0.0
 40
2.5
  1

 50
90.0
  7
GREEKS
  0
TEXT
  5
CA9
  8
VOLL
 10
559.0286800407242254
 20
883.3230272213379521
 30
0.0
 40
1.8
  1

 50
90.0
  7
GREEKS
  0
TEXT
  5
CAA
  8
BEM
 10
554.3029557175035507
 20
917.8110920606226273
 30
0.0
 40
2.5
  1

 50
90.0
 41
0.8
  7
GREEKS
  0
TEXT
  5
CAB
  8
BEM
 10
558.9967242715557632
 20
917.8110920606226273
 30
0.0
 40
2.5
  1

 50
90.0
 41
0.8
  7
GREEKS
  0
TEXT
  5
CAC
  8
BEM
 10
564.2345680902193408
 20
917.8110920606226273
 30
0.0
 40
2.5
  1

 50
90.0
 41
0.8
  7
GREEKS
  0
TEXT
  5
CAD
  8
BEM
 10
568.7397570403169311
 20
917.7381475832480646
 30
0.0
 40
1.8
  1

 50
90.0
 41
0.8
  7
GREEKS
  0
TEXT
  5
CAE
  8
BEM
 10
543.1481679440917105
 20
905.0545767036368261
 30
0.0
 40
2.0
  1

 50
90.0
 41
0.8
  7
GREEKS
 72
     1
 11
543.1481679440917105
 21
905.0545767036368261
 31
0.0
  0
TEXT
  5
CAF
  8
TEXT
 10
553.4704445074987689
 20
1215.1552954249309551
 30
0.0
 40
2.5
  1
  
 50
90.0
  7
GREEKS
 72
     1
 11
553.4704445074987689
 21
1217.417200186835089
 31
0.0
  0
TEXT
  5
CB0
  8
BEM
 10
417.9115624770964814
 20
1459.2750127374129079
 30
0.0
 40
2.5
  1
 
 50
90.0
 72
     4
 11
417.9115624770964814
 21
1460.4059651183649748
 31
0.0
  0
TEXT
  5
CB1
  8
VOLL
 10
590.7233231830704199
 20
673.9950313612450827
 30
0.0
 40
1.8
  1

 50
90.0
  7
GREEKS
  0
TEXT
  5
CB2
  8
VOLL
 10
585.4312064673511031
 20
763.6612052869181753
 30
0.0
 40
1.8
  1

 50
90.0
  7
GREEKS
  0
TEXT
  5
CB3
  8
TEXT
 10
579.8729709341255329
 20
1095.4934734905109508
 30
0.0
 40
2.5
  1
  
 50
90.0
  7
GREEKS
 72
     1
 11
579.8729709341255329
 21
1097.7553782524159942
 31
0.0
  0
TEXT
  5
CB4
  8
BEM
 10
444.3140889037233023
 20
1339.6131908029929036
 30
0.0
 40
2.5
  1
 
 50
90.0
 72
     4
 11
444.3140889037233023
 21
1340.7441431839449706
 31
0.0
  0
TEXT
  5
CB5
  8
BEM
 10
561.7944922761895441
 20
905.3025349328424909
 30
0.0
 40
2.5
  1

 50
90.0
  7
GREEKS
  0
TEXT
  5
CB6
  8
VOLL
 10
581.9777529332247923
 20
891.2363419131212368
 30
0.0
 40
1.8
  1

 50
90.0
  7
GREEKS
  0
TEXT
  5
CB7
  8
BEM
 10
577.2520286100042313
 20
925.7244067524056845
 30
0.0
 40
2.5
  1

 50
90.0
 41
0.8
  7
GREEKS
  0
TEXT
  5
CB8
  8
BEM
 10
581.9457971640563301
 20
925.7244067524056845
 30
0.0
 40
2.5
  1

 50
90.0
 41
0.8
  7
GREEKS
  0
TEXT
  5
CB9
  8
BEM
 10
587.183640982719794
 20
925.7244067524056845
 30
0.0
 40
2.5
  1

 50
90.0
 41
0.8
  7
GREEKS
  0
TEXT
  5
CBA
  8
BEM
 10
591.6888299328173844
 20
925.6514622750313492
 30
0.0
 40
1.8
  1

 50
90.0
 41
0.8
  7
GREEKS
  0
TEXT
  5
CBB
  8
BEM
 10
566.0972408365920501
 20
912.9678913954203381
 30
0.0
 40
2.0
  1

 50
90.0
 41
0.8
  7
GREEKS
 72
     1
 11
566.0972408365920501
 21
912.9678913954203381
 31
0.0
  0
TEXT
  5
CBC
  8
TEXT
 10
576.4195173999992221
 20
1223.0686101167138986
 30
0.0
 40
2.5
  1
  
 50
90.0
  7
GREEKS
 72
     1
 11
576.4195173999992221
 21
1225.330514878618942
 31
0.0
  0
TEXT
  5
CBD
  8
BEM
 10
440.8606353695969915
 20
1467.1883274291960788
 30
0.0
 40
2.5
  1
 
 50
90.0
 72
     4
 11
440.8606353695969915
 21
1468.3192798101479184
 31
0.0
  0
TEXT
  5
CBE
  8
VOLL
 10
574.5262388712354777
 20
815.9531063084062907
 30
0.0
 40
1.8
  1

 50
90.0
  7
GREEKS
  0
TEXT
  5
CBF
  8
TEXT
 10
568.9680033380101349
 20
1147.7853745119989526
 30
0.0
 40
2.5
  1
  
 50
90.0
  7
GREEKS
 72
     1
 11
568.9680033380101349
 21
1150.047279273903996
 31
0.0
  0
TEXT
  5
CC0
  8
BEM
 10
433.4091213076079043
 20
1391.9050918244809054
 30
0.0
 40
2.5
  1
 
 50
90.0
 72
     4
 11
433.4091213076079043
 21
1393.0360442054329724
 31
0.0
  0
TEXT
  5
CC1
  8
BEM
 10
554.1928279815590486
 20
971.0927084652023495
 30
0.0
 40
2.5
  1

 50
90.0
  7
GREEKS
  0
TEXT
  5
CC2
  8
VOLL
 10
574.3760886385940694
 20
957.0265154454807544
 30
0.0
 40
1.8
  1

 50
90.0
  7
GREEKS
  0
TEXT
  5
CC3
  8
BEM
 10
569.650364315373622
 20
991.5145802847654295
 30
0.0
 40
2.5
  1

 50
90.0
 41
0.8
  7
GREEKS
  0
TEXT
  5
CC4
  8
BEM
 10
574.3441328694258345
 20
991.5145802847654295
 30
0.0
 40
2.5
  1

 50
90.0
 41
0.8
  7
GREEKS
  0
TEXT
  5
CC5
  8
BEM
 10
579.5819766880891848
 20
991.5145802847654295
 30
0.0
 40
2.5
  1

 50
90.0
 41
0.8
  7
GREEKS
  0
TEXT
  5
CC6
  8
BEM
 10
584.0871656381867751
 20
991.4416358073910942
 30
0.0
 40
1.8
  1

 50
90.0
 41
0.8
  7
GREEKS
  0
TEXT
  5
CC7
  8
BEM
 10
558.4955765419615545
 20
978.758064927779742
 30
0.0
 40
2.0
  1

 50
90.0
 41
0.8
  7
GREEKS
 72
     1
 11
558.4955765419615545
 21
978.758064927779742
 31
0.0
  0
TEXT
  5
CC8
  8
TEXT
 10
568.8178531053686129
 20
1288.8587836490739846
 30
0.0
 40
2.5
  1
  
 50
90.0
  7
GREEKS
 72
     1
 11
568.8178531053686129
 21
1291.120688410979028
 31
0.0
  0
TEXT
  5
CC9
  8
BEM
 10
433.258971074966496
 20
1532.9785009615559375
 30
0.0
 40
2.5
  1
 
 50
90.0
 72
     4
 11
433.258971074966496
 21
1534.1094533425080044
 31
0.0
  0
TEXT
  5
CCA
  8
VOLL
 10
379.864009391429704
 20
446.5702466215221875
 30
0.0
 40
1.8
  1

 50
90.0
  7
GREEKS
  0
TEXT
  5
CCB
  8
VOLL
 10
374.5718926757103873
 20
536.2364205471953937
 30
0.0
 40
1.8
  1

 50
90.0
  7
GREEKS
  0
TEXT
  5
CCC
  8
TEXT
 10
369.0136571424848739
 20
868.068688750788283
 30
0.0
 40
2.5
  1
  
 50
90.0
  7
GREEKS
 72
     1
 11
369.0136571424848739
 21
870.3305935126929853
 31
0.0
  0
TEXT
  5
CCD
  8
BEM
 10
233.4547751120827002
 20
1112.1884060632698947
 30
0.0
 40
2.5
  1
 
 50
90.0
 72
     4
 11
233.4547751120827002
 21
1113.3193584442219617
 31
0.0
  0
TEXT
  5
CCE
  8
BEM
 10
350.9351784845489988
 20
677.8777501931198231
 30
0.0
 40
2.5
  1

 50
90.0
  7
GREEKS
  0
TEXT
  5
CCF
  8
VOLL
 10
371.1184391415840764
 20
663.8115571733984552
 30
0.0
 40
1.8
  1

 50
90.0
  7
GREEKS
  0
TEXT
  5
CD0
  8
BEM
 10
366.3927148183635154
 20
698.2996220126830167
 30
0.0
 40
2.5
  1

 50
90.0
 41
0.8
  7
GREEKS
  0
TEXT
  5
CD1
  8
BEM
 10
371.0864833724156142
 20
698.2996220126830167
 30
0.0
 40
2.5
  1

 50
90.0
 41
0.8
  7
GREEKS
  0
TEXT
  5
CD2
  8
BEM
 10
376.3243271910790781
 20
698.2996220126830167
 30
0.0
 40
2.5
  1

 50
90.0
 41
0.8
  7
GREEKS
  0
TEXT
  5
CD3
  8
BEM
 10
380.8295161411767822
 20
698.226677535308454
 30
0.0
 40
1.8
  1

 50
90.0
 41
0.8
  7
GREEKS
  0
TEXT
  5
CD4
  8
BEM
 10
355.2379270449515047
 20
685.5431066556974429
 30
0.0
 40
2.0
  1

 50
90.0
 41
0.8
  7
GREEKS
 72
     1
 11
355.2379270449515047
 21
685.5431066556974429
 31
0.0
  0
TEXT
  5
CD5
  8
TEXT
 10
365.5602036083586199
 20
995.6438253769912308
 30
0.0
 40
2.5
  1
  
 50
90.0
  7
GREEKS
 72
     1
 11
365.5602036083586199
 21
997.9057301388960468
 31
0.0
  0
TEXT
  5
CD6
  8
BEM
 10
230.0013215779563893
 20
1239.7635426894730699
 30
0.0
 40
2.5
  1
 
 50
90.0
 72
     4
 11
230.0013215779563893
 21
1240.8944950704260464
 31
0.0
  0
TEXT
  5
CD7
  8
VOLL
 10
363.6669250795949893
 20
588.5283215686836229
 30
0.0
 40
1.8
  1

 50
90.0
  7
GREEKS
  0
TEXT
  5
CD8
  8
TEXT
 10
358.1086895463694759
 20
920.3605897722765121
 30
0.0
 40
2.5
  1
  
 50
90.0
  7
GREEKS
 72
     1
 11
358.1086895463694759
 21
922.6224945341813282
 31
0.0
  0
TEXT
  5
CD9
  8
BEM
 10
222.5498075159673022
 20
1164.4803070847578965
 30
0.0
 40
2.5
  1
 
 50
90.0
 72
     4
 11
222.5498075159673022
 21
1165.6112594657099635
 31
0.0
  0
TEXT
  5
CDA
  8
BEM
 10
343.3335141899183895
 20
743.6679237254794543
 30
0.0
 40
2.5
  1

 50
90.0
  7
GREEKS
  0
TEXT
  5
CDB
  8
VOLL
 10
363.516774846953524
 20
729.6017307057580865
 30
0.0
 40
1.8
  1

 50
90.0
  7
GREEKS
  0
TEXT
  5
CDC
  8
BEM
 10
358.7910505237329062
 20
764.089795545042648
 30
0.0
 40
2.5
  1

 50
90.0
 41
0.8
  7
GREEKS
  0
TEXT
  5
CDD
  8
BEM
 10
363.4848190777851187
 20
764.089795545042648
 30
0.0
 40
2.5
  1

 50
90.0
 41
0.8
  7
GREEKS
  0
TEXT
  5
CDE
  8
BEM
 10
368.7226628964485826
 20
764.089795545042648
 30
0.0
 40
2.5
  1

 50
90.0
 41
0.8
  7
GREEKS
  0
TEXT
  5
CDF
  8
BEM
 10
373.227851846546173
 20
764.016851067668199
 30
0.0
 40
1.8
  1

 50
90.0
 41
0.8
  7
GREEKS
  0
TEXT
  5
CE0
  8
BEM
 10
347.6362627503208955
 20
751.3332801880569605
 30
0.0
 40
2.0
  1

 50
90.0
 41
0.8
  7
GREEKS
 72
     1
 11
347.6362627503208955
 21
751.3332801880569605
 31
0.0
  0
TEXT
  5
CE1
  8
TEXT
 10
357.9585393137280107
 20
1061.4339989093509757
 30
0.0
 40
2.5
  1
  
 50
90.0
  7
GREEKS
 72
     1
 11
357.9585393137280107
 21
1063.6959036712560192
 31
0.0
  0
TEXT
  5
CE2
  8
BEM
 10
222.3996572833258085
 20
1305.5537162218329286
 30
0.0
 40
2.5
  1
 
 50
90.0
 72
     4
 11
222.3996572833258085
 21
1306.6846686027849955
 31
0.0
  0
TEXT
  5
CE3
  8
VOLL
 10
375.4826346053434918
 20
524.5061101419271381
 30
0.0
 40
1.8
  1

 50
90.0
  7
GREEKS
  0
TEXT
  5
CE4
  8
TEXT
 10
369.9243990721179784
 20
856.338378345520141
 30
0.0
 40
2.5
  1
  
 50
90.0
  7
GREEKS
 72
     1
 11
369.9243990721179784
 21
858.6002831074248434
 31
0.0
  0
TEXT
  5
CE5
  8
BEM
 10
234.365517041715691
 20
1100.4580956580020938
 30
0.0
 40
2.5
  1
 
 50
90.0
 72
     4
 11
234.365517041715691
 21
1101.5890480389539334
 31
0.0
  0
TEXT
  5
CE6
  8
BEM
 10
335.3294039067578183
 20
689.8517232215771173
 30
0.0
 40
2.5
  1

 50
90.0
  7
GREEKS
  0
TEXT
  5
CE7
  8
VOLL
 10
355.5126645637928959
 20
675.7855302018556358
 30
0.0
 40
1.8
  1

 50
90.0
  7
GREEKS
  0
TEXT
  5
CE8
  8
BEM
 10
350.7869402405722781
 20
710.2735950411401973
 30
0.0
 40
2.5
  1

 50
90.0
 41
0.8
  7
GREEKS
  0
TEXT
  5
CE9
  8
BEM
 10
355.4807087946243769
 20
710.2735950411401973
 30
0.0
 40
2.5
  1

 50
90.0
 41
0.8
  7
GREEKS
  0
TEXT
  5
CEA
  8
BEM
 10
360.7185526132880113
 20
710.2735950411401973
 30
0.0
 40
2.5
  1

 50
90.0
 41
0.8
  7
GREEKS
  0
TEXT
  5
CEB
  8
BEM
 10
365.2237415633856017
 20
710.200650563765862
 30
0.0
 40
1.8
  1

 50
90.0
 41
0.8
  7
GREEKS
  0
TEXT
  5
CEC
  8
BEM
 10
339.6321524671602106
 20
697.5170796841545098
 30
0.0
 40
2.0
  1

 50
90.0
 41
0.8
  7
GREEKS
 72
     1
 11
339.6321524671602106
 21
697.5170796841545098
 31
0.0
  0
TEXT
  5
CED
  8
TEXT
 10
349.9544290305673826
 20
1007.6177984054479566
 30
0.0
 40
2.5
  1
  
 50
90.0
  7
GREEKS
 72
     1
 11
349.9544290305673826
 21
1009.879703167353
 31
0.0
  0
TEXT
  5
CEE
  8
BEM
 10
214.3955470001652088
 20
1251.7375157179310463
 30
0.0
 40
2.5
  1
 
 50
90.0
 72
     4
 11
214.3955470001652088
 21
1252.8684680988831133
 31
0.0
  0
TEXT
  5
CEF
  8
VOLL
 10
401.5201063999937219
 20
452.9715995540627773
 30
0.0
 40
1.8
  1

 50
90.0
  7
GREEKS
  0
TEXT
  5
CF0
  8
VOLL
 10
396.2279896842744051
 20
542.6377734797359835
 30
0.0
 40
1.8
  1

 50
90.0
  7
GREEKS
  0
TEXT
  5
CF1
  8
TEXT
 10
390.6697541510487781
 20
874.4700416833288728
 30
0.0
 40
2.5
  1
  
 50
90.0
  7
GREEKS
 72
     1
 11
390.6697541510487781
 21
876.7319464452338025
 31
0.0
  0
TEXT
  5
CF2
  8
BEM
 10
255.1108721206466896
 20
1118.589758995811053
 30
0.0
 40
2.5
  1
 
 50
90.0
 72
     4
 11
255.1108721206466896
 21
1119.7207113767628925
 31
0.0
  0
TEXT
  5
CF3
  8
BEM
 10
372.5912754931130166
 20
684.2791031256605265
 30
0.0
 40
2.5
  1

 50
90.0
  7
GREEKS
  0
TEXT
  5
CF4
  8
VOLL
 10
392.7745361501480943
 20
670.212910105939045
 30
0.0
 40
1.8
  1

 50
90.0
  7
GREEKS
  0
TEXT
  5
CF5
  8
BEM
 10
388.0488118269274764
 20
704.7009749452237202
 30
0.0
 40
2.5
  1

 50
90.0
 41
0.8
  7
GREEKS
  0
TEXT
  5
CF6
  8
BEM
 10
392.7425803809795752
 20
704.7009749452237202
 30
0.0
 40
2.5
  1

 50
90.0
 41
0.8
  7
GREEKS
  0
TEXT
  5
CF7
  8
BEM
 10
397.980424199643096
 20
704.7009749452237202
 30
0.0
 40
2.5
  1

 50
90.0
 41
0.8
  7
GREEKS
  0
TEXT
  5
CF8
  8
BEM
 10
402.4856131497406864
 20
704.6280304678491575
 30
0.0
 40
1.8
  1

 50
90.0
 41
0.8
  7
GREEKS
  0
TEXT
  5
CF9
  8
BEM
 10
376.8940240535155226
 20
691.9444595882380327
 30
0.0
 40
2.0
  1

 50
90.0
 41
0.8
  7
GREEKS
 72
     1
 11
376.8940240535155226
 21
691.9444595882380327
 31
0.0
  0
TEXT
  5
CFA
  8
TEXT
 10
387.216300616922581
 20
1002.0451783095320479
 30
0.0
 40
2.5
  1
  
 50
90.0
  7
GREEKS
 72
     1
 11
387.216300616922581
 21
1004.3070830714369777
 31
0.0
  0
TEXT
  5
CFB
  8
BEM
 10
251.6574185865202935
 20
1246.1648956220140008
 30
0.0
 40
2.5
  1
 
 50
90.0
 72
     4
 11
251.6574185865202935
 21
1247.2958480029669772
 31
0.0
  0
TEXT
  5
CFC
  8
VOLL
 10
385.3230220881588934
 20
594.9296745012242127
 30
0.0
 40
1.8
  1

 50
90.0
  7
GREEKS
  0
TEXT
  5
CFD
  8
TEXT
 10
379.7647865549333801
 20
926.7619427048172156
 30
0.0
 40
2.5
  1
  
 50
90.0
  7
GREEKS
 72
     1
 11
379.7647865549333801
 21
929.023847466721918
 31
0.0
  0
TEXT
  5
CFE
  8
BEM
 10
244.2059045245312063
 20
1170.8816600172990547
 30
0.0
 40
2.5
  1
 
 50
90.0
 72
     4
 11
244.2059045245312063
 21
1172.0126123982508943
 31
0.0
  0
TEXT
  5
CFF
  8
BEM
 10
364.9896111984824074
 20
750.0692766580200441
 30
0.0
 40
2.5
  1

 50
90.0
  7
GREEKS
  0
TEXT
  5
D00
  8
VOLL
 10
385.1728718555174851
 20
736.0030836382986763
 30
0.0
 40
1.8
  1

 50
90.0
  7
GREEKS
  0
TEXT
  5
D01
  8
BEM
 10
380.4471475322969241
 20
770.4911484775833515
 30
0.0
 40
2.5
  1

 50
90.0
 41
0.8
  7
GREEKS
  0
TEXT
  5
D02
  8
BEM
 10
385.1409160863490229
 20
770.4911484775833515
 30
0.0
 40
2.5
  1

 50
90.0
 41
0.8
  7
GREEKS
  0
TEXT
  5
D03
  8
BEM
 10
390.3787599050124868
 20
770.4911484775833515
 30
0.0
 40
2.5
  1

 50
90.0
 41
0.8
  7
GREEKS
  0
TEXT
  5
D04
  8
BEM
 10
394.8839488551100771
 20
770.4182040002089025
 30
0.0
 40
1.8
  1

 50
90.0
 41
0.8
  7
GREEKS
  0
TEXT
  5
D05
  8
BEM
 10
369.2923597588849134
 20
757.7346331205976639
 30
0.0
 40
2.0
  1

 50
90.0
 41
0.8
  7
GREEKS
 72
     1
 11
369.2923597588849134
 21
757.7346331205976639
 31
0.0
  0
TEXT
  5
D06
  8
TEXT
 10
379.6146363222919717
 20
1067.8353518418909971
 30
0.0
 40
2.5
  1
  
 50
90.0
  7
GREEKS
 72
     1
 11
379.6146363222919717
 21
1070.0972566037960405
 31
0.0
  0
TEXT
  5
D07
  8
BEM
 10
244.0557542918897127
 20
1311.9550691543729499
 30
0.0
 40
2.5
  1
 
 50
90.0
 72
     4
 11
244.0557542918897127
 21
1313.0860215353259264
 31
0.0
  0
TEXT
  5
D08
  8
VOLL
 10
397.138731613907396
 20
530.9074630744678416
 30
0.0
 40
1.8
  1

 50
90.0
  7
GREEKS
  0
TEXT
  5
D09
  8
TEXT
 10
391.5804960806818826
 20
862.7397312780606171
 30
0.0
 40
2.5
  1
  
 50
90.0
  7
GREEKS
 72
     1
 11
391.5804960806818826
 21
865.0016360399655468
 31
0.0
  0
TEXT
  5
D0A
  8
BEM
 10
256.0216140502797089
 20
1106.8594485905430247
 30
0.0
 40
2.5
  1
 
 50
90.0
 72
     4
 11
256.0216140502797089
 21
1107.9904009714950917
 31
0.0
  0
TEXT
  5
D0B
  8
BEM
 10
356.9855009153217225
 20
696.2530761541178208
 30
0.0
 40
2.5
  1

 50
90.0
  7
GREEKS
  0
TEXT
  5
D0C
  8
VOLL
 10
377.1687615723569138
 20
682.1868831343962256
 30
0.0
 40
1.8
  1

 50
90.0
  7
GREEKS
  0
TEXT
  5
D0D
  8
BEM
 10
372.4430372491362959
 20
716.6749479736810144
 30
0.0
 40
2.5
  1

 50
90.0
 41
0.8
  7
GREEKS
  0
TEXT
  5
D0E
  8
BEM
 10
377.1368058031883947
 20
716.6749479736810144
 30
0.0
 40
2.5
  1

 50
90.0
 41
0.8
  7
GREEKS
  0
TEXT
  5
D0F
  8
BEM
 10
382.3746496218519155
 20
716.6749479736810144
 30
0.0
 40
2.5
  1

 50
90.0
 41
0.8
  7
GREEKS
  0
TEXT
  5
D10
  8
BEM
 10
386.8798385719496196
 20
716.6020034963064518
 30
0.0
 40
1.8
  1

 50
90.0
 41
0.8
  7
GREEKS
  0
TEXT
  5
D11
  8
BEM
 10
361.2882494757241716
 20
703.9184326166952133
 30
0.0
 40
2.0
  1

 50
90.0
 41
0.8
  7
GREEKS
 72
     1
 11
361.2882494757241716
 21
703.9184326166952133
 31
0.0
  0
TEXT
  5
D12
  8
TEXT
 10
371.6105260391314005
 20
1014.0191513379890011
 30
0.0
 40
2.5
  1
  
 50
90.0
  7
GREEKS
 72
     1
 11
371.6105260391314005
 21
1016.2810560998940446
 31
0.0
  0
TEXT
  5
D13
  8
BEM
 10
236.051644008729113
 20
1258.1388686504710677
 30
0.0
 40
2.5
  1
 
 50
90.0
 72
     4
 11
236.051644008729113
 21
1259.2698210314240441
 31
0.0
  0
TEXT
  5
D14
  8
VOLL
 10
416.7293213469458237
 20
809.3086019302140812
 30
0.0
 40
1.8
  1

 50
90.0
  7
GREEKS
  0
TEXT
  5
D15
  8
TEXT
 10
411.1710858137201967
 20
1141.1408701338070841
 30
0.0
 40
2.5
  1
  
 50
90.0
  7
GREEKS
 72
     1
 11
411.1710858137201967
 21
1143.4027748957119002
 31
0.0
  0
TEXT
  5
D16
  8
BEM
 10
275.6122037833180229
 20
1385.260587446289037
 30
0.0
 40
2.5
  1
 
 50
90.0
 72
     4
 11
275.6122037833180229
 21
1386.3915398272420134
 31
0.0
  0
TEXT
  5
D17
  8
VOLL
 10
411.1737657118745233
 20
966.8433190073759533
 30
0.0
 40
1.8
  1

 50
90.0
  7
GREEKS
  0
TEXT
  5
D18
  8
BEM
 10
406.4480413886537917
 20
1001.3313838466599464
 30
0.0
 40
2.5
  1

 50
90.0
 41
0.8
  7
GREEKS
  0
TEXT
  5
D19
  8
BEM
 10
411.1418099427060042
 20
1001.3313838466599464
 30
0.0
 40
2.5
  1

 50
90.0
 41
0.8
  7
GREEKS
  0
TEXT
  5
D1A
  8
BEM
 10
416.3796537613695818
 20
1001.3313838466599464
 30
0.0
 40
2.5
  1

 50
90.0
 41
0.8
  7
GREEKS
  0
TEXT
  5
D1B
  8
BEM
 10
420.8848427114671722
 20
1001.2584393692859521
 30
0.0
 40
1.8
  1

 50
90.0
 41
0.8
  7
GREEKS
  0
TEXT
  5
D1C
  8
TEXT
 10
405.6155301786490099
 20
1298.6755872109679331
 30
0.0
 40
2.5
  1
  
 50
90.0
  7
GREEKS
 72
     1
 11
405.6155301786490099
 21
1300.9374919728729765
 31
0.0
  0
TEXT
  5
D1D
  8
BEM
 10
270.0566481482467793
 20
1542.7953045234510228
 30
0.0
 40
2.5
  1
 
 50
90.0
 72
     4
 11
270.0566481482467793
 21
1543.9262569044030897
 31
0.0
  0
TEXT
  5
D1E
  8
VOLL
 10
350.8545415512057275
 20
553.7929371517583377
 30
0.0
 40
1.8
  1

 50
90.0
  7
GREEKS
  0
TEXT
  5
D1F
  8
TEXT
 10
345.2963060179802142
 20
885.6252053553513406
 30
0.0
 40
2.5
  1
  
 50
90.0
  7
GREEKS
 72
     1
 11
345.2963060179802142
 21
887.8871101172561566
 31
0.0
  0
TEXT
  5
D20
  8
BEM
 10
209.7374239875778983
 20
1129.7449226678329524
 30
0.0
 40
2.5
  1
 
 50
90.0
 72
     4
 11
209.7374239875778983
 21
1130.8758750487850193
 31
0.0
  0
TEXT
  5
D21
  8
BEM
 10
337.8333443558278759
 20
991.8898127783647851
 30
0.0
 40
2.5
  1

 50
90.0
  7
GREEKS
  0
TEXT
  5
D22
  8
BEM
 10
352.7717922081480992
 20
1012.4515988380769613
 30
0.0
 40
2.5
  1

 50
90.0
 41
0.8
  7
GREEKS
  0
TEXT
  5
D23
  8
BEM
 10
362.8502422728611805
 20
1012.3122688197900061
 30
0.0
 40
2.5
  1

 50
90.0
 41
0.8
  7
GREEKS
  0
TEXT
  5
D24
  8
BEM
 10
357.9044593365454716
 20
1012.365528703551945
 30
0.0
 40
2.5
  1

 50
90.0
 41
0.8
  7
GREEKS
  0
TEXT
  5
D25
  8
BEM
 10
367.9450299125011838
 20
1012.4080467414479472
 30
0.0
 40
1.8
  1

 50
90.0
 41
0.8
  7
GREEKS
  0
TEXT
  5
D26
  8
BEM
 10
342.5066854253329893
 20
999.8357314978668455
 30
0.0
 40
2.0
  1

 50
90.0
 41
0.8
  7
GREEKS
 72
     1
 11
342.5066854253329893
 21
999.8357314978668455
 31
0.0
  0
TEXT
  5
D27
  8
VOLL
 10
356.5433067855911986
 20
733.03087102257075
 30
0.0
 40
1.8
  1

 50
90.0
  7
GREEKS
  0
TEXT
  5
D28
  8
TEXT
 10
350.9850712523656853
 20
1064.8631392261629571
 30
0.0
 40
2.5
  1
  
 50
90.0
  7
GREEKS
 72
     1
 11
350.9850712523656853
 21
1067.1250439880680005
 31
0.0
  0
TEXT
  5
D29
  8
BEM
 10
215.4261892219633978
 20
1308.98285653864491
 30
0.0
 40
2.5
  1
 
 50
90.0
 72
     4
 11
215.4261892219633978
 21
1310.1138089195978864
 31
0.0
  0
TEXT
  5
D2A
  8
BEM
 10
293.6043806848174995
 20
847.5198894007379522
 30
0.0
 40
2.5
  1

 50
90.0
  7
GREEKS
  0
TEXT
  5
D2B
  8
VOLL
 10
313.7876413418526909
 20
833.4536963810164707
 30
0.0
 40
1.8
  1

 50
90.0
  7
GREEKS
  0
TEXT
  5
D2C
  8
BEM
 10
309.061917018632073
 20
867.9417612203010322
 30
0.0
 40
2.5
  1

 50
90.0
 41
0.8
  7
GREEKS
  0
TEXT
  5
D2D
  8
BEM
 10
313.7556855726841718
 20
867.9417612203010322
 30
0.0
 40
2.5
  1

 50
90.0
 41
0.8
  7
GREEKS
  0
TEXT
  5
D2E
  8
BEM
 10
318.9935293913478063
 20
867.9417612203010322
 30
0.0
 40
2.5
  1

 50
90.0
 41
0.8
  7
GREEKS
  0
TEXT
  5
D2F
  8
BEM
 10
323.4987183414453966
 20
867.8688167429266969
 30
0.0
 40
1.8
  1

 50
90.0
 41
0.8
  7
GREEKS
  0
TEXT
  5
D30
  8
BEM
 10
297.9071292452200055
 20
855.185245863315572
 30
0.0
 40
2.0
  1

 50
90.0
 41
0.8
  7
GREEKS
 72
     1
 11
297.9071292452200055
 21
855.185245863315572
 31
0.0
  0
TEXT
  5
D31
  8
TEXT
 10
308.2294058086271207
 20
1165.2859645846090189
 30
0.0
 40
2.5
  1
  
 50
90.0
  7
GREEKS
 72
     1
 11
308.2294058086271207
 21
1167.5478693465140623
 31
0.0
  0
TEXT
  5
D32
  8
BEM
 10
172.6705237782248901
 20
1409.4056818970909717
 30
0.0
 40
2.5
  1
 
 50
90.0
 72
     4
 11
172.6705237782248901
 21
1410.5366342780439481
 31
0.0
  0
TEXT
  5
D33
  8
VOLL
 10
397.075759080588
 20
541.70148923190186
 30
0.0
 40
1.8
  1

 50
90.0
  7
GREEKS
  0
TEXT
  5
D34
  8
VOLL
 10
391.7836423648686832
 20
631.3676631575749525
 30
0.0
 40
1.8
  1

 50
90.0
  7
GREEKS
  0
TEXT
  5
D35
  8
TEXT
 10
386.2254068316432267
 20
963.1999313611680691
 30
0.0
 40
2.5
  1
  
 50
90.0
  7
GREEKS
 72
     1
 11
386.2254068316432267
 21
965.4618361230728851
 31
0.0
  0
TEXT
  5
D36
  8
BEM
 10
250.6665248012409961
 20
1207.3196486736499082
 30
0.0
 40
2.5
  1
 
 50
90.0
 72
     4
 11
250.6665248012409961
 21
1208.4506010546019752
 31
0.0
  0
TEXT
  5
D37
  8
BEM
 10
368.1469281737072947
 20
773.0089928034994955
 30
0.0
 40
2.5
  1

 50
90.0
  7
GREEKS
  0
TEXT
  5
D38
  8
VOLL
 10
388.3301888307423724
 20
758.9427997837782414
 30
0.0
 40
1.8
  1

 50
90.0
  7
GREEKS
  0
TEXT
  5
D39
  8
BEM
 10
383.604464507521925
 20
793.4308646230626891
 30
0.0
 40
2.5
  1

 50
90.0
 41
0.8
  7
GREEKS
  0
TEXT
  5
D3A
  8
BEM
 10
388.2982330615740238
 20
793.4308646230626891
 30
0.0
 40
2.5
  1

 50
90.0
 41
0.8
  7
GREEKS
  0
TEXT
  5
D3B
  8
BEM
 10
393.5360768802374878
 20
793.4308646230626891
 30
0.0
 40
2.5
  1

 50
90.0
 41
0.8
  7
GREEKS
  0
TEXT
  5
D3C
  8
BEM
 10
398.0412658303350781
 20
793.3579201456883538
 30
0.0
 40
1.8
  1

 50
90.0
 41
0.8
  7
GREEKS
  0
TEXT
  5
D3D
  8
BEM
 10
372.4496767341098007
 20
780.674349266077229
 30
0.0
 40
2.0
  1

 50
90.0
 41
0.8
  7
GREEKS
 72
     1
 11
372.4496767341098007
 21
780.674349266077229
 31
0.0
  0
TEXT
  5
D3E
  8
TEXT
 10
382.7719532975169159
 20
1090.7750679873709032
 30
0.0
 40
2.5
  1
  
 50
90.0
  7
GREEKS
 72
     1
 11
382.7719532975169159
 21
1093.0369727492759466
 31
0.0
  0
TEXT
  5
D3F
  8
BEM
 10
247.2130712671147137
 20
1334.8947852998530834
 30
0.0
 40
2.5
  1
 
 50
90.0
 72
     4
 11
247.2130712671147137
 21
1336.025737680804923
 31
0.0
  0
TEXT
  5
D40
  8
VOLL
 10
355.1211150428678138
 20
518.2298550345344665
 30
0.0
 40
1.8
  1

 50
90.0
  7
GREEKS
  0
TEXT
  5
D41
  8
VOLL
 10
349.8289983271484971
 20
607.8960289602075591
 30
0.0
 40
1.8
  1

 50
90.0
  7
GREEKS
  0
TEXT
  5
D42
  8
TEXT
 10
344.2707627939229837
 20
939.728297163800562
 30
0.0
 40
2.5
  1
  
 50
90.0
  7
GREEKS
 72
     1
 11
344.2707627939229837
 21
941.9902019257054917
 31
0.0
  0
TEXT
  5
D43
  8
BEM
 10
208.71188076352081
 20
1183.8480144762820601
 30
0.0
 40
2.5
  1
 
 50
90.0
 72
     4
 11
208.71188076352081
 21
1184.9789668572350365
 31
0.0
  0
TEXT
  5
D44
  8
BEM
 10
326.1922841359871086
 20
749.5373586061321021
 30
0.0
 40
2.5
  1

 50
90.0
  7
GREEKS
  0
TEXT
  5
D45
  8
VOLL
 10
346.3755447930221862
 20
735.4711655864107342
 30
0.0
 40
1.8
  1

 50
90.0
  7
GREEKS
  0
TEXT
  5
D46
  8
BEM
 10
341.6498204698016252
 20
769.9592304256952957
 30
0.0
 40
2.5
  1

 50
90.0
 41
0.8
  7
GREEKS
  0
TEXT
  5
D47
  8
BEM
 10
346.3435890238537809
 20
769.9592304256952957
 30
0.0
 40
2.5
  1

 50
90.0
 41
0.8
  7
GREEKS
  0
TEXT
  5
D48
  8
BEM
 10
351.5814328425173017
 20
769.9592304256952957
 30
0.0
 40
2.5
  1

 50
90.0
 41
0.8
  7
GREEKS
  0
TEXT
  5
D49
  8
BEM
 10
356.086621792614892
 20
769.8862859483209604
 30
0.0
 40
1.8
  1

 50
90.0
 41
0.8
  7
GREEKS
  0
TEXT
  5
D4A
  8
BEM
 10
330.4950326963896146
 20
757.2027150687097219
 30
0.0
 40
2.0
  1

 50
90.0
 41
0.8
  7
GREEKS
 72
     1
 11
330.4950326963896146
 21
757.2027150687097219
 31
0.0
  0
TEXT
  5
D4B
  8
TEXT
 10
340.8173092597966729
 20
1067.3034337900039645
 30
0.0
 40
2.5
  1
  
 50
90.0
  7
GREEKS
 72
     1
 11
340.8173092597966729
 21
1069.5653385519080985
 31
0.0
  0
TEXT
  5
D4C
  8
BEM
 10
205.2584272293944991
 20
1311.4231511024859174
 30
0.0
 40
2.5
  1
 
 50
90.0
 72
     4
 11
205.2584272293944991
 21
1312.5541034834379843
 31
0.0
  0
TEXT
  5
D51
  8
VOLL
 10
571.8895211849784346
 20
751.434232911693698
 30
0.0
 40
1.8
  1

 50
90.0
  7
GREEKS
  0
TEXT
  5
D52
  8
VOLL
 10
566.5974044692591178
 20
841.1004068373669043
 30
0.0
 40
1.8
  1

 50
90.0
  7
GREEKS
  0
TEXT
  5
D53
  8
TEXT
 10
561.0391689360335477
 20
1172.9326750409600209
 30
0.0
 40
2.5
  1
  
 50
90.0
  7
GREEKS
 72
     1
 11
561.0391689360335477
 21
1175.1945798028639274
 31
0.0
  0
TEXT
  5
D54
  8
BEM
 10
425.480286905631317
 20
1417.0523923534419737
 30
0.0
 40
2.5
  1
 
 50
90.0
 72
     4
 11
425.480286905631317
 21
1418.1833447343940406
 31
0.0
  0
TEXT
  5
D55
  8
BEM
 10
542.9606902780975588
 20
982.7417364832912199
 30
0.0
 40
2.5
  1

 50
90.0
  7
GREEKS
  0
TEXT
  5
D56
  8
VOLL
 10
563.143950935132807
 20
968.6755434635697384
 30
0.0
 40
1.8
  1

 50
90.0
  7
GREEKS
  0
TEXT
  5
D57
  8
BEM
 10
558.418226611912246
 20
1003.1636083028539588
 30
0.0
 40
2.5
  1

 50
90.0
 41
0.8
  7
GREEKS
  0
TEXT
  5
D58
  8
BEM
 10
563.1119951659643448
 20
1003.1636083028539588
 30
0.0
 40
2.5
  1

 50
90.0
 41
0.8
  7
GREEKS
  0
TEXT
  5
D59
  8
BEM
 10
568.3498389846278087
 20
1003.1636083028539588
 30
0.0
 40
2.5
  1

 50
90.0
 41
0.8
  7
GREEKS
  0
TEXT
  5
D5A
  8
BEM
 10
572.8550279347253991
 20
1003.0906638254799645
 30
0.0
 40
1.8
  1

 50
90.0
 41
0.8
  7
GREEKS
  0
TEXT
  5
D5B
  8
BEM
 10
547.2634388385000648
 20
990.4070929458688397
 30
0.0
 40
2.0
  1

 50
90.0
 41
0.8
  7
GREEKS
 72
     1
 11
547.2634388385000648
 21
990.4070929458688397
 31
0.0
  0
TEXT
  5
D5C
  8
TEXT
 10
557.5857154019072368
 20
1300.5078116671629687
 30
0.0
 40
2.5
  1
  
 50
90.0
  7
GREEKS
 72
     1
 11
557.5857154019072368
 21
1302.7697164290671026
 31
0.0
  0
TEXT
  5
D5D
  8
BEM
 10
422.0268333715051199
 20
1544.6275289796449215
 30
0.0
 40
2.5
  1
 
 50
90.0
 72
     4
 11
422.0268333715051199
 21
1545.7584813605969885
 31
0.0
  0
TEXT
  5
D5E
  8
VOLL
 10
555.6924368731436061
 20
893.3923078588550197
 30
0.0
 40
1.8
  1

 50
90.0
  7
GREEKS
  0
TEXT
  5
D5F
  8
TEXT
 10
550.1342013399181496
 20
1225.2245760624480226
 30
0.0
 40
2.5
  1
  
 50
90.0
  7
GREEKS
 72
     1
 11
550.1342013399181496
 21
1227.4864808243530661
 31
0.0
  0
TEXT
  5
D60
  8
BEM
 10
414.575319309515919
 20
1469.3442933749299755
 30
0.0
 40
2.5
  1
 
 50
90.0
 72
     4
 11
414.575319309515919
 21
1470.4752457558820424
 31
0.0
  0
TEXT
  5
D61
  8
BEM
 10
535.3590259834669496
 20
1048.5319100156509649
 30
0.0
 40
2.5
  1

 50
90.0
  7
GREEKS
  0
TEXT
  5
D62
  8
VOLL
 10
555.5422866405021978
 20
1034.4657169959289149
 30
0.0
 40
1.8
  1

 50
90.0
  7
GREEKS
  0
TEXT
  5
D63
  8
BEM
 10
550.8165623172816368
 20
1068.9537818352139311
 30
0.0
 40
2.5
  1

 50
90.0
 41
0.8
  7
GREEKS
  0
TEXT
  5
D64
  8
BEM
 10
555.5103308713337356
 20
1068.9537818352139311
 30
0.0
 40
2.5
  1

 50
90.0
 41
0.8
  7
GREEKS
  0
TEXT
  5
D65
  8
BEM
 10
560.7481746899971995
 20
1068.9537818352139311
 30
0.0
 40
2.5
  1

 50
90.0
 41
0.8
  7
GREEKS
  0
TEXT
  5
D66
  8
BEM
 10
565.2533636400947898
 20
1068.8808373578399369
 30
0.0
 40
1.8
  1

 50
90.0
 41
0.8
  7
GREEKS
  0
TEXT
  5
D67
  8
BEM
 10
539.6617745438694556
 20
1056.1972664782279026
 30
0.0
 40
2.0
  1

 50
90.0
 41
0.8
  7
GREEKS
 72
     1
 11
539.6617745438694556
 21
1056.1972664782279026
 31
0.0
  0
TEXT
  5
D68
  8
TEXT
 10
549.9840511072766276
 20
1366.2979851995219178
 30
0.0
 40
2.5
  1
  
 50
90.0
  7
GREEKS
 72
     1
 11
549.9840511072766276
 21
1368.5598899614269612
 31
0.0
  0
TEXT
  5
D69
  8
BEM
 10
414.4251690768745107
 20
1610.417702512004098
 30
0.0
 40
2.5
  1
 
 50
90.0
 72
     4
 11
414.4251690768745107
 21
1611.5486548929559376
 31
0.0
  0
TEXT
  5
D6A
  8
VOLL
 10
567.5081463988922224
 20
829.3700964320986486
 30
0.0
 40
1.8
  1

 50
90.0
  7
GREEKS
  0
TEXT
  5
D6B
  8
TEXT
 10
561.9499108656666522
 20
1161.2023646356910831
 30
0.0
 40
2.5
  1
  
 50
90.0
  7
GREEKS
 72
     1
 11
561.9499108656666522
 21
1163.4642693975958991
 31
0.0
  0
TEXT
  5
D6C
  8
BEM
 10
426.3910288352644216
 20
1405.3220819481730359
 30
0.0
 40
2.5
  1
 
 50
90.0
 72
     4
 11
426.3910288352644216
 21
1406.4530343291260124
 31
0.0
  0
TEXT
  5
D6D
  8
BEM
 10
527.3549157003063783
 20
994.7157095117486278
 30
0.0
 40
2.5
  1

 50
90.0
  7
GREEKS
  0
TEXT
  5
D6E
  8
VOLL
 10
547.5381763573416265
 20
980.6495164920271463
 30
0.0
 40
1.8
  1

 50
90.0
  7
GREEKS
  0
TEXT
  5
D6F
  8
BEM
 10
542.8124520341209518
 20
1015.1375813313120489
 30
0.0
 40
2.5
  1

 50
90.0
 41
0.8
  7
GREEKS
  0
TEXT
  5
D70
  8
BEM
 10
547.5062205881730506
 20
1015.1375813313120489
 30
0.0
 40
2.5
  1

 50
90.0
 41
0.8
  7
GREEKS
  0
TEXT
  5
D71
  8
BEM
 10
552.7440644068366282
 20
1015.1375813313120489
 30
0.0
 40
2.5
  1

 50
90.0
 41
0.8
  7
GREEKS
  0
TEXT
  5
D72
  8
BEM
 10
557.2492533569343323
 20
1015.0646368539370314
 30
0.0
 40
1.8
  1

 50
90.0
 41
0.8
  7
GREEKS
  0
TEXT
  5
D73
  8
BEM
 10
531.6576642607088843
 20
1002.3810659743260203
 30
0.0
 40
2.0
  1

 50
90.0
 41
0.8
  7
GREEKS
 72
     1
 11
531.6576642607088843
 21
1002.3810659743260203
 31
0.0
  0
TEXT
  5
D74
  8
TEXT
 10
541.9799408241160563
 20
1312.4817846956200356
 30
0.0
 40
2.5
  1
  
 50
90.0
  7
GREEKS
 72
     1
 11
541.9799408241160563
 21
1314.743689457525079
 31
0.0
  0
TEXT
  5
D75
  8
BEM
 10
406.4210587937138826
 20
1556.6015020081019884
 30
0.0
 40
2.5
  1
 
 50
90.0
 72
     4
 11
406.4210587937138826
 21
1557.7324543890549648
 31
0.0
  0
TEXT
  5
D76
  8
VOLL
 10
562.3897030213895505
 20
1156.9516726852100419
 30
0.0
 40
1.8
  1

 50
90.0
  7
GREEKS
  0
TEXT
  5
D77
  8
VOLL
 10
557.0975863056703474
 20
1246.617846610882907
 30
0.0
 40
1.8
  1

 50
90.0
  7
GREEKS
  0
TEXT
  5
D78
  8
TEXT
 10
551.5393507724446636
 20
1578.45011481447591
 30
0.0
 40
2.5
  1
  
 50
90.0
  7
GREEKS
 72
     1
 11
551.5393507724446636
 21
1580.7120195763809534
 31
0.0
  0
TEXT
  5
D79
  8
BEM
 10
415.9804687420424898
 20
1822.5698321269580902
 30
0.0
 40
2.5
  1
 
 50
90.0
 72
     4
 11
415.9804687420424898
 21
1823.7007845079099297
 31
0.0
  0
TEXT
  5
D7A
  8
BEM
 10
533.4608721145087884
 20
1388.2591762568069953
 30
0.0
 40
2.5
  1

 50
90.0
  7
GREEKS
  0
TEXT
  5
D7B
  8
VOLL
 10
553.6441327715440366
 20
1374.1929832370860822
 30
0.0
 40
1.8
  1

 50
90.0
  7
GREEKS
  0
TEXT
  5
D7C
  8
BEM
 10
548.9184084483233619
 20
1408.6810480763710984
 30
0.0
 40
2.5
  1

 50
90.0
 41
0.8
  7
GREEKS
  0
TEXT
  5
D7D
  8
BEM
 10
553.6121770023754607
 20
1408.6810480763710984
 30
0.0
 40
2.5
  1

 50
90.0
 41
0.8
  7
GREEKS
  0
TEXT
  5
D7E
  8
BEM
 10
558.850020821039152
 20
1408.6810480763710984
 30
0.0
 40
2.5
  1

 50
90.0
 41
0.8
  7
GREEKS
  0
TEXT
  5
D7F
  8
BEM
 10
563.3552097711367423
 20
1408.6081035989971042
 30
0.0
 40
1.8
  1

 50
90.0
 41
0.8
  7
GREEKS
  0
TEXT
  5
D80
  8
BEM
 10
537.7636206749114081
 20
1395.9245327193850699
 30
0.0
 40
2.0
  1

 50
90.0
 41
0.8
  7
GREEKS
 72
     1
 11
537.7636206749114081
 21
1395.9245327193850699
 31
0.0
  0
TEXT
  5
D81
  8
TEXT
 10
548.0858972383184664
 20
1706.0252514406790851
 30
0.0
 40
2.5
  1
  
 50
90.0
  7
GREEKS
 72
     1
 11
548.0858972383184664
 21
1708.2871562025839012
 31
0.0
  0
TEXT
  5
D82
  8
BEM
 10
412.5270152079162926
 20
1950.144968753161038
 30
0.0
 40
2.5
  1
 
 50
90.0
 72
     4
 11
412.5270152079162926
 21
1951.2759211341131049
 31
0.0
  0
TEXT
  5
D83
  8
VOLL
 10
585.3387759138902311
 20
1164.8649873769929854
 30
0.0
 40
1.8
  1

 50
90.0
  7
GREEKS
  0
TEXT
  5
D84
  8
VOLL
 10
580.0466591981709144
 20
1254.531161302666078
 30
0.0
 40
1.8
  1

 50
90.0
  7
GREEKS
  0
TEXT
  5
D85
  8
TEXT
 10
574.4884236649453442
 20
1586.3634295062590809
 30
0.0
 40
2.5
  1
  
 50
90.0
  7
GREEKS
 72
     1
 11
574.4884236649453442
 21
1588.6253342681638969
 31
0.0
  0
TEXT
  5
D86
  8
BEM
 10
438.9295416345431136
 20
1830.4831468187410337
 30
0.0
 40
2.5
  1
 
 50
90.0
 72
     4
 11
438.9295416345431136
 21
1831.6140991996940102
 31
0.0
  0
TEXT
  5
D87
  8
BEM
 10
556.4099450070093553
 20
1396.1724909485910757
 30
0.0
 40
2.5
  1

 50
90.0
  7
GREEKS
  0
TEXT
  5
D88
  8
VOLL
 10
576.5932056640446035
 20
1382.1062979288699353
 30
0.0
 40
1.8
  1

 50
90.0
  7
GREEKS
  0
TEXT
  5
D89
  8
BEM
 10
571.8674813408240425
 20
1416.594362768154042
 30
0.0
 40
2.5
  1

 50
90.0
 41
0.8
  7
GREEKS
  0
TEXT
  5
D8A
  8
BEM
 10
576.5612498948761413
 20
1416.594362768154042
 30
0.0
 40
2.5
  1

 50
90.0
 41
0.8
  7
GREEKS
  0
TEXT
  5
D8B
  8
BEM
 10
581.7990937135394915
 20
1416.594362768154042
 30
0.0
 40
2.5
  1

 50
90.0
 41
0.8
  7
GREEKS
  0
TEXT
  5
D8C
  8
BEM
 10
586.3042826636371956
 20
1416.5214182907789109
 30
0.0
 40
1.8
  1

 50
90.0
 41
0.8
  7
GREEKS
  0
TEXT
  5
D8D
  8
BEM
 10
560.7126935674118613
 20
1403.8378474111680134
 30
0.0
 40
2.0
  1

 50
90.0
 41
0.8
  7
GREEKS
 72
     1
 11
560.7126935674118613
 21
1403.8378474111680134
 31
0.0
  0
TEXT
  5
D8E
  8
TEXT
 10
571.0349701308190333
 20
1713.9385661324620287
 30
0.0
 40
2.5
  1
  
 50
90.0
  7
GREEKS
 72
     1
 11
571.0349701308190333
 21
1716.2004708943670721
 31
0.0
  0
TEXT
  5
D8F
  8
BEM
 10
435.4760881004168027
 20
1958.0582834449439815
 30
0.0
 40
2.5
  1
 
 50
90.0
 72
     4
 11
435.4760881004168027
 21
1959.189235825896958
 31
0.0
  0
TEXT
  5
D90
  8
VOLL
 10
569.141691602055289
 20
1306.8230623241549893
 30
0.0
 40
1.8
  1

 50
90.0
  7
GREEKS
  0
TEXT
  5
D91
  8
TEXT
 10
563.5834560688299462
 20
1638.6553305277479922
 30
0.0
 40
2.5
  1
  
 50
90.0
  7
GREEKS
 72
     1
 11
563.5834560688299462
 21
1640.9172352896518987
 31
0.0
  0
TEXT
  5
D92
  8
BEM
 10
428.0245740384276019
 20
1882.775047840229945
 30
0.0
 40
2.5
  1
 
 50
90.0
 72
     4
 11
428.0245740384276019
 21
1883.906000221182012
 31
0.0
  0
TEXT
  5
D93
  8
BEM
 10
548.8082807123787461
 20
1461.9626644809509344
 30
0.0
 40
2.5
  1

 50
90.0
  7
GREEKS
  0
TEXT
  5
D94
  8
VOLL
 10
568.9915413694139943
 20
1447.8964714612291118
 30
0.0
 40
1.8
  1

 50
90.0
  7
GREEKS
  0
TEXT
  5
D95
  8
BEM
 10
564.2658170461934333
 20
1482.3845363005139006
 30
0.0
 40
2.5
  1

 50
90.0
 41
0.8
  7
GREEKS
  0
TEXT
  5
D96
  8
BEM
 10
568.9595856002455321
 20
1482.3845363005139006
 30
0.0
 40
2.5
  1

 50
90.0
 41
0.8
  7
GREEKS
  0
TEXT
  5
D97
  8
BEM
 10
574.197429418908996
 20
1482.3845363005139006
 30
0.0
 40
2.5
  1

 50
90.0
 41
0.8
  7
GREEKS
  0
TEXT
  5
D98
  8
BEM
 10
578.7026183690065864
 20
1482.3115918231389969
 30
0.0
 40
1.8
  1

 50
90.0
 41
0.8
  7
GREEKS
  0
TEXT
  5
D99
  8
BEM
 10
553.1110292727812521
 20
1469.6280209435280995
 30
0.0
 40
2.0
  1

 50
90.0
 41
0.8
  7
GREEKS
 72
     1
 11
553.1110292727812521
 21
1469.6280209435280995
 31
0.0
  0
TEXT
  5
D9A
  8
TEXT
 10
563.4333058361885378
 20
1779.7287396648218873
 30
0.0
 40
2.5
  1
  
 50
90.0
  7
GREEKS
 72
     1
 11
563.4333058361885378
 21
1781.9906444267269308
 31
0.0
  0
TEXT
  5
D9B
  8
BEM
 10
427.8744238057861935
 20
2023.8484569773040675
 30
0.0
 40
2.5
  1
 
 50
90.0
 72
     4
 11
427.8744238057861935
 21
2024.979409358257044
 31
0.0
  0
TEXT
  5
D9C
  8
VOLL
 10
374.4794621222495152
 20
937.4402026372704313
 30
0.0
 40
1.8
  1

 50
90.0
  7
GREEKS
  0
TEXT
  5
D9D
  8
VOLL
 10
369.1873454065301985
 20
1027.1063765629439786
 30
0.0
 40
1.8
  1

 50
90.0
  7
GREEKS
  0
TEXT
  5
D9E
  8
TEXT
 10
363.6291098733046852
 20
1358.938644766536072
 30
0.0
 40
2.5
  1
  
 50
90.0
  7
GREEKS
 72
     1
 11
363.6291098733046852
 21
1361.200549528440888
 31
0.0
  0
TEXT
  5
D9F
  8
BEM
 10
228.0702278429023977
 20
1603.0583620790189343
 30
0.0
 40
2.5
  1
 
 50
90.0
 72
     4
 11
228.0702278429023977
 21
1604.1893144599710013
 31
0.0
  0
TEXT
  5
DA0
  8
BEM
 10
345.55063121536881
 20
1168.7477062088680668
 30
0.0
 40
2.5
  1

 50
90.0
  7
GREEKS
  0
TEXT
  5
DA1
  8
VOLL
 10
365.7338918724038876
 20
1154.6815131891469264
 30
0.0
 40
1.8
  1

 50
90.0
  7
GREEKS
  0
TEXT
  5
DA2
  8
BEM
 10
361.0081675491833266
 20
1189.1695780284310331
 30
0.0
 40
2.5
  1

 50
90.0
 41
0.8
  7
GREEKS
  0
TEXT
  5
DA3
  8
BEM
 10
365.7019361032354254
 20
1189.1695780284310331
 30
0.0
 40
2.5
  1

 50
90.0
 41
0.8
  7
GREEKS
  0
TEXT
  5
DA4
  8
BEM
 10
370.9397799218990031
 20
1189.1695780284310331
 30
0.0
 40
2.5
  1

 50
90.0
 41
0.8
  7
GREEKS
  0
TEXT
  5
DA5
  8
BEM
 10
375.4449688719965934
 20
1189.096633551055902
 30
0.0
 40
1.8
  1

 50
90.0
 41
0.8
  7
GREEKS
  0
TEXT
  5
DA6
  8
BEM
 10
349.853379775771316
 20
1176.4130626714450045
 30
0.0
 40
2.0
  1

 50
90.0
 41
0.8
  7
GREEKS
 72
     1
 11
349.853379775771316
 21
1176.4130626714450045
 31
0.0
  0
TEXT
  5
DA7
  8
TEXT
 10
360.1756563391783743
 20
1486.5137813927390198
 30
0.0
 40
2.5
  1
  
 50
90.0
  7
GREEKS
 72
     1
 11
360.1756563391783743
 21
1488.7756861546440632
 31
0.0
  0
TEXT
  5
DA8
  8
BEM
 10
224.6167743087762005
 20
1730.6334987052221095
 30
0.0
 40
2.5
  1
 
 50
90.0
 72
     4
 11
224.6167743087762005
 21
1731.7644510861739491
 31
0.0
  0
TEXT
  5
DA9
  8
VOLL
 10
358.2823778104148005
 20
1079.3982775844319804
 30
0.0
 40
1.8
  1

 50
90.0
  7
GREEKS
  0
TEXT
  5
DAA
  8
TEXT
 10
352.7241422771891735
 20
1411.2305457880249833
 30
0.0
 40
2.5
  1
  
 50
90.0
  7
GREEKS
 72
     1
 11
352.7241422771891735
 21
1413.4924505499288898
 31
0.0
  0
TEXT
  5
DAB
  8
BEM
 10
217.1652602467869997
 20
1655.3502631005069361
 30
0.0
 40
2.5
  1
 
 50
90.0
 72
     4
 11
217.1652602467869997
 21
1656.4812154814590031
 31
0.0
  0
TEXT
  5
DAC
  8
BEM
 10
337.9489669207382008
 20
1234.5378797412279255
 30
0.0
 40
2.5
  1

 50
90.0
  7
GREEKS
  0
TEXT
  5
DAD
  8
VOLL
 10
358.1322275777732784
 20
1220.4716867215061029
 30
0.0
 40
1.8
  1

 50
90.0
  7
GREEKS
  0
TEXT
  5
DAE
  8
BEM
 10
353.4065032545527174
 20
1254.9597515607908917
 30
0.0
 40
2.5
  1

 50
90.0
 41
0.8
  7
GREEKS
  0
TEXT
  5
DAF
  8
BEM
 10
358.1002718086048731
 20
1254.9597515607908917
 30
0.0
 40
2.5
  1

 50
90.0
 41
0.8
  7
GREEKS
  0
TEXT
  5
DB0
  8
BEM
 10
363.3381156272683938
 20
1254.9597515607908917
 30
0.0
 40
2.5
  1

 50
90.0
 41
0.8
  7
GREEKS
  0
TEXT
  5
DB1
  8
BEM
 10
367.8433045773659842
 20
1254.886807083415988
 30
0.0
 40
1.8
  1

 50
90.0
 41
0.8
  7
GREEKS
  0
TEXT
  5
DB2
  8
BEM
 10
342.2517154811407067
 20
1242.2032362038050906
 30
0.0
 40
2.0
  1

 50
90.0
 41
0.8
  7
GREEKS
 72
     1
 11
342.2517154811407067
 21
1242.2032362038050906
 31
0.0
  0
TEXT
  5
DB3
  8
TEXT
 10
352.5739920445478219
 20
1552.3039549250991058
 30
0.0
 40
2.5
  1
  
 50
90.0
  7
GREEKS
 72
     1
 11
352.5739920445478219
 21
1554.5658596870039219
 31
0.0
  0
TEXT
  5
DB4
  8
BEM
 10
217.0151100141455061
 20
1796.4236722375810587
 30
0.0
 40
2.5
  1
 
 50
90.0
 72
     4
 11
217.0151100141455061
 21
1797.5546246185340351
 31
0.0
  0
TEXT
  5
DB5
  8
VOLL
 10
370.098087336163303
 20
1015.3760661576750408
 30
0.0
 40
1.8
  1

 50
90.0
  7
GREEKS
  0
TEXT
  5
DB6
  8
TEXT
 10
364.539851802937676
 20
1347.2083343612680437
 30
0.0
 40
2.5
  1
  
 50
90.0
  7
GREEKS
 72
     1
 11
364.539851802937676
 21
1349.4702391231730871
 31
0.0
  0
TEXT
  5
DB7
  8
BEM
 10
228.9809697725355022
 20
1591.3280516737499966
 30
0.0
 40
2.5
  1
 
 50
90.0
 72
     4
 11
228.9809697725355022
 21
1592.459004054702973
 31
0.0
  0
TEXT
  5
DB8
  8
BEM
 10
329.9448566375775727
 20
1180.7216792373249064
 30
0.0
 40
2.5
  1

 50
90.0
  7
GREEKS
  0
TEXT
  5
DB9
  8
VOLL
 10
350.1281172946127072
 20
1166.6554862176039933
 30
0.0
 40
1.8
  1

 50
90.0
  7
GREEKS
  0
TEXT
  5
DBA
  8
BEM
 10
345.402392971392203
 20
1201.1435510568881
 30
0.0
 40
2.5
  1

 50
90.0
 41
0.8
  7
GREEKS
  0
TEXT
  5
DBB
  8
BEM
 10
350.0961615254443018
 20
1201.1435510568881
 30
0.0
 40
2.5
  1

 50
90.0
 41
0.8
  7
GREEKS
  0
TEXT
  5
DBC
  8
BEM
 10
355.3340053441078226
 20
1201.1435510568881
 30
0.0
 40
2.5
  1

 50
90.0
 41
0.8
  7
GREEKS
  0
TEXT
  5
DBD
  8
BEM
 10
359.8391942942054129
 20
1201.0706065795141058
 30
0.0
 40
1.8
  1

 50
90.0
 41
0.8
  7
GREEKS
  0
TEXT
  5
DBE
  8
BEM
 10
334.2476051979800786
 20
1188.3870356999029809
 30
0.0
 40
2.0
  1

 50
90.0
 41
0.8
  7
GREEKS
 72
     1
 11
334.2476051979800786
 21
1188.3870356999029809
 31
0.0
  0
TEXT
  5
DBF
  8
TEXT
 10
344.5698817613870801
 20
1498.4877544211969962
 30
0.0
 40
2.5
  1
  
 50
90.0
  7
GREEKS
 72
     1
 11
344.5698817613870801
 21
1500.7496591831009027
 31
0.0
  0
TEXT
  5
DC0
  8
BEM
 10
209.0109997309849916
 20
1742.607471733678949
 30
0.0
 40
2.5
  1
 
 50
90.0
 72
     4
 11
209.0109997309849916
 21
1743.738424114631016
 31
0.0
  0
TEXT
  5
DC1
  8
VOLL
 10
396.1355591308134763
 20
943.8415555698110211
 30
0.0
 40
1.8
  1

 50
90.0
  7
GREEKS
  0
TEXT
  5
DC2
  8
VOLL
 10
390.8434424150942164
 20
1033.5077294954839999
 30
0.0
 40
1.8
  1

 50
90.0
  7
GREEKS
  0
TEXT
  5
DC3
  8
TEXT
 10
385.2852068818685893
 20
1365.3399976990770028
 30
0.0
 40
2.5
  1
  
 50
90.0
  7
GREEKS
 72
     1
 11
385.2852068818685893
 21
1367.6019024609820463
 31
0.0
  0
TEXT
  5
DC4
  8
BEM
 10
249.7263248514663871
 20
1609.4597150115589557
 30
0.0
 40
2.5
  1
 
 50
90.0
 72
     4
 11
249.7263248514663871
 21
1610.5906673925110226
 31
0.0
  0
TEXT
  5
DC5
  8
BEM
 10
367.2067282239328279
 20
1175.1490591414080882
 30
0.0
 40
2.5
  1

 50
90.0
  7
GREEKS
  0
TEXT
  5
DC6
  8
VOLL
 10
387.3899888809677918
 20
1161.0828661216869477
 30
0.0
 40
1.8
  1

 50
90.0
  7
GREEKS
  0
TEXT
  5
DC7
  8
BEM
 10
382.6642645577472877
 20
1195.5709309609719639
 30
0.0
 40
2.5
  1

 50
90.0
 41
0.8
  7
GREEKS
  0
TEXT
  5
DC8
  8
BEM
 10
387.3580331117993865
 20
1195.5709309609719639
 30
0.0
 40
2.5
  1

 50
90.0
 41
0.8
  7
GREEKS
  0
TEXT
  5
DC9
  8
BEM
 10
392.5958769304629072
 20
1195.5709309609719639
 30
0.0
 40
2.5
  1

 50
90.0
 41
0.8
  7
GREEKS
  0
TEXT
  5
DCA
  8
BEM
 10
397.1010658805606113
 20
1195.4979864835970602
 30
0.0
 40
1.8
  1

 50
90.0
 41
0.8
  7
GREEKS
  0
TEXT
  5
DCB
  8
BEM
 10
371.509476784335277
 20
1182.8144156039859354
 30
0.0
 40
2.0
  1

 50
90.0
 41
0.8
  7
GREEKS
 72
     1
 11
371.509476784335277
 21
1182.8144156039859354
 31
0.0
  0
TEXT
  5
DCC
  8
TEXT
 10
381.8317533477423922
 20
1492.9151343252799506
 30
0.0
 40
2.5
  1
  
 50
90.0
  7
GREEKS
 72
     1
 11
381.8317533477423922
 21
1495.1770390871849941
 31
0.0
  0
TEXT
  5
DCD
  8
BEM
 10
246.2728713173401047
 20
1737.0348516377619035
 30
0.0
 40
2.5
  1
 
 50
90.0
 72
     4
 11
246.2728713173401047
 21
1738.1658040187151073
 31
0.0
  0
TEXT
  5
DCE
  8
VOLL
 10
379.9384748189788183
 20
1085.7996305169720017
 30
0.0
 40
1.8
  1

 50
90.0
  7
GREEKS
  0
TEXT
  5
DCF
  8
TEXT
 10
374.3802392857531913
 20
1417.6318987205650046
 30
0.0
 40
2.5
  1
  
 50
90.0
  7
GREEKS
 72
     1
 11
374.3802392857531913
 21
1419.893803482470048
 31
0.0
  0
TEXT
  5
DD0
  8
BEM
 10
238.8213572553509891
 20
1661.7516160330480943
 30
0.0
 40
2.5
  1
 
 50
90.0
 72
     4
 11
238.8213572553509891
 21
1662.8825684139999339
 31
0.0
  0
TEXT
  5
DD1
  8
BEM
 10
359.6050639293022186
 20
1240.9392326737679468
 30
0.0
 40
2.5
  1

 50
90.0
  7
GREEKS
  0
TEXT
  5
DD2
  8
VOLL
 10
379.7883245863372963
 20
1226.8730396540470338
 30
0.0
 40
1.8
  1

 50
90.0
  7
GREEKS
  0
TEXT
  5
DD3
  8
BEM
 10
375.0626002631166784
 20
1261.3611044933309131
 30
0.0
 40
2.5
  1

 50
90.0
 41
0.8
  7
GREEKS
  0
TEXT
  5
DD4
  8
BEM
 10
379.7563688171687772
 20
1261.3611044933309131
 30
0.0
 40
2.5
  1

 50
90.0
 41
0.8
  7
GREEKS
  0
TEXT
  5
DD5
  8
BEM
 10
384.9942126358324117
 20
1261.3611044933309131
 30
0.0
 40
2.5
  1

 50
90.0
 41
0.8
  7
GREEKS
  0
TEXT
  5
DD6
  8
BEM
 10
389.4994015859300021
 20
1261.2881600159569189
 30
0.0
 40
1.8
  1

 50
90.0
 41
0.8
  7
GREEKS
  0
TEXT
  5
DD7
  8
BEM
 10
363.9078124897047246
 20
1248.6045891363460214
 30
0.0
 40
2.0
  1

 50
90.0
 41
0.8
  7
GREEKS
 72
     1
 11
363.9078124897047246
 21
1248.6045891363460214
 31
0.0
  0
TEXT
  5
DD8
  8
TEXT
 10
374.2300890531117261
 20
1558.7053078576400367
 30
0.0
 40
2.5
  1
  
 50
90.0
  7
GREEKS
 72
     1
 11
374.2300890531117261
 21
1560.9672126195450801
 31
0.0
  0
TEXT
  5
DD9
  8
BEM
 10
238.6712070227094955
 20
1802.8250251701219895
 30
0.0
 40
2.5
  1
 
 50
90.0
 72
     4
 11
238.6712070227094955
 21
1803.9559775510740565
 31
0.0
  0
TEXT
  5
DDA
  8
VOLL
 10
391.7541843447273209
 20
1021.7774190902159717
 30
0.0
 40
1.8
  1

 50
90.0
  7
GREEKS
  0
TEXT
  5
DDB
  8
TEXT
 10
386.1959488115016939
 20
1353.6096872938089746
 30
0.0
 40
2.5
  1
  
 50
90.0
  7
GREEKS
 72
     1
 11
386.1959488115016939
 21
1355.871592055714018
 31
0.0
  0
TEXT
  5
DDC
  8
BEM
 10
250.6370667810994064
 20
1597.7294046062909274
 30
0.0
 40
2.5
  1
 
 50
90.0
 72
     4
 11
250.6370667810994064
 21
1598.8603569872429944
 31
0.0
  0
TEXT
  5
DDD
  8
BEM
 10
351.6009536461414768
 20
1187.1230321698660646
 30
0.0
 40
2.5
  1

 50
90.0
  7
GREEKS
  0
TEXT
  5
DDE
  8
VOLL
 10
371.784214303176725
 20
1173.0568391501440146
 30
0.0
 40
1.8
  1

 50
90.0
  7
GREEKS
  0
TEXT
  5
DDF
  8
BEM
 10
367.0584899799561072
 20
1207.5449039894290308
 30
0.0
 40
2.5
  1

 50
90.0
 41
0.8
  7
GREEKS
  0
TEXT
  5
DE0
  8
BEM
 10
371.752258534008206
 20
1207.5449039894290308
 30
0.0
 40
2.5
  1

 50
90.0
 41
0.8
  7
GREEKS
  0
TEXT
  5
DE1
  8
BEM
 10
376.9901023526717267
 20
1207.5449039894290308
 30
0.0
 40
2.5
  1

 50
90.0
 41
0.8
  7
GREEKS
  0
TEXT
  5
DE2
  8
BEM
 10
381.4952913027693739
 20
1207.4719595120538997
 30
0.0
 40
1.8
  1

 50
90.0
 41
0.8
  7
GREEKS
  0
TEXT
  5
DE3
  8
BEM
 10
355.9037022065440965
 20
1194.7883886324430023
 30
0.0
 40
2.0
  1

 50
90.0
 41
0.8
  7
GREEKS
 72
     1
 11
355.9037022065440965
 21
1194.7883886324430023
 31
0.0
  0
TEXT
  5
DE4
  8
TEXT
 10
366.225978769951098
 20
1504.8891073537370175
 30
0.0
 40
2.5
  1
  
 50
90.0
  7
GREEKS
 72
     1
 11
366.225978769951098
 21
1507.151012115642061
 31
0.0
  0
TEXT
  5
DE5
  8
BEM
 10
230.6670967395488958
 20
1749.0088246662189704
 30
0.0
 40
2.5
  1
 
 50
90.0
 72
     4
 11
230.6670967395488958
 21
1750.1397770471719468
 31
0.0
  0
TEXT
  5
DE6
  8
VOLL
 10
411.3447740777655213
 20
1300.1785579459619839
 30
0.0
 40
1.8
  1

 50
90.0
  7
GREEKS
  0
TEXT
  5
DE7
  8
TEXT
 10
405.7865385445400079
 20
1632.0108261495549868
 30
0.0
 40
2.5
  1
  
 50
90.0
  7
GREEKS
 72
     1
 11
405.7865385445400079
 21
1634.2727309114600303
 31
0.0
  0
TEXT
  5
DE8
  8
BEM
 10
270.2276565141377773
 20
1876.1305434620380765
 30
0.0
 40
2.5
  1
 
 50
90.0
 72
     4
 11
270.2276565141377773
 21
1877.2614958429899161
 31
0.0
  0
TEXT
  5
DE9
  8
VOLL
 10
405.7892184426942777
 20
1457.7132750231239697
 30
0.0
 40
1.8
  1

 50
90.0
  7
GREEKS
  0
TEXT
  5
DEA
  8
BEM
 10
401.063494119473603
 20
1492.2013398624089859
 30
0.0
 40
2.5
  1

 50
90.0
 41
0.8
  7
GREEKS
  0
TEXT
  5
DEB
  8
BEM
 10
405.7572626735258723
 20
1492.2013398624089859
 30
0.0
 40
2.5
  1

 50
90.0
 41
0.8
  7
GREEKS
  0
TEXT
  5
DEC
  8
BEM
 10
410.9951064921893931
 20
1492.2013398624089859
 30
0.0
 40
2.5
  1

 50
90.0
 41
0.8
  7
GREEKS
  0
TEXT
  5
DED
  8
BEM
 10
415.5002954422869834
 20
1492.1283953850340822
 30
0.0
 40
1.8
  1

 50
90.0
 41
0.8
  7
GREEKS
  0
TEXT
  5
DEE
  8
TEXT
 10
400.2309829094688212
 20
1789.5455432267169726
 30
0.0
 40
2.5
  1
  
 50
90.0
  7
GREEKS
 72
     1
 11
400.2309829094688212
 21
1791.8074479886220161
 31
0.0
  0
TEXT
  5
DEF
  8
BEM
 10
264.6721008790665906
 20
2033.6652605392000623
 30
0.0
 40
2.5
  1
 
 50
90.0
 72
     4
 11
264.6721008790665906
 21
2034.7962129201519019
 31
0.0
  0
TEXT
  5
DF0
  8
VOLL
 10
345.4699942820254819
 20
1044.6628931675058993
 30
0.0
 40
1.8
  1

 50
90.0
  7
GREEKS
  0
TEXT
  5
DF1
  8
TEXT
 10
339.9117587487999117
 20
1376.4951613711000391
 30
0.0
 40
2.5
  1
  
 50
90.0
  7
GREEKS
 72
     1
 11
339.9117587487999117
 21
1378.7570661330039457
 31
0.0
  0
TEXT
  5
DF2
  8
BEM
 10
204.3528767183975958
 20
1620.6148786835819919
 30
0.0
 40
2.5
  1
 
 50
90.0
 72
     4
 11
204.3528767183975958
 21
1621.7458310645340589
 31
0.0
  0
TEXT
  5
DF3
  8
BEM
 10
332.4487970866476871
 20
1482.7597687941129152
 30
0.0
 40
2.5
  1

 50
90.0
  7
GREEKS
  0
TEXT
  5
DF4
  8
BEM
 10
347.3872449389677968
 20
1503.3215548538250914
 30
0.0
 40
2.5
  1

 50
90.0
 41
0.8
  7
GREEKS
  0
TEXT
  5
DF5
  8
BEM
 10
357.465695003680878
 20
1503.1822248355379088
 30
0.0
 40
2.5
  1

 50
90.0
 41
0.8
  7
GREEKS
  0
TEXT
  5
DF6
  8
BEM
 10
352.519912067365226
 20
1503.2354847193009846
 30
0.0
 40
2.5
  1

 50
90.0
 41
0.8
  7
GREEKS
  0
TEXT
  5
DF7
  8
BEM
 10
362.5604826433208814
 20
1503.2780027571971004
 30
0.0
 40
1.8
  1

 50
90.0
 41
0.8
  7
GREEKS
  0
TEXT
  5
DF8
  8
BEM
 10
337.1221381561526869
 20
1490.7056875136149756
 30
0.0
 40
2.0
  1

 50
90.0
 41
0.8
  7
GREEKS
 72
     1
 11
337.1221381561526869
 21
1490.7056875136149756
 31
0.0
  0
TEXT
  5
DF9
  8
VOLL
 10
351.1587595164110098
 20
1223.9008270383189938
 30
0.0
 40
1.8
  1

 50
90.0
  7
GREEKS
  0
TEXT
  5
DFA
  8
TEXT
 10
345.6005239831854965
 20
1555.7330952419119967
 30
0.0
 40
2.5
  1
  
 50
90.0
  7
GREEKS
 72
     1
 11
345.6005239831854965
 21
1557.9950000038170401
 31
0.0
  0
TEXT
  5
DFB
  8
BEM
 10
210.041641952783209
 20
1799.8528125543939495
 30
0.0
 40
2.5
  1
 
 50
90.0
 72
     4
 11
210.041641952783209
 21
1800.9837649353460165
 31
0.0
  0
TEXT
  5
DFC
  8
BEM
 10
288.2198334156373107
 20
1338.3898454164859686
 30
0.0
 40
2.5
  1

 50
90.0
  7
GREEKS
  0
TEXT
  5
DFD
  8
VOLL
 10
308.4030940726723884
 20
1324.3236523967650555
 30
0.0
 40
1.8
  1

 50
90.0
  7
GREEKS
  0
TEXT
  5
DFE
  8
BEM
 10
303.6773697494518842
 20
1358.8117172360489349
 30
0.0
 40
2.5
  1

 50
90.0
 41
0.8
  7
GREEKS
  0
TEXT
  5
DFF
  8
BEM
 10
308.371138303503983
 20
1358.8117172360489349
 30
0.0
 40
2.5
  1

 50
90.0
 41
0.8
  7
GREEKS
  0
TEXT
  5
E00
  8
BEM
 10
313.6089821221675038
 20
1358.8117172360489349
 30
0.0
 40
2.5
  1

 50
90.0
 41
0.8
  7
GREEKS
  0
TEXT
  5
E01
  8
BEM
 10
318.1141710722650942
 20
1358.7387727586749406
 30
0.0
 40
1.8
  1

 50
90.0
 41
0.8
  7
GREEKS
  0
TEXT
  5
E02
  8
BEM
 10
292.5225819760398167
 20
1346.0552018790629063
 30
0.0
 40
2.0
  1

 50
90.0
 41
0.8
  7
GREEKS
 72
     1
 11
292.5225819760398167
 21
1346.0552018790629063
 31
0.0
  0
TEXT
  5
E03
  8
TEXT
 10
302.8448585394468751
 20
1656.1559206003580584
 30
0.0
 40
2.5
  1
  
 50
90.0
  7
GREEKS
 72
     1
 11
302.8448585394468751
 21
1658.4178253622631019
 31
0.0
  0
TEXT
  5
E04
  8
BEM
 10
167.2859765090445876
 20
1900.2756379128400113
 30
0.0
 40
2.5
  1
 
 50
90.0
 72
     4
 11
167.2859765090445876
 21
1901.4065902937920782
 31
0.0
  0
TEXT
  5
E05
  8
VOLL
 10
391.6912118114078112
 20
1032.5714452476499901
 30
0.0
 40
1.8
  1

 50
90.0
  7
GREEKS
  0
TEXT
  5
E06
  8
VOLL
 10
386.3990950956884944
 20
1122.2376191733230826
 30
0.0
 40
1.8
  1

 50
90.0
  7
GREEKS
  0
TEXT
  5
E07
  8
TEXT
 10
380.8408595624629811
 20
1454.0698873769160855
 30
0.0
 40
2.5
  1
  
 50
90.0
  7
GREEKS
 72
     1
 11
380.8408595624629811
 21
1456.3317921388209015
 31
0.0
  0
TEXT
  5
E08
  8
BEM
 10
245.2819775320608073
 20
1698.1896046893980383
 30
0.0
 40
2.5
  1
 
 50
90.0
 72
     4
 11
245.2819775320608073
 21
1699.3205570703501053
 31
0.0
  0
TEXT
  5
E09
  8
BEM
 10
362.7623809045271059
 20
1263.8789488192480803
 30
0.0
 40
2.5
  1

 50
90.0
  7
GREEKS
  0
TEXT
  5
E0A
  8
VOLL
 10
382.9456415615621836
 20
1249.8127557995260304
 30
0.0
 40
1.8
  1

 50
90.0
  7
GREEKS
  0
TEXT
  5
E0B
  8
BEM
 10
378.2199172383416226
 20
1284.3008206388110466
 30
0.0
 40
2.5
  1

 50
90.0
 41
0.8
  7
GREEKS
  0
TEXT
  5
E0C
  8
BEM
 10
382.9136857923937782
 20
1284.3008206388110466
 30
0.0
 40
2.5
  1

 50
90.0
 41
0.8
  7
GREEKS
  0
TEXT
  5
E0D
  8
BEM
 10
388.151529611057299
 20
1284.3008206388110466
 30
0.0
 40
2.5
  1

 50
90.0
 41
0.8
  7
GREEKS
  0
TEXT
  5
E0E
  8
BEM
 10
392.6567185611548894
 20
1284.2278761614359155
 30
0.0
 40
1.8
  1

 50
90.0
 41
0.8
  7
GREEKS
  0
TEXT
  5
E0F
  8
BEM
 10
367.0651294649296119
 20
1271.544305281825018
 30
0.0
 40
2.0
  1

 50
90.0
 41
0.8
  7
GREEKS
 72
     1
 11
367.0651294649296119
 21
1271.544305281825018
 31
0.0
  0
TEXT
  5
E10
  8
TEXT
 10
377.3874060283367271
 20
1581.6450240031190333
 30
0.0
 40
2.5
  1
  
 50
90.0
  7
GREEKS
 72
     1
 11
377.3874060283367271
 21
1583.9069287650240767
 31
0.0
  0
TEXT
  5
E11
  8
BEM
 10
241.8285239979344965
 20
1825.7647413156018956
 30
0.0
 40
2.5
  1
 
 50
90.0
 72
     4
 11
241.8285239979344965
 21
1826.8956936965539626
 31
0.0
  0
TEXT
  5
E12
  8
VOLL
 10
349.736567773687625
 20
1009.0998110502830514
 30
0.0
 40
1.8
  1

 50
90.0
  7
GREEKS
  0
TEXT
  5
E13
  8
VOLL
 10
344.4444510579683083
 20
1098.7659849759559165
 30
0.0
 40
1.8
  1

 50
90.0
  7
GREEKS
  0
TEXT
  5
E14
  8
TEXT
 10
338.886215524742795
 20
1430.5982531795489194
 30
0.0
 40
2.5
  1
  
 50
90.0
  7
GREEKS
 72
     1
 11
338.886215524742795
 21
1432.8601579414539628
 31
0.0
  0
TEXT
  5
E15
  8
BEM
 10
203.3273334943405928
 20
1674.7179704920310996
 30
0.0
 40
2.5
  1
 
 50
90.0
 72
     4
 11
203.3273334943405928
 21
1675.8489228729829392
 31
0.0
  0
TEXT
  5
E16
  8
BEM
 10
320.8077368668069198
 20
1240.4073146218800048
 30
0.0
 40
2.5
  1

 50
90.0
  7
GREEKS
  0
TEXT
  5
E17
  8
VOLL
 10
340.9909975238419975
 20
1226.3411216021590917
 30
0.0
 40
1.8
  1

 50
90.0
  7
GREEKS
  0
TEXT
  5
E18
  8
BEM
 10
336.2652732006213796
 20
1260.8291864414441079
 30
0.0
 40
2.5
  1

 50
90.0
 41
0.8
  7
GREEKS
  0
TEXT
  5
E19
  8
BEM
 10
340.9590417546735921
 20
1260.8291864414441079
 30
0.0
 40
2.5
  1

 50
90.0
 41
0.8
  7
GREEKS
  0
TEXT
  5
E1A
  8
BEM
 10
346.1968855733371129
 20
1260.8291864414441079
 30
0.0
 40
2.5
  1

 50
90.0
 41
0.8
  7
GREEKS
  0
TEXT
  5
E1B
  8
BEM
 10
350.7020745234347032
 20
1260.7562419640689768
 30
0.0
 40
1.8
  1

 50
90.0
 41
0.8
  7
GREEKS
  0
TEXT
  5
E1C
  8
BEM
 10
325.1104854272094258
 20
1248.0726710844580793
 30
0.0
 40
2.0
  1

 50
90.0
 41
0.8
  7
GREEKS
 72
     1
 11
325.1104854272094258
 21
1248.0726710844580793
 31
0.0
  0
TEXT
  5
E1D
  8
TEXT
 10
335.4327619906164841
 20
1558.1733898057520946
 30
0.0
 40
2.5
  1
  
 50
90.0
  7
GREEKS
 72
     1
 11
335.4327619906164841
 21
1560.4352945676560012
 31
0.0
  0
TEXT
  5
E1E
  8
BEM
 10
199.8738799602143104
 20
1802.2931071182340474
 30
0.0
 40
2.5
  1
 
 50
90.0
 72
     4
 11
199.8738799602143104
 21
1803.424059499185887
 31
0.0
  0
TEXT
  5
E1F
  8
VOLL
 10
301.511353102118278
 20
1041.1065859217439993
 30
0.0
 40
1.8
  1

 50
90.0
  7
GREEKS
  0
TEXT
  5
E20
  8
TEXT
 10
295.9531175688927078
 20
1372.9388541253379117
 30
0.0
 40
2.5
  1
  
 50
90.0
  7
GREEKS
 72
     1
 11
295.9531175688927078
 21
1375.2007588872429551
 31
0.0
  0
TEXT
  5
E21
  8
BEM
 10
160.3942355384905056
 20
1617.0585714378200919
 30
0.0
 40
2.5
  1
 
 50
90.0
 72
     4
 11
160.3942355384905056
 21
1618.1895238187719315
 31
0.0
  0
TEXT
  5
E22
  8
BEM
 10
288.4901559067404833
 20
1479.2034615483510152
 30
0.0
 40
2.5
  1

 50
90.0
  7
GREEKS
  0
TEXT
  5
E23
  8
BEM
 10
303.4286037590605929
 20
1499.7652476080641009
 30
0.0
 40
2.5
  1

 50
90.0
 41
0.8
  7
GREEKS
  0
TEXT
  5
E24
  8
BEM
 10
313.5070538237736741
 20
1499.6259175897760088
 30
0.0
 40
2.5
  1

 50
90.0
 41
0.8
  7
GREEKS
  0
TEXT
  5
E25
  8
BEM
 10
308.5612708874580221
 20
1499.6791774735390845
 30
0.0
 40
2.5
  1

 50
90.0
 41
0.8
  7
GREEKS
  0
TEXT
  5
E26
  8
BEM
 10
318.6018414634136775
 20
1499.721695511434973
 30
0.0
 40
1.8
  1

 50
90.0
 41
0.8
  7
GREEKS
  0
TEXT
  5
E27
  8
BEM
 10
293.163496976245483
 20
1487.1493802678530756
 30
0.0
 40
2.0
  1

 50
90.0
 41
0.8
  7
GREEKS
 72
     1
 11
293.163496976245483
 21
1487.1493802678530756
 31
0.0
  0
TEXT
  5
E28
  8
VOLL
 10
307.2001183365038059
 20
1220.3445197925570938
 30
0.0
 40
1.8
  1

 50
90.0
  7
GREEKS
  0
TEXT
  5
E29
  8
TEXT
 10
301.6418828032782926
 20
1552.1767879961500967
 30
0.0
 40
2.5
  1
  
 50
90.0
  7
GREEKS
 72
     1
 11
301.6418828032782926
 21
1554.4386927580540032
 31
0.0
  0
TEXT
  5
E2A
  8
BEM
 10
166.0830007728760052
 20
1796.2965053086320495
 30
0.0
 40
2.5
  1
 
 50
90.0
 72
     4
 11
166.0830007728760052
 21
1797.4274576895838891
 31
0.0
  0
TEXT
  5
E2B
  8
BEM
 10
244.2611922357301069
 20
1334.8335381707240686
 30
0.0
 40
2.5
  1

 50
90.0
  7
GREEKS
  0
TEXT
  5
E2C
  8
VOLL
 10
264.4444528927651845
 20
1320.7673451510029281
 30
0.0
 40
1.8
  1

 50
90.0
  7
GREEKS
  0
TEXT
  5
E2D
  8
BEM
 10
259.7187285695446803
 20
1355.2554099902870348
 30
0.0
 40
2.5
  1

 50
90.0
 41
0.8
  7
GREEKS
  0
TEXT
  5
E2E
  8
BEM
 10
264.4124971235967791
 20
1355.2554099902870348
 30
0.0
 40
2.5
  1

 50
90.0
 41
0.8
  7
GREEKS
  0
TEXT
  5
E2F
  8
BEM
 10
269.6503409422602999
 20
1355.2554099902870348
 30
0.0
 40
2.5
  1

 50
90.0
 41
0.8
  7
GREEKS
  0
TEXT
  5
E30
  8
BEM
 10
274.1555298923578903
 20
1355.1824655129130406
 30
0.0
 40
1.8
  1

 50
90.0
 41
0.8
  7
GREEKS
  0
TEXT
  5
E31
  8
BEM
 10
248.5639407961326128
 20
1342.4988946333019157
 30
0.0
 40
2.0
  1

 50
90.0
 41
0.8
  7
GREEKS
 72
     1
 11
248.5639407961326128
 21
1342.4988946333019157
 31
0.0
  0
TEXT
  5
E32
  8
TEXT
 10
258.886217359539728
 20
1652.599613354595931
 30
0.0
 40
2.5
  1
  
 50
90.0
  7
GREEKS
 72
     1
 11
258.886217359539728
 21
1654.8615181165009744
 31
0.0
  0
TEXT
  5
E33
  8
BEM
 10
123.3273353291374974
 20
1896.7193306670781112
 30
0.0
 40
2.5
  1
 
 50
90.0
 72
     4
 11
123.3273353291374974
 21
1897.8502830480299508
 31
0.0
  0
TEXT
  5
E34
  8
VOLL
 10
347.7325706315006073
 20
1029.01513800188809
 30
0.0
 40
1.8
  1

 50
90.0
  7
GREEKS
  0
TEXT
  5
E35
  8
VOLL
 10
342.4404539157812906
 20
1118.6813119275609552
 30
0.0
 40
1.8
  1

 50
90.0
  7
GREEKS
  0
TEXT
  5
E36
  8
TEXT
 10
336.8822183825557772
 20
1450.5135801311539581
 30
0.0
 40
2.5
  1
  
 50
90.0
  7
GREEKS
 72
     1
 11
336.8822183825557772
 21
1452.7754848930590015
 31
0.0
  0
TEXT
  5
E37
  8
BEM
 10
201.3233363521536035
 20
1694.6332974436359109
 30
0.0
 40
2.5
  1
 
 50
90.0
 72
     4
 11
201.3233363521536035
 21
1695.7642498245888873
 31
0.0
  0
TEXT
  5
E38
  8
BEM
 10
318.8037397246199021
 20
1260.3226415734859529
 30
0.0
 40
2.5
  1

 50
90.0
  7
GREEKS
  0
TEXT
  5
E39
  8
VOLL
 10
338.9870003816549797
 20
1246.256448553763903
 30
0.0
 40
1.8
  1

 50
90.0
  7
GREEKS
  0
TEXT
  5
E3A
  8
BEM
 10
334.2612760584344187
 20
1280.7445133930489192
 30
0.0
 40
2.5
  1

 50
90.0
 41
0.8
  7
GREEKS
  0
TEXT
  5
E3B
  8
BEM
 10
338.9550446124865744
 20
1280.7445133930489192
 30
0.0
 40
2.5
  1

 50
90.0
 41
0.8
  7
GREEKS
  0
TEXT
  5
E3C
  8
BEM
 10
344.1928884311500951
 20
1280.7445133930489192
 30
0.0
 40
2.5
  1

 50
90.0
 41
0.8
  7
GREEKS
  0
TEXT
  5
E3D
  8
BEM
 10
348.6980773812476855
 20
1280.6715689156749249
 30
0.0
 40
1.8
  1

 50
90.0
 41
0.8
  7
GREEKS
  0
TEXT
  5
E3E
  8
BEM
 10
323.106488285022408
 20
1267.9879980360628906
 30
0.0
 40
2.0
  1

 50
90.0
 41
0.8
  7
GREEKS
 72
     1
 11
323.106488285022408
 21
1267.9879980360628906
 31
0.0
  0
TEXT
  5
E3F
  8
TEXT
 10
333.4287648484295232
 20
1578.0887167573569059
 30
0.0
 40
2.5
  1
  
 50
90.0
  7
GREEKS
 72
     1
 11
333.4287648484295232
 21
1580.3506215192619493
 31
0.0
  0
TEXT
  5
E40
  8
BEM
 10
197.8698828180272926
 20
1822.2084340698390861
 30
0.0
 40
2.5
  1
 
 50
90.0
 72
     4
 11
197.8698828180272926
 21
1823.3393864507920625
 31
0.0
  0
TEXT
  5
E41
  8
VOLL
 10
305.7779265937804212
 20
1005.5435038045210376
 30
0.0
 40
1.8
  1

 50
90.0
  7
GREEKS
  0
TEXT
  5
E42
  8
VOLL
 10
300.4858098780611044
 20
1095.2096777301940165
 30
0.0
 40
1.8
  1

 50
90.0
  7
GREEKS
  0
TEXT
  5
E43
  8
TEXT
 10
294.9275743448355911
 20
1427.0419459337870194
 30
0.0
 40
2.5
  1
  
 50
90.0
  7
GREEKS
 72
     1
 11
294.9275743448355911
 21
1429.3038506956920628
 31
0.0
  0
TEXT
  5
E44
  8
BEM
 10
159.3686923144333036
 20
1671.1616632462689722
 30
0.0
 40
2.5
  1
 
 50
90.0
 72
     4
 11
159.3686923144333036
 21
1672.2926156272210392
 31
0.0
  0
TEXT
  5
E45
  8
BEM
 10
276.8490956868997159
 20
1236.8510073761181047
 30
0.0
 40
2.5
  1

 50
90.0
  7
GREEKS
  0
TEXT
  5
E46
  8
VOLL
 10
297.0323563439347936
 20
1222.7848143563969643
 30
0.0
 40
1.8
  1

 50
90.0
  7
GREEKS
  0
TEXT
  5
E47
  8
BEM
 10
292.3066320207141757
 20
1257.272879195681071
 30
0.0
 40
2.5
  1

 50
90.0
 41
0.8
  7
GREEKS
  0
TEXT
  5
E48
  8
BEM
 10
297.0004005747663882
 20
1257.272879195681071
 30
0.0
 40
2.5
  1

 50
90.0
 41
0.8
  7
GREEKS
  0
TEXT
  5
E49
  8
BEM
 10
302.238244393429909
 20
1257.272879195681071
 30
0.0
 40
2.5
  1

 50
90.0
 41
0.8
  7
GREEKS
  0
TEXT
  5
E4A
  8
BEM
 10
306.7434333435274993
 20
1257.1999347183070768
 30
0.0
 40
1.8
  1

 50
90.0
 41
0.8
  7
GREEKS
  0
TEXT
  5
E4B
  8
BEM
 10
281.1518442473022219
 20
1244.5163638386959519
 30
0.0
 40
2.0
  1

 50
90.0
 41
0.8
  7
GREEKS
 72
     1
 11
281.1518442473022219
 21
1244.5163638386959519
 31
0.0
  0
TEXT
  5
E4C
  8
TEXT
 10
291.4741208107092802
 20
1554.6170825599899672
 30
0.0
 40
2.5
  1
  
 50
90.0
  7
GREEKS
 72
     1
 11
291.4741208107092802
 21
1556.8789873218950106
 31
0.0
  0
TEXT
  5
E4D
  8
BEM
 10
155.9152387803069928
 20
1798.73679987247192
 30
0.0
 40
2.5
  1
 
 50
90.0
 72
     4
 11
155.9152387803069928
 21
1799.867752253423987
 31
0.0
  0
TEXT
  5
E4E
  8
VOLL
 10
257.4325446028311148
 20
1027.4761879600350767
 30
0.0
 40
1.8
  1

 50
90.0
  7
GREEKS
  0
TEXT
  5
E4F
  8
TEXT
 10
251.8743090696054878
 20
1359.3084561636280796
 30
0.0
 40
2.5
  1
  
 50
90.0
  7
GREEKS
 72
     1
 11
251.8743090696054878
 21
1361.5703609255328956
 31
0.0
  0
TEXT
  5
E50
  8
BEM
 10
116.3154270392032004
 20
1603.4281734761100324
 30
0.0
 40
2.5
  1
 
 50
90.0
 72
     4
 11
116.3154270392032004
 21
1604.5591258570630089
 31
0.0
  0
TEXT
  5
E51
  8
BEM
 10
237.0940103182327903
 20
1254.5000767498470395
 30
0.0
 40
2.5
  1

 50
90.0
  7
GREEKS
  0
TEXT
  5
E52
  8
VOLL
 10
257.2772709752679248
 20
1240.4338837301258991
 30
0.0
 40
1.8
  1

 50
90.0
  7
GREEKS
  0
TEXT
  5
E53
  8
BEM
 10
252.5515466520473069
 20
1274.9219485694100058
 30
0.0
 40
2.5
  1

 50
90.0
 41
0.8
  7
GREEKS
  0
TEXT
  5
E54
  8
BEM
 10
257.2453152060995194
 20
1274.9219485694100058
 30
0.0
 40
2.5
  1

 50
90.0
 41
0.8
  7
GREEKS
  0
TEXT
  5
E55
  8
BEM
 10
262.4831590247629833
 20
1274.9219485694100058
 30
0.0
 40
2.5
  1

 50
90.0
 41
0.8
  7
GREEKS
  0
TEXT
  5
E56
  8
BEM
 10
266.9883479748605737
 20
1274.8490040920351021
 30
0.0
 40
1.8
  1

 50
90.0
 41
0.8
  7
GREEKS
  0
TEXT
  5
E57
  8
BEM
 10
241.3967588786352962
 20
1262.1654332124239772
 30
0.0
 40
2.0
  1

 50
90.0
 41
0.8
  7
GREEKS
 72
     1
 11
241.3967588786352962
 21
1262.1654332124239772
 31
0.0
  0
TEXT
  5
E58
  8
TEXT
 10
251.7190354420424114
 20
1572.2661519337179925
 30
0.0
 40
2.5
  1
  
 50
90.0
  7
GREEKS
 72
     1
 11
251.7190354420424114
 21
1574.5280566956230359
 31
0.0
  0
TEXT
  5
E59
  8
BEM
 10
116.160153411640195
 20
1816.3858692461999453
 30
0.0
 40
2.5
  1
 
 50
90.0
 72
     4
 11
116.160153411640195
 21
1817.5168216271529218
 31
0.0
  0
TEXT
  5
14F7
  8
VOLL
 10
523.0343724818046667
 20
436.4887212219313142
 30
0.0
 40
1.8
  1

  7
GREEKS
  0
INSERT
  5
1A06
  8
STEMPEL
  2
A$C22E75416
 10
-0.0000000000001924
 20
-160.0
 30
0.0
  0
INSERT
  5
1A46
  8
STEMPEL
  2
A$C00F9610B
 10
0.0
 20
0.0
 30
0.0
  0
VIEWPORT
  5
1744
 67
     1
  8
0
 10
4.3327582948979533
 20
6.3137832720044811
 30
0.0
 40
25.5243292951890197
 41
12.9994426091699697
 68
     1
 69
     1
1001
ACAD
1000
MVIEW
1002
{
1070
    16
1010
0.0
1020
0.0
1030
0.0
1010
0.0
1020
0.0
1030
1.0
1040
0.0
1040
12.9994426091699697
1040
4.3327582948979533
1040
6.3137832720044811
1040
50.0
1040
0.0
1040
0.0
1070
     0
1070
  1500
1070
     1
1070
     1
1070
     0
1070
     0
1070
     0
1070
     0
1040
0.0
1040
0.0
1040
0.0
1040
10.0
1040
10.0
1040
10.0
1040
10.0
1070
     0
1002
{
1002
}
1002
}
  0
VIEWPORT
  5
1748
 67
     1
  8
DEFPOINTS
 10
4.2993790233082008
 20
6.3139431490925668
 30
0.0
 40
8.9763275026928184
 41
12.8965616765866002
 68
     2
 69
     2
1001
ACAD
1000
MVIEW
1002
{
1070
    16
1010
506.392572673816403
1020
281.765697147037713
1030
-31.9323719327797484
1010
0.0
1020
0.0
1030
1.0
1040
0.0
1040
642.2558814579391537
1040
-287.312253012038525
1040
32.7786529096815897
1040
50.0
1040
0.0
1040
0.0
1070
     0
1070
  1500
1070
     1
1070
     0
1070
     0
1070
     0
1070
     0
1070
     0
1040
0.0
1040
0.0
1040
0.0
1040
1.0
1040
1.0
1040
10.0
1040
10.0
1070
     0
1002
{
1002
}
1002
}
  0
VIEWPORT
  5
1806
 67
     1
  8
DEFPOINTS
 10
7.1386679624358029
 20
6.7708625862207121
 30
0.0
 40
1.8073310028101299
 41
3.0114337459536951
 68
     3
 69
     3
1001
ACAD
1000
MVIEW
1002
{
1070
    16
1010
943.6117303108818533
1020
321.6391228650899734
1030
-30.8740794078118803
1010
-2.740056569641069
1020
161.2044429208777956
1030
679.3701367784650529
1040
3.2934097712939732
1040
406.6149458852542011
1040
0.0
1040
-33.7322759154387981
1040
50.0
1040
0.0
1040
0.0
1070
     0
1070
  1500
1070
     1
1070
     0
1070
     0
1070
     0
1070
     0
1070
     0
1040
0.0
1040
0.0
1040
0.0
1040
1.0
1040
1.0
1040
10.0
1040
10.0
1070
     0
1002
{
1002
}
1002
}
  0
ENDSEC
  0
EOF
