  0
SECTION
  2
HEADER
  9
$ACADVER
  1
AC1009
  9
$INSBASE
 10
0.0
 20
0.0
 30
0.0
  9
$EXTMIN
 10
-112.0975362625270009
 20
-39.9069601385068395
 30
-0.0000000000000914
  9
$EXTMAX
 10
152.3653832016211993
 20
632.7466193220080868
 30
411.6933496253714111
  9
$LIMMIN
 10
0.0
 20
0.0
  9
$LIMMAX
 10
210.0
 20
297.0
  9
$ORTHOMODE
 70
     1
  9
$REGENMODE
 70
     1
  9
$FILLMODE
 70
     1
  9
$QTEXTMODE
 70
     0
  9
$MIRRTEXT
 70
     1
  9
$DRAGMODE
 70
     2
  9
$LTSCALE
 40
10.0
  9
$OSMODE
 70
    39
  9
$ATTMODE
 70
     1
  9
$TEXTSIZE
 40
3.5
  9
$TRACEWID
 40
0.5
  9
$TEXTSTYLE
  7
STANDARD
  9
$CLAYER
  8
HILF
  9
$CELTYPE
  6
BYLAYER
  9
$CECOLOR
 62
   256
  9
$DIMSCALE
 40
1.0
  9
$DIMASZ
 40
3.5
  9
$DIMEXO
 40
1.0
  9
$DIMDLI
 40
7.0
  9
$DIMRND
 40
0.0
  9
$DIMDLE
 40
0.0
  9
$DIMEXE
 40
1.0
  9
$DIMTP
 40
0.0
  9
$DIMTM
 40
0.0
  9
$DIMTXT
 40
3.5
  9
$DIMCEN
 40
1.5
  9
$DIMTSZ
 40
0.0
  9
$DIMTOL
 70
     0
  9
$DIMLIM
 70
     0
  9
$DIMTIH
 70
     0
  9
$DIMTOH
 70
     0
  9
$DIMSE1
 70
     0
  9
$DIMSE2
 70
     0
  9
$DIMTAD
 70
     1
  9
$DIMZIN
 70
     8
  9
$DIMBLK
  1

  9
$DIMASO
 70
     1
  9
$DIMSHO
 70
     0
  9
$DIMPOST
  1

  9
$DIMAPOST
  1

  9
$DIMALT
 70
     0
  9
$DIMALTD
 70
     2
  9
$DIMALTF
 40
25.3999999999999986
  9
$DIMLFAC
 40
1.0
  9
$DIMTOFL
 70
     1
  9
$DIMTVP
 40
0.0
  9
$DIMTIX
 70
     0
  9
$DIMSOXD
 70
     0
  9
$DIMSAH
 70
     0
  9
$DIMBLK1
  1

  9
$DIMBLK2
  1

  9
$DIMSTYLE
  2
STANDARD
  9
$DIMCLRD
 70
     0
  9
$DIMCLRE
 70
     0
  9
$DIMCLRT
 70
     1
  9
$DIMTFAC
 40
0.5142857142857143
  9
$DIMGAP
 40
1.5
  9
$LUNITS
 70
     2
  9
$LUPREC
 70
     2
  9
$SKETCHINC
 40
1.0
  9
$FILLETRAD
 40
17.5
  9
$AUNITS
 70
     1
  9
$AUPREC
 70
     3
  9
$MENU
  1
ACAD
  9
$ELEVATION
 40
0.0
  9
$PELEVATION
 40
0.0
  9
$THICKNESS
 40
0.0
  9
$LIMCHECK
 70
     0
  9
$BLIPMODE
 70
     0
  9
$CHAMFERA
 40
0.0
  9
$CHAMFERB
 40
0.0
  9
$SKPOLY
 70
     0
  9
$TDCREATE
 40
2452040.6370949079282582
  9
$TDUPDATE
 40
2459285.3645023149438202
  9
$TDINDWG
 40
0.8344162616
  9
$TDUSRTIMER
 40
0.8344162616
  9
$USRTIMER
 70
     1
  9
$ANGBASE
 50
0.0
  9
$ANGDIR
 70
     0
  9
$PDMODE
 70
     0
  9
$PDSIZE
 40
0.0
  9
$PLINEWID
 40
0.0
  9
$COORDS
 70
     1
  9
$SPLFRAME
 70
     0
  9
$SPLINETYPE
 70
     6
  9
$SPLINESEGS
 70
     8
  9
$ATTDIA
 70
     1
  9
$ATTREQ
 70
     1
  9
$HANDLING
 70
     1
  9
$HANDSEED
  5
3775
  9
$SURFTAB1
 70
     6
  9
$SURFTAB2
 70
     6
  9
$SURFTYPE
 70
     6
  9
$SURFU
 70
     6
  9
$SURFV
 70
     6
  9
$UCSNAME
  2

  9
$UCSORG
 10
0.0
 20
0.0
 30
0.0
  9
$UCSXDIR
 10
1.0
 20
0.0
 30
0.0
  9
$UCSYDIR
 10
0.0
 20
1.0
 30
0.0
  9
$PUCSNAME
  2

  9
$PUCSORG
 10
0.0
 20
0.0
 30
0.0
  9
$PUCSXDIR
 10
1.0
 20
0.0
 30
0.0
  9
$PUCSYDIR
 10
0.0
 20
1.0
 30
0.0
  9
$USERI1
 70
     0
  9
$USERI2
 70
     0
  9
$USERI3
 70
     0
  9
$USERI4
 70
     0
  9
$USERI5
 70
     0
  9
$USERR1
 40
0.0
  9
$USERR2
 40
0.0
  9
$USERR3
 40
0.0
  9
$USERR4
 40
0.0
  9
$USERR5
 40
0.0
  9
$WORLDVIEW
 70
     1
  9
$SHADEDGE
 70
     3
  9
$SHADEDIF
 70
    70
  9
$TILEMODE
 70
     1
  9
$MAXACTVP
 70
    16
  9
$PLIMCHECK
 70
     0
  9
$PEXTMIN
 10
2.1696230337272482
 20
6.4862770726388126
 30
-411.2239754552967952
  9
$PEXTMAX
 10
293.1331757420429085
 20
417.9360868635804991
 30
0.0251002686300126
  9
$PLIMMIN
 10
-2.2387790453608432
 20
1.2766717379595169
  9
$PLIMMAX
 10
294.687215827685975
 20
421.2233270113969752
  9
$UNITMODE
 70
     0
  9
$VISRETAIN
 70
     0
  9
$PLINEGEN
 70
     0
  9
$PSLTSCALE
 70
     0
  0
ENDSEC
  0
SECTION
  2
TABLES
  0
TABLE
  2
VPORT
 70
     1
  0
VPORT
  2
*ACTIVE
 70
     0
 10
0.0
 20
0.0
 11
1.0
 21
1.0
 12
232.5908098887086055
 22
248.5354420944410947
 13
0.0
 23
0.0
 14
1.0
 24
1.0
 15
10.0
 25
10.0
 16
-0.0000000000002522
 26
0.0
 36
1130.182548455630922
 17
22.1257667541503906
 27
54.1068553924560476
 37
246.6933545001857055
 40
738.1169367240331667
 41
1.7678795483061469
 42
50.0
 43
0.0
 44
0.0
 50
0.0
 51
0.0
 71
     0
 72
  1500
 73
     1
 74
     0
 75
     0
 76
     0
 77
     0
 78
     0
  0
ENDTAB
  0
TABLE
  2
LTYPE
 70
     6
  0
LTYPE
  2
CONTINUOUS
 70
     0
  3
Solid line
 72
    65
 73
     0
 40
0.0
  0
LTYPE
  2
VERDECKT
 70
     0
  3
Verdeckt __ __ __ __ __ __ __ __ __ __ __ __ __
 72
    65
 73
     2
 40
0.375
 49
0.25
 49
-0.125
  0
ENDTAB
  0
TABLE
  2
LAYER
 70
    20
  0
LAYER
  2
0
 70
     0
 62
     7
  6
CONTINUOUS
  0
LAYER
  2
HILF
 70
     0
 62
     2
  6
CONTINUOUS
  0
LAYER
  2
DEFPOINTS
 70
     0
 62
     7
  6
CONTINUOUS
  0
LAYER
  2
ROHR
 70
     0
 62
   254
  6
CONTINUOUS
  0
LAYER
  2
ADSK_ASSOC_ENTITY_BACKUPS
 70
     1
 62
    -7
  6
CONTINUOUS
  0
LAYER
  2
BLECH
 70
     0
 62
   254
  6
CONTINUOUS
  0
ENDTAB
  0
TABLE
  2
STYLE
 70
     4
  0
STYLE
  2
STANDARD
 70
     0
 40
0.0
 41
0.8
 50
0.0
 71
     0
 42
3.5
  3
simplex.shx
  4

  0
STYLE
  2

 70
     1
 40
0.0
 41
1.0
 50
0.0
 71
     0
 42
3.5
  3
ltypeshp.shx
  4

  0
ENDTAB
  0
TABLE
  2
VIEW
 70
     1
  0
ENDTAB
  0
TABLE
  2
UCS
 70
     0
  0
ENDTAB
  0
TABLE
  2
APPID
 70
    21
  0
APPID
  2
ACAD
 70
     0
  0
APPID
  2
ACAD_NAV_VCDISPLAY
 70
     0
  0
APPID
  2
ACAD_PSEXT
 70
     0
  0
APPID
  2
ACAECLAYERSTANDARD
 70
     0
  0
APPID
  2
ACCMTRANSPARENCY
 70
     0
  0
APPID
  2
ACAD_STEPID
 70
     0
  0
APPID
  2
ACAD_EXEMPT_FROM_CAD_STANDARDS
 70
     0
  0
APPID
  2
ACADANNOPO
 70
     0
  0
APPID
  2
ACDBDYNAMICBLOCKGUID
 70
     0
  0
APPID
  2
ACSYNERGY
 70
     0
  0
APPID
  2
SYNERGY_BODY_TBR_ID
 70
     0
  0
APPID
  2
ACAD_VIEW_EDGE_ID
 70
     0
  0
APPID
  2
ACSYNERGYSKETCH
 70
     0
  0
APPID
  2
ACADANNOMONITORALERTICONDI
 70
     0
  0
APPID
  2
ACAD_DSTYLE_DIMRADIAL_EXTENSION
 70
     0
  0
APPID
  2
ACAD_MODELDOC_XFORM
 70
     0
  0
APPID
  2
ACAD_DSTYLE_DIMJAG
 70
     0
  0
APPID
  2
ACAD_DSTYLE_DIMBREAK
 70
     0
  0
APPID
  2
PLOTTRANSPARENCY
 70
     0
  0
APPID
  2
ACAD_MLEADERVER
 70
     0
  0
APPID
  2
AcDbAttr
 70
     0
  0
ENDTAB
  0
TABLE
  2
DIMSTYLE
 70
     4
  0
DIMSTYLE
  2
STANDARD
 70
     0
  3

  4

  5

  6

  7

 40
1.0
 41
0.18
 42
0.0625
 43
0.38
 44
0.18
 45
0.0
 46
0.0
 47
0.0
 48
0.0
140
0.18
141
0.09
142
0.0
143
25.3999999999999986
144
1.0
145
0.0
146
1.0
147
0.09
 71
     0
 72
     0
 73
     1
 74
     1
 75
     0
 76
     0
 77
     0
 78
     0
170
     0
171
     2
172
     0
173
     0
174
     0
175
     0
176
     0
177
     0
178
     0
  0
ENDTAB
  0
ENDSEC
  0
SECTION
  2
BLOCKS
  0
BLOCK
  8
0
  2
$MODEL_SPACE
 70
     0
 10
0.0
 20
0.0
 30
0.0
  3
$MODEL_SPACE
  1

  0
ENDBLK
  5
44
  8
0
  0
BLOCK
 67
     1
  8
0
  2
$PAPER_SPACE
 70
     0
 10
0.0
 20
0.0
 30
0.0
  3
$PAPER_SPACE
  1

  0
ENDBLK
  5
42
 67
     1
  8
0
  0
BLOCK
  8
0
  2
*S3
 70
     1
 10
0.0
 20
0.0
 30
0.0
  3
*S3
  1

  0
ENDBLK
  5
43E
  8
0
  0
BLOCK
  8
0
  2
A$C9DB0F273
 70
     0
 10
0.0
 20
0.0
 30
0.0
  3
A$C9DB0F273
  1

  0
LINE
  5
2971
  8
0
  6
CONTINUOUS
 62
     3
 10
97.3653832016211851
 20
321.7019258755896089
 30
-0.0000000000000714
 11
97.3653832016211851
 21
315.7019258755896089
 31
-0.0000000000000701
210
0.0
220
1.0
230
-0.0000000000000002
  0
LINE
  5
2972
  8
0
  6
CONTINUOUS
 62
     3
 10
152.3653832016211993
 20
315.7019258755896089
 30
-0.0000000000000701
 11
152.3653832016211993
 21
321.7019258755896089
 31
-0.0000000000000714
210
0.0
220
1.0
230
-0.0000000000000002
  0
LINE
  5
2973
  8
0
  6
CONTINUOUS
 62
     3
 10
97.3653832016211851
 20
315.7019258755896089
 30
-0.0000000000000701
 11
152.3653832016211993
 21
315.7019258755896089
 31
-0.0000000000000701
210
0.0
220
1.0
230
-0.0000000000000002
  0
LINE
  5
2974
  8
0
  6
CONTINUOUS
 62
     3
 10
97.3653832016211851
 20
321.7019258755896089
 30
-0.0000000000000714
 11
152.3653832016211993
 21
321.7019258755896089
 31
-0.0000000000000714
210
0.0
220
1.0
230
-0.0000000000000002
  0
LINE
  5
2975
  8
0
  6
CONTINUOUS
 62
     3
 10
-53.1138527496127608
 20
321.7019258755896089
 30
-0.0000000000000714
 11
-53.1138527496127608
 21
315.7019258755896089
 31
-0.0000000000000701
210
0.0
220
1.0
230
-0.0000000000000002
  0
LINE
  5
2976
  8
0
  6
CONTINUOUS
 62
     3
 10
-108.113852749612704
 20
315.7019258755896089
 30
-0.0000000000000701
 11
-108.113852749612704
 21
321.7019258755896089
 31
-0.0000000000000714
210
0.0
220
1.0
230
-0.0000000000000002
  0
LINE
  5
2977
  8
0
  6
CONTINUOUS
 62
     3
 10
-53.1138527496127608
 20
315.7019258755896089
 30
-0.0000000000000701
 11
-108.113852749612704
 21
315.7019258755896089
 31
-0.0000000000000701
210
0.0
220
1.0
230
-0.0000000000000002
  0
LINE
  5
2978
  8
0
  6
CONTINUOUS
 62
     3
 10
-53.1138527496127608
 20
321.7019258755896089
 30
-0.0000000000000714
 11
-108.113852749612704
 21
321.7019258755896089
 31
-0.0000000000000714
210
0.0
220
1.0
230
-0.0000000000000002
  0
LINE
  5
2979
  8
0
  6
CONTINUOUS
 62
     3
 10
100.7604281846036969
 20
81.6933496253713969
 30
-0.0000000000000181
 11
-56.5088977325961679
 21
81.6933496253712121
 31
-0.0000000000000181
210
0.0
220
1.0
230
-0.0000000000000002
  0
LINE
  5
297A
  8
0
  6
CONTINUOUS
 62
     3
 10
108.8842100234103043
 20
411.6933496253714111
 30
-0.0000000000000914
 11
-64.63267957140215
 21
411.6933496253711837
 31
-0.0000000000000914
210
0.0
220
1.0
230
-0.0000000000000002
  0
ARC
  5
297B
  8
0
  6
CONTINUOUS
 62
     3
 10
-84.1257652260076014
 20
92.3482637689880477
 30
0.0
 40
17.499999999996291
210
0.0
220
-0.0000000000000002
230
-1.0
 50
179.9999999999992895
 51
185.0000000000005116
  0
ARC
  5
297C
  8
0
  6
CONTINUOUS
 62
     3
 10
39.8742347739929173
 20
92.3482637689883887
 30
0.0
 40
17.5000000000032507
210
0.0
220
-0.0000000000000002
230
-1.0
 50
355.0000000000002842
 51
359.9999999999996021
  0
LINE
  5
297D
  8
0
  6
CONTINUOUS
 62
     3
 10
-57.3742347739961573
 20
92.3482637689883319
 30
-0.0000000000000205
 11
-57.3742347739961005
 21
315.7019258755894953
 31
-0.0000000000000701
210
0.0
220
1.0
230
-0.0000000000000002
  0
LINE
  5
297E
  8
0
  6
CONTINUOUS
 62
     3
 10
-57.3742347739961005
 20
321.7019258755894953
 30
-0.0000000000000714
 11
-57.3742347739961005
 21
324.1656017107671914
 31
-0.000000000000072
210
0.0
220
1.0
230
-0.0000000000000002
  0
LINE
  5
297F
  8
0
  6
CONTINUOUS
 62
     3
 10
101.6257652260039066
 20
92.3482637689883319
 30
-0.0000000000000205
 11
101.6257652260039066
 21
315.7019258755894953
 31
-0.0000000000000701
210
0.0
220
1.0
230
-0.0000000000000002
  0
LINE
  5
2980
  8
0
  6
CONTINUOUS
 62
     3
 10
101.6257652260039066
 20
321.7019258755894953
 30
-0.0000000000000714
 11
101.6257652260039066
 21
324.1656017107671914
 31
-0.000000000000072
210
0.0
220
1.0
230
-0.0000000000000002
  0
LINE
  5
2981
  8
0
  6
CONTINUOUS
 62
     3
 10
-56.5088977325962318
 20
81.6933496253713116
 30
-0.0000000000000181
 11
-57.307641990601752
 21
90.8230382709042061
 31
-0.0000000000000202
210
0.0
220
1.0
230
-0.0000000000000002
  0
LINE
  5
2982
  8
0
  6
CONTINUOUS
 62
     3
 10
100.7604281846037964
 20
81.6933496253712832
 30
-0.0000000000000181
 11
101.5591724426092952
 21
90.8230382709041777
 31
-0.0000000000000202
210
0.0
220
1.0
230
-0.0000000000000002
  0
ARC
  5
2983
  8
0
  6
CONTINUOUS
 62
     3
 10
-111.6257652260043045
 20
324.1656017107670209
 30
0.0
 40
10.0000000000001705
210
0.0
220
-0.0000000000000002
230
-1.0
 50
0.0
 51
34.7719440319486282
  0
ARC
  5
2984
  8
0
  6
CONTINUOUS
 62
     3
 10
67.3742347739960223
 20
324.1656017107670777
 30
0.0
 40
10.0000000000000107
210
0.0
220
-0.0000000000000002
230
-1.0
 50
145.2280559680511089
 51
179.9999999999998863
  0
ARC
  5
2985
  8
0
  6
CONTINUOUS
 62
     3
 10
-88.625765226004404
 20
340.1343211334382772
 30
0.0
 40
17.9999999999997087
210
0.0
220
-0.0000000000000002
230
-1.0
 50
179.999999999999801
 51
214.7719440319484079
  0
ARC
  5
2986
  8
0
  6
CONTINUOUS
 62
     3
 10
44.3742347739963208
 20
340.1343211334382772
 30
0.0
 40
17.9999999999996412
210
0.0
220
-0.0000000000000002
230
-1.0
 50
325.2280559680514216
 51
0.0000000000001845
  0
LINE
  5
2987
  8
0
  6
CONTINUOUS
 62
     3
 10
-62.3742347739959797
 20
340.1343211334382772
 30
-0.0000000000000755
 11
-62.3742347739959797
 21
355.1933496253712974
 31
-0.0000000000000789
210
0.0
220
1.0
230
-0.0000000000000002
  0
LINE
  5
2988
  8
0
  6
CONTINUOUS
 62
     3
 10
106.6257652260041056
 20
340.1343211334382772
 30
-0.0000000000000755
 11
106.6257652260041056
 21
355.1933496253712974
 31
-0.0000000000000789
210
0.0
220
1.0
230
-0.0000000000000002
  0
ARC
  5
2989
  8
0
  6
CONTINUOUS
 62
     3
 10
-124.6255504832725052
 20
355.1934022265784279
 30
0.0
 40
17.9997852573453194
210
0.0
220
-0.0000000000000002
230
-1.0
 50
359.9998325631601119
 51
27.5273510573953395
  0
ARC
  5
298A
  8
0
  6
CONTINUOUS
 62
     3
 10
80.3740200312644077
 20
355.1934022265784279
 30
0.0
 40
17.9997852573453017
210
0.0
220
-0.0000000000000002
230
-1.0
 50
152.4726489426047067
 51
180.0001674368398881
  0
ARC
  5
298B
  8
0
  6
CONTINUOUS
 62
     3
 10
-77.6261827818930499
 20
379.6882473451046849
 30
0.0
 40
34.999629849899712
210
0.0
220
-0.0000000000000002
230
-1.0
 50
179.9998325631549108
 51
207.527351057395407
  0
ARC
  5
298C
  8
0
  6
CONTINUOUS
 62
     3
 10
33.3746523298844693
 20
379.6882473451049123
 30
0.0
 40
34.9996298499001384
210
0.0
220
-0.0000000000000002
230
-1.0
 50
332.4726489426045077
 51
0.0001674368448078
  0
LINE
  5
298D
  8
0
  6
CONTINUOUS
 62
     3
 10
112.6257652260041056
 20
395.9102454074376283
 30
-0.0000000000000879
 11
112.6258126316432993
 21
379.688349625371302
 31
-0.0000000000000843
210
0.0
220
1.0
230
-0.0000000000000002
  0
LINE
  5
298E
  8
0
  6
CONTINUOUS
 62
     3
 10
-68.3742347739959797
 20
395.9102454074376283
 30
-0.0000000000000879
 11
-68.3742821796351308
 21
379.688349625371302
 31
-0.0000000000000843
210
0.0
220
1.0
230
-0.0000000000000002
  0
ARC
  5
298F
  8
0
  6
CONTINUOUS
 62
     3
 10
-77.625765225997668
 20
395.9102454074358093
 30
0.0
 40
35.0000000000065299
210
0.0
220
-0.0000000000000002
230
-1.0
 50
155.0000000000023874
 51
179.999999999997101
  0
ARC
  5
2990
  8
0
  6
CONTINUOUS
 62
     3
 10
33.3742347739897696
 20
395.910245407435923
 30
0.0
 40
35.0000000000062386
210
0.0
220
-0.0000000000000002
230
-1.0
 50
0.0000000000027989
 51
24.999999999997641
  0
LINE
  5
2991
  8
0
  6
CONTINUOUS
 62
     3
 10
108.8842100234104038
 20
411.6933496253712974
 30
-0.0000000000000914
 11
109.3465377722869931
 21
410.7018845683616064
 31
-0.0000000000000912
210
0.0
220
1.0
230
-0.0000000000000002
  0
LINE
  5
2992
  8
0
  6
CONTINUOUS
 62
     3
 10
-64.6326795714021642
 20
411.6933496253714111
 30
-0.0000000000000914
 11
-65.0950073202788388
 21
410.7018845683616064
 31
-0.0000000000000912
210
0.0
220
1.0
230
-0.0000000000000002
  0
LINE
  5
2993
  8
0
  6
VERDECKT
 62
     1
 10
97.365381698200963
 20
315.7019258755896089
 30
-0.0000000000000701
 11
97.365381698200963
 21
321.7019258755896089
 31
-0.0000000000000714
210
0.0
220
1.0
230
-0.0000000000000002
  0
LINE
  5
2994
  8
0
  6
VERDECKT
 62
     1
 10
103.125765226004205
 20
315.7019258755896089
 30
-0.0000000000000701
 11
103.125765226004205
 21
321.7019258755896089
 31
-0.0000000000000714
210
0.0
220
1.0
230
-0.0000000000000002
  0
LINE
  5
2995
  8
0
  6
VERDECKT
 62
     1
 10
119.9153832016222054
 20
321.7019258755896089
 30
-0.0000000000000714
 11
119.9153832016222054
 21
315.7019258755896089
 31
-0.0000000000000701
210
0.0
220
1.0
230
-0.0000000000000002
  0
LINE
  5
2996
  8
0
  6
VERDECKT
 62
     1
 10
144.9153832016226886
 20
321.7019258755896089
 30
-0.0000000000000714
 11
144.9153832016226886
 21
315.7019258755896089
 31
-0.0000000000000701
210
0.0
220
1.0
230
-0.0000000000000002
  0
LINE
  5
2997
  8
0
  6
VERDECKT
 62
     1
 10
-53.1138512461925529
 20
315.7019258755896089
 30
-0.0000000000000701
 11
-53.1138512461925529
 21
321.7019258755896089
 31
-0.0000000000000714
210
0.0
220
1.0
230
-0.0000000000000002
  0
LINE
  5
2998
  8
0
  6
VERDECKT
 62
     1
 10
-58.8742347739957879
 20
321.7019258755896089
 30
-0.0000000000000714
 11
-58.8742347739957879
 21
315.7019258755896089
 31
-0.0000000000000701
210
0.0
220
1.0
230
-0.0000000000000002
  0
LINE
  5
2999
  8
0
  6
VERDECKT
 62
     1
 10
-100.6638527496133975
 20
321.7019258755896089
 30
-0.0000000000000714
 11
-100.6638527496133975
 21
315.7019258755896089
 31
-0.0000000000000701
210
0.0
220
1.0
230
-0.0000000000000002
  0
LINE
  5
299A
  8
0
  6
VERDECKT
 62
     1
 10
-75.6638527496138522
 20
321.7019258755896089
 30
-0.0000000000000714
 11
-75.6638527496138522
 21
315.7019258755896089
 31
-0.0000000000000701
210
0.0
220
1.0
230
-0.0000000000000002
  0
LINE
  5
299B
  8
0
  6
VERDECKT
 62
     1
 10
98.2699414393744064
 20
81.9112389822403344
 30
-0.0000000000000182
 11
-54.0184109873668135
 21
81.911238982240107
 31
-0.0000000000000182
210
0.0
220
1.0
230
-0.0000000000000002
  0
LINE
  5
299C
  8
0
  6
VERDECKT
 62
     1
 10
106.6184405558185944
 20
410.6368039710199014
 30
-0.0000000000000912
 11
-62.3669101038104827
 21
410.6368039710196172
 31
-0.0000000000000912
210
0.0
220
1.0
230
-0.0000000000000002
  0
LINE
  5
299D
  8
0
  6
VERDECKT
 62
     1
 10
-57.3742347739961005
 20
315.7019258755894953
 30
-0.0000000000000701
 11
-57.3742347739961005
 21
321.7019258755894953
 31
-0.0000000000000714
210
0.0
220
1.0
230
-0.0000000000000002
  0
LINE
  5
299E
  8
0
  6
VERDECKT
 62
     1
 10
101.6257652260039066
 20
315.7019258755894953
 30
-0.0000000000000701
 11
101.6257652260039066
 21
321.7019258755894953
 31
-0.0000000000000714
210
0.0
220
1.0
230
-0.0000000000000002
  0
ARC
  5
299F
  8
0
  6
VERDECKT
 62
     1
 10
-84.1257652260059103
 20
92.3482637689881045
 30
0.0
 40
14.9999999999979199
210
0.0
220
-0.0000000000000002
230
-1.0
 50
179.999999999999801
 51
185.0000000000003126
  0
ARC
  5
29A0
  8
0
  6
VERDECKT
 62
     1
 10
39.8742347739981824
 20
92.3482637689881187
 30
0.0
 40
14.9999999999979305
210
0.0
220
-0.0000000000000002
230
-1.0
 50
354.9999999999997158
 51
0.0000000000001654
  0
LINE
  5
29A1
  8
0
  6
VERDECKT
 62
     1
 10
-54.8742347739961005
 20
92.3482637689881045
 30
-0.0000000000000205
 11
-54.8742347739960366
 21
324.1656017107671914
 31
-0.000000000000072
210
0.0
220
1.0
230
-0.0000000000000002
  0
LINE
  5
29A2
  8
0
  6
VERDECKT
 62
     1
 10
99.1257652260038356
 20
92.3482637689881045
 30
-0.0000000000000205
 11
99.1257652260038924
 21
324.1656017107671914
 31
-0.000000000000072
210
0.0
220
1.0
230
-0.0000000000000002
  0
LINE
  5
29A3
  8
0
  6
VERDECKT
 62
     1
 10
-54.0184109873668703
 20
81.9112389822402207
 30
-0.0000000000000182
 11
-54.8171552453723621
 21
91.0409276277733426
 31
-0.0000000000000202
210
0.0
220
1.0
230
-0.0000000000000002
  0
LINE
  5
29A4
  8
0
  6
VERDECKT
 62
     1
 10
98.2699414393744632
 20
81.9112389822401781
 30
-0.0000000000000182
 11
99.0686856973799763
 21
91.0409276277733142
 31
-0.0000000000000202
210
0.0
220
1.0
230
-0.0000000000000002
  0
LINE
  5
29A5
  8
0
  6
VERDECKT
 62
     1
 10
106.6184405558185944
 20
410.636803971019674
 30
-0.0000000000000912
 11
107.0807683046971022
 21
409.6453389140061745
 31
-0.000000000000091
210
0.0
220
1.0
230
-0.0000000000000002
  0
LINE
  5
29A6
  8
0
  6
VERDECKT
 62
     1
 10
-62.3669101038104685
 20
410.636803971019674
 30
-0.0000000000000912
 11
-62.8292378526889621
 21
409.6453389140061745
 31
-0.000000000000091
210
0.0
220
1.0
230
-0.0000000000000002
  0
ARC
  5
29A7
  8
0
  6
VERDECKT
 62
     1
 10
-77.6253368133918258
 20
395.9101504306478887
 30
0.0
 40
32.5004284127511269
210
0.0
220
-0.0000000000000002
230
-1.0
 50
155.0001674368527063
 51
179.9998325631547971
  0
ARC
  5
29A8
  8
0
  6
VERDECKT
 62
     1
 10
33.3738063613836289
 20
395.9101504306478887
 30
0.0
 40
32.5004284127511411
210
0.0
220
-0.0000000000000002
230
-1.0
 50
0.0001674368451895
 51
24.9998325631473293
  0
LINE
  5
29A9
  8
0
  6
VERDECKT
 62
     1
 10
110.1257652260041056
 20
395.9102454074376283
 30
-0.0000000000000879
 11
110.1258126316432993
 21
379.688349625371302
 31
-0.0000000000000843
210
0.0
220
1.0
230
-0.0000000000000002
  0
LINE
  5
29AA
  8
0
  6
VERDECKT
 62
     1
 10
-65.8742347739959655
 20
395.9102454074376283
 30
-0.0000000000000879
 11
-65.874282179635145
 21
379.688349625371302
 31
-0.0000000000000843
210
0.0
220
1.0
230
-0.0000000000000002
  0
ARC
  5
29AB
  8
0
  6
VERDECKT
 62
     1
 10
-77.6257652259981938
 20
379.688349625372723
 30
0.0
 40
32.5000474056451267
210
0.0
220
-0.0000000000000002
230
-1.0
 50
180.0000000000023022
 51
207.5271836205502041
  0
ARC
  5
29AC
  8
0
  6
VERDECKT
 62
     1
 10
33.3742347739906933
 20
379.6883496253724957
 30
0.0
 40
32.5000474056444588
210
0.0
220
-0.0000000000000002
230
-1.0
 50
332.4728163794492843
 51
359.9999999999977831
  0
ARC
  5
29AD
  8
0
  6
VERDECKT
 62
     1
 10
-124.625765226004205
 20
355.1933496253712974
 30
0.0
 40
20.5000000000001315
210
0.0
220
-0.0000000000000002
230
-1.0
 50
0.0
 51
27.5271836205503497
  0
ARC
  5
29AE
  8
0
  6
VERDECKT
 62
     1
 10
80.3742347739959655
 20
355.1933496253712974
 30
0.0
 40
20.5
210
0.0
220
-0.0000000000000002
230
-1.0
 50
152.472816379449597
 51
180.0
  0
LINE
  5
29AF
  8
0
  6
VERDECKT
 62
     1
 10
-59.8742347739959797
 20
340.1343211334382772
 30
-0.0000000000000755
 11
-59.8742347739959797
 21
355.1933496253712974
 31
-0.0000000000000789
210
0.0
220
1.0
230
-0.0000000000000002
  0
LINE
  5
29B0
  8
0
  6
VERDECKT
 62
     1
 10
104.1257652260041056
 20
340.1343211334382772
 30
-0.0000000000000755
 11
104.1257652260041056
 21
355.1933496253712974
 31
-0.0000000000000789
210
0.0
220
1.0
230
-0.0000000000000002
  0
ARC
  5
29B1
  8
0
  6
VERDECKT
 62
     1
 10
-88.6257652260053135
 20
340.134321133437993
 30
0.0
 40
15.4999999999987992
210
0.0
220
-0.0000000000000002
230
-1.0
 50
179.9999999999988916
 51
214.7719440319496869
  0
ARC
  5
29B2
  8
0
  6
VERDECKT
 62
     1
 10
44.3742347739969887
 20
340.1343211334381067
 30
0.0
 40
15.4999999999989804
210
0.0
220
-0.0000000000000002
230
-1.0
 50
325.2280559680502279
 51
0.0000000000008397
  0
ARC
  5
29B3
  8
0
  6
VERDECKT
 62
     1
 10
-111.6257652260037929
 20
324.1656017107671914
 30
0.0
 40
12.4999999999996607
210
0.0
220
-0.0000000000000002
230
-1.0
 50
359.9999999999997158
 51
34.771944031949559
  0
ARC
  5
29B4
  8
0
  6
VERDECKT
 62
     1
 10
67.3742347739957523
 20
324.1656017107671914
 30
0.0
 40
12.4999999999997708
210
0.0
220
-0.0000000000000002
230
-1.0
 50
145.2280559680507963
 51
180.000000000000199
  0
LINE
  5
29B5
  8
0
  6
VERDECKT
 62
     1
 10
-62.3669101038104401
 20
410.6368039710199014
 30
-0.0000000000000912
 11
-64.6326795714019937
 21
411.6933496253714111
 31
-0.0000000000000914
210
0.0
220
1.0
230
-0.0000000000000002
  0
LINE
  5
29B6
  8
0
  6
VERDECKT
 62
     1
 10
106.6184405558185944
 20
410.6368039710199014
 30
-0.0000000000000912
 11
108.8842100234103043
 21
411.6933496253714111
 31
-0.0000000000000914
210
0.0
220
1.0
230
-0.0000000000000002
  0
LINE
  5
29B7
  8
0
  6
VERDECKT
 62
     1
 10
98.2699414393743353
 20
81.9112389822393112
 30
-0.0000000000000182
 11
100.7604281846036969
 21
81.6933496253703879
 31
-0.0000000000000181
210
0.0
220
1.0
230
-0.0000000000000002
  0
LINE
  5
29B8
  8
0
  6
VERDECKT
 62
     1
 10
-54.0184109873667708
 20
81.9112389822393254
 30
-0.0000000000000182
 11
-56.5088977325961892
 21
81.6933496253704163
 31
-0.0000000000000181
210
0.0
220
1.0
230
-0.0000000000000002
  0
ENDBLK
  5
29BA
  8
0
  0
BLOCK
  8
0
  2
A$CA73A10EF
 70
     0
 10
0.0
 20
0.0
 30
0.0
  3
A$CA73A10EF
  1

  0
LINE
  5
29BE
  8
0
  6
CONTINUOUS
 62
     3
 10
-211.471357961591309
 20
-133.2980471356613066
 30
0.0000000000000568
 11
-211.471357961591309
 21
-73.298047135661264
 31
0.0000000000000568
  0
POLYLINE
  8
0
  5
2A31
  62
3
  66
     1
 10
0.000000
 20
0.000000
 30
0.000000
  70
     8
  0
VERTEX
  8
0
  5
2A32
 10
-243.921
 20
-103.298
 30
2.68000e-14
  70
    32
  0
VERTEX
  8
0
  5
2A33
 10
-243.921
 20
-103.229
 30
2.68000e-14
  70
    32
  0
VERTEX
  8
0
  5
2A34
 10
-243.920
 20
-103.159
 30
2.68000e-14
  70
    32
  0
VERTEX
  8
0
  5
2A35
 10
-243.918
 20
-103.089
 30
2.68000e-14
  70
    32
  0
VERTEX
  8
0
  5
2A36
 10
-243.915
 20
-103.018
 30
2.68000e-14
  70
    32
  0
VERTEX
  8
0
  5
2A37
 10
-243.911
 20
-102.947
 30
2.68000e-14
  70
    32
  0
VERTEX
  8
0
  5
2A38
 10
-243.907
 20
-102.876
 30
2.68001e-14
  70
    32
  0
VERTEX
  8
0
  5
2A39
 10
-243.901
 20
-102.804
 30
2.68002e-14
  70
    32
  0
VERTEX
  8
0
  5
2A3A
 10
-243.895
 20
-102.733
 30
2.68003e-14
  70
    32
  0
VERTEX
  8
0
  5
2A3B
 10
-243.888
 20
-102.660
 30
2.68005e-14
  70
    32
  0
VERTEX
  8
0
  5
2A3C
 10
-243.880
 20
-102.588
 30
2.68008e-14
  70
    32
  0
VERTEX
  8
0
  5
2A3D
 10
-243.870
 20
-102.515
 30
2.68012e-14
  70
    32
  0
VERTEX
  8
0
  5
2A3E
 10
-243.860
 20
-102.442
 30
2.68016e-14
  70
    32
  0
VERTEX
  8
0
  5
2A3F
 10
-243.849
 20
-102.368
 30
2.68022e-14
  70
    32
  0
VERTEX
  8
0
  5
2A40
 10
-243.838
 20
-102.295
 30
2.68028e-14
  70
    32
  0
VERTEX
  8
0
  5
2A41
 10
-243.825
 20
-102.221
 30
2.68037e-14
  70
    32
  0
VERTEX
  8
0
  5
2A42
 10
-243.811
 20
-102.146
 30
2.68046e-14
  70
    32
  0
VERTEX
  8
0
  5
2A43
 10
-243.796
 20
-102.072
 30
2.68057e-14
  70
    32
  0
VERTEX
  8
0
  5
2A44
 10
-243.779
 20
-101.997
 30
2.68070e-14
  70
    32
  0
VERTEX
  8
0
  5
2A45
 10
-243.762
 20
-101.922
 30
2.68084e-14
  70
    32
  0
VERTEX
  8
0
  5
2A46
 10
-243.744
 20
-101.847
 30
2.68100e-14
  70
    32
  0
VERTEX
  8
0
  5
2A47
 10
-243.725
 20
-101.772
 30
2.68118e-14
  70
    32
  0
VERTEX
  8
0
  5
2A48
 10
-243.704
 20
-101.696
 30
2.68138e-14
  70
    32
  0
VERTEX
  8
0
  5
2A49
 10
-243.683
 20
-101.621
 30
2.68161e-14
  70
    32
  0
VERTEX
  8
0
  5
2A4A
 10
-243.660
 20
-101.545
 30
2.68185e-14
  70
    32
  0
VERTEX
  8
0
  5
2A4B
 10
-243.636
 20
-101.469
 30
2.68212e-14
  70
    32
  0
VERTEX
  8
0
  5
2A4C
 10
-243.611
 20
-101.392
 30
2.68242e-14
  70
    32
  0
VERTEX
  8
0
  5
2A4D
 10
-243.585
 20
-101.316
 30
2.68274e-14
  70
    32
  0
VERTEX
  8
0
  5
2A4E
 10
-243.557
 20
-101.239
 30
2.68309e-14
  70
    32
  0
VERTEX
  8
0
  5
2A4F
 10
-243.529
 20
-101.163
 30
2.68347e-14
  70
    32
  0
VERTEX
  8
0
  5
2A50
 10
-243.499
 20
-101.086
 30
2.68388e-14
  70
    32
  0
VERTEX
  8
0
  5
2A51
 10
-243.468
 20
-101.009
 30
2.68431e-14
  70
    32
  0
VERTEX
  8
0
  5
2A52
 10
-243.435
 20
-100.932
 30
2.68478e-14
  70
    32
  0
VERTEX
  8
0
  5
2A53
 10
-243.401
 20
-100.855
 30
2.68529e-14
  70
    32
  0
VERTEX
  8
0
  5
2A54
 10
-243.366
 20
-100.778
 30
2.68583e-14
  70
    32
  0
VERTEX
  8
0
  5
2A55
 10
-243.330
 20
-100.700
 30
2.68642e-14
  70
    32
  0
VERTEX
  8
0
  5
2A56
 10
-243.292
 20
-100.623
 30
2.68705e-14
  70
    32
  0
VERTEX
  8
0
  5
2A57
 10
-243.253
 20
-100.546
 30
2.68774e-14
  70
    32
  0
VERTEX
  8
0
  5
2A58
 10
-243.213
 20
-100.469
 30
2.68848e-14
  70
    32
  0
VERTEX
  8
0
  5
2A59
 10
-243.171
 20
-100.392
 30
2.68927e-14
  70
    32
  0
VERTEX
  8
0
  5
2A5A
 10
-243.128
 20
-100.315
 30
2.69012e-14
  70
    32
  0
VERTEX
  8
0
  5
2A5B
 10
-243.083
 20
-100.238
 30
2.69101e-14
  70
    32
  0
VERTEX
  8
0
  5
2A5C
 10
-243.037
 20
-100.161
 30
2.69196e-14
  70
    32
  0
VERTEX
  8
0
  5
2A5D
 10
-242.989
 20
-100.085
 30
2.69296e-14
  70
    32
  0
VERTEX
  8
0
  5
2A5E
 10
-242.940
 20
-100.009
 30
2.69401e-14
  70
    32
  0
VERTEX
  8
0
  5
2A5F
 10
-242.890
 20
-99.9328
 30
2.69512e-14
  70
    32
  0
VERTEX
  8
0
  5
2A60
 10
-242.838
 20
-99.8570
 30
2.69628e-14
  70
    32
  0
VERTEX
  8
0
  5
2A61
 10
-242.784
 20
-99.7816
 30
2.69750e-14
  70
    32
  0
VERTEX
  8
0
  5
2A62
 10
-242.729
 20
-99.7065
 30
2.69877e-14
  70
    32
  0
VERTEX
  8
0
  5
2A63
 10
-242.672
 20
-99.6317
 30
2.70010e-14
  70
    32
  0
VERTEX
  8
0
  5
2A64
 10
-242.613
 20
-99.5573
 30
2.70148e-14
  70
    32
  0
VERTEX
  8
0
  5
2A65
 10
-242.553
 20
-99.4833
 30
2.70292e-14
  70
    32
  0
VERTEX
  8
0
  5
2A66
 10
-242.492
 20
-99.4097
 30
2.70442e-14
  70
    32
  0
VERTEX
  8
0
  5
2A67
 10
-242.428
 20
-99.3366
 30
2.70597e-14
  70
    32
  0
VERTEX
  8
0
  5
2A68
 10
-242.363
 20
-99.2639
 30
2.70758e-14
  70
    32
  0
VERTEX
  8
0
  5
2A69
 10
-242.296
 20
-99.1917
 30
2.70925e-14
  70
    32
  0
VERTEX
  8
0
  5
2A6A
 10
-242.228
 20
-99.1201
 30
2.71098e-14
  70
    32
  0
VERTEX
  8
0
  5
2A6B
 10
-242.158
 20
-99.0490
 30
2.71277e-14
  70
    32
  0
VERTEX
  8
0
  5
2A6C
 10
-242.086
 20
-98.9785
 30
2.71462e-14
  70
    32
  0
VERTEX
  8
0
  5
2A6D
 10
-242.012
 20
-98.9085
 30
2.71652e-14
  70
    32
  0
VERTEX
  8
0
  5
2A6E
 10
-241.936
 20
-98.8393
 30
2.71845e-14
  70
    32
  0
VERTEX
  8
0
  5
2A6F
 10
-241.859
 20
-98.7707
 30
2.72034e-14
  70
    32
  0
VERTEX
  8
0
  5
2A70
 10
-241.780
 20
-98.7029
 30
2.72219e-14
  70
    32
  0
VERTEX
  8
0
  5
2A71
 10
-241.699
 20
-98.6359
 30
2.72404e-14
  70
    32
  0
VERTEX
  8
0
  5
2A72
 10
-241.616
 20
-98.5699
 30
2.72588e-14
  70
    32
  0
VERTEX
  8
0
  5
2A73
 10
-241.531
 20
-98.5047
 30
2.72772e-14
  70
    32
  0
VERTEX
  8
0
  5
2A74
 10
-241.444
 20
-98.4405
 30
2.72957e-14
  70
    32
  0
VERTEX
  8
0
  5
2A75
 10
-241.356
 20
-98.3774
 30
2.73145e-14
  70
    32
  0
VERTEX
  8
0
  5
2A76
 10
-241.265
 20
-98.3154
 30
2.73337e-14
  70
    32
  0
VERTEX
  8
0
  5
2A77
 10
-241.173
 20
-98.2546
 30
2.73533e-14
  70
    32
  0
VERTEX
  8
0
  5
2A78
 10
-241.078
 20
-98.1950
 30
2.73735e-14
  70
    32
  0
VERTEX
  8
0
  5
2A79
 10
-240.982
 20
-98.1366
 30
2.73943e-14
  70
    32
  0
VERTEX
  8
0
  5
2A7A
 10
-240.884
 20
-98.0796
 30
2.74160e-14
  70
    32
  0
VERTEX
  8
0
  5
2A7B
 10
-240.783
 20
-98.0240
 30
2.74385e-14
  70
    32
  0
VERTEX
  8
0
  5
2A7C
 10
-240.681
 20
-97.9699
 30
2.74619e-14
  70
    32
  0
VERTEX
  8
0
  5
2A7D
 10
-240.577
 20
-97.9172
 30
2.74865e-14
  70
    32
  0
VERTEX
  8
0
  5
2A7E
 10
-240.470
 20
-97.8661
 30
2.75122e-14
  70
    32
  0
VERTEX
  8
0
  5
2A7F
 10
-240.362
 20
-97.8166
 30
2.75393e-14
  70
    32
  0
VERTEX
  8
0
  5
2A80
 10
-240.251
 20
-97.7688
 30
2.75677e-14
  70
    32
  0
VERTEX
  8
0
  5
2A81
 10
-240.138
 20
-97.7227
 30
2.75976e-14
  70
    32
  0
VERTEX
  8
0
  5
2A82
 10
-240.024
 20
-97.6785
 30
2.76290e-14
  70
    32
  0
VERTEX
  8
0
  5
2A83
 10
-239.910
 20
-97.6372
 30
2.76594e-14
  70
    32
  0
VERTEX
  8
0
  5
2A84
 10
-239.797
 20
-97.5990
 30
2.76884e-14
  70
    32
  0
VERTEX
  8
0
  5
2A85
 10
-239.687
 20
-97.5638
 30
2.77160e-14
  70
    32
  0
VERTEX
  8
0
  5
2A86
 10
-239.577
 20
-97.5315
 30
2.77422e-14
  70
    32
  0
VERTEX
  8
0
  5
2A87
 10
-239.470
 20
-97.5018
 30
2.77670e-14
  70
    32
  0
VERTEX
  8
0
  5
2A88
 10
-239.365
 20
-97.4748
 30
2.77906e-14
  70
    32
  0
VERTEX
  8
0
  5
2A89
 10
-239.262
 20
-97.4503
 30
2.78130e-14
  70
    32
  0
VERTEX
  8
0
  5
2A8A
 10
-239.161
 20
-97.4282
 30
2.78341e-14
  70
    32
  0
VERTEX
  8
0
  5
2A8B
 10
-239.062
 20
-97.4083
 30
2.78541e-14
  70
    32
  0
VERTEX
  8
0
  5
2A8C
 10
-238.966
 20
-97.3906
 30
2.78731e-14
  70
    32
  0
VERTEX
  8
0
  5
2A8D
 10
-238.873
 20
-97.3749
 30
2.78910e-14
  70
    32
  0
VERTEX
  8
0
  5
2A8E
 10
-238.782
 20
-97.3610
 30
2.79079e-14
  70
    32
  0
VERTEX
  8
0
  5
2A8F
 10
-238.694
 20
-97.3490
 30
2.79238e-14
  70
    32
  0
VERTEX
  8
0
  5
2A90
 10
-238.609
 20
-97.3386
 30
2.79389e-14
  70
    32
  0
VERTEX
  8
0
  5
2A91
 10
-238.528
 20
-97.3297
 30
2.79531e-14
  70
    32
  0
VERTEX
  8
0
  5
2A92
 10
-238.449
 20
-97.3222
 30
2.79665e-14
  70
    32
  0
VERTEX
  8
0
  5
2A93
 10
-238.374
 20
-97.3160
 30
2.79792e-14
  70
    32
  0
VERTEX
  8
0
  5
2A94
 10
-238.303
 20
-97.3109
 30
2.79911e-14
  70
    32
  0
VERTEX
  8
0
  5
2A95
 10
-238.235
 20
-97.3069
 30
2.80025e-14
  70
    32
  0
VERTEX
  8
0
  5
2A96
 10
-238.170
 20
-97.3039
 30
2.80132e-14
  70
    32
  0
VERTEX
  8
0
  5
2A97
 10
-238.110
 20
-97.3016
 30
2.80233e-14
  70
    32
  0
VERTEX
  8
0
  5
2A98
 10
-238.054
 20
-97.3000
 30
2.80329e-14
  70
    32
  0
VERTEX
  8
0
  5
2A99
 10
-238.002
 20
-97.2990
 30
2.80421e-14
  70
    32
  0
VERTEX
  8
0
  5
2A9A
 10
-237.954
 20
-97.2984
 30
2.80508e-14
  70
    32
  0
VERTEX
  8
0
  5
2A9B
 10
-237.910
 20
-97.2981
 30
2.80592e-14
  70
    32
  0
VERTEX
  8
0
  5
2A9C
 10
-237.871
 20
-97.2981
 30
2.80673e-14
  70
    32
  0
VERTEX
  8
0
  5
2A9D
 10
-237.836
 20
-97.2980
 30
2.80752e-14
  70
    32
  0
VERTEX
  8
0
  5
2A9E
 10
-237.800
 20
-97.2980
 30
2.80830e-14
  70
    32
  0
VERTEX
  8
0
  5
2A9F
 10
-237.765
 20
-97.2980
 30
2.80909e-14
  70
    32
  0
VERTEX
  8
0
  5
2AA0
 10
-237.730
 20
-97.2980
 30
2.80988e-14
  70
    32
  0
VERTEX
  8
0
  5
2AA1
 10
-237.694
 20
-97.2980
 30
2.81066e-14
  70
    32
  0
VERTEX
  8
0
  5
2AA2
 10
-237.659
 20
-97.2980
 30
2.81145e-14
  70
    32
  0
VERTEX
  8
0
  5
2AA3
 10
-237.623
 20
-97.2980
 30
2.81224e-14
  70
    32
  0
VERTEX
  8
0
  5
2AA4
 10
-237.588
 20
-97.2980
 30
2.81304e-14
  70
    32
  0
VERTEX
  8
0
  5
2AA5
 10
-237.552
 20
-97.2980
 30
2.81383e-14
  70
    32
  0
VERTEX
  8
0
  5
2AA6
 10
-237.517
 20
-97.2980
 30
2.81462e-14
  70
    32
  0
VERTEX
  8
0
  5
2AA7
 10
-237.481
 20
-97.2980
 30
2.81542e-14
  70
    32
  0
VERTEX
  8
0
  5
2AA8
 10
-237.446
 20
-97.2980
 30
2.81621e-14
  70
    32
  0
VERTEX
  8
0
  5
2AA9
 10
-237.410
 20
-97.2980
 30
2.81701e-14
  70
    32
  0
VERTEX
  8
0
  5
2AAA
 10
-237.374
 20
-97.2980
 30
2.81781e-14
  70
    32
  0
VERTEX
  8
0
  5
2AAB
 10
-237.338
 20
-97.2980
 30
2.81861e-14
  70
    32
  0
VERTEX
  8
0
  5
2AAC
 10
-237.303
 20
-97.2980
 30
2.81941e-14
  70
    32
  0
VERTEX
  8
0
  5
2AAD
 10
-237.267
 20
-97.2980
 30
2.82021e-14
  70
    32
  0
VERTEX
  8
0
  5
2AAE
 10
-237.231
 20
-97.2980
 30
2.82101e-14
  70
    32
  0
VERTEX
  8
0
  5
2AAF
 10
-237.195
 20
-97.2980
 30
2.82182e-14
  70
    32
  0
VERTEX
  8
0
  5
2AB0
 10
-237.159
 20
-97.2980
 30
2.82262e-14
  70
    32
  0
VERTEX
  8
0
  5
2AB1
 10
-237.123
 20
-97.2980
 30
2.82342e-14
  70
    32
  0
VERTEX
  8
0
  5
2AB2
 10
-237.087
 20
-97.2980
 30
2.82423e-14
  70
    32
  0
VERTEX
  8
0
  5
2AB3
 10
-237.051
 20
-97.2980
 30
2.82504e-14
  70
    32
  0
VERTEX
  8
0
  5
2AB4
 10
-237.015
 20
-97.2980
 30
2.82585e-14
  70
    32
  0
VERTEX
  8
0
  5
2AB5
 10
-236.979
 20
-97.2980
 30
2.82666e-14
  70
    32
  0
VERTEX
  8
0
  5
2AB6
 10
-236.943
 20
-97.2980
 30
2.82747e-14
  70
    32
  0
VERTEX
  8
0
  5
2AB7
 10
-236.907
 20
-97.2980
 30
2.82828e-14
  70
    32
  0
VERTEX
  8
0
  5
2AB8
 10
-236.871
 20
-97.2980
 30
2.82909e-14
  70
    32
  0
VERTEX
  8
0
  5
2AB9
 10
-236.835
 20
-97.2980
 30
2.82991e-14
  70
    32
  0
VERTEX
  8
0
  5
2ABA
 10
-236.798
 20
-97.2980
 30
2.83072e-14
  70
    32
  0
VERTEX
  8
0
  5
2ABB
 10
-236.762
 20
-97.2980
 30
2.83154e-14
  70
    32
  0
VERTEX
  8
0
  5
2ABC
 10
-236.726
 20
-97.2980
 30
2.83236e-14
  70
    32
  0
VERTEX
  8
0
  5
2ABD
 10
-236.689
 20
-97.2980
 30
2.83317e-14
  70
    32
  0
VERTEX
  8
0
  5
2ABE
 10
-236.653
 20
-97.2980
 30
2.83399e-14
  70
    32
  0
VERTEX
  8
0
  5
2ABF
 10
-236.617
 20
-97.2980
 30
2.83481e-14
  70
    32
  0
VERTEX
  8
0
  5
2AC0
 10
-236.580
 20
-97.2980
 30
2.83564e-14
  70
    32
  0
VERTEX
  8
0
  5
2AC1
 10
-236.544
 20
-97.2980
 30
2.83646e-14
  70
    32
  0
VERTEX
  8
0
  5
2AC2
 10
-236.507
 20
-97.2980
 30
2.83728e-14
  70
    32
  0
VERTEX
  8
0
  5
2AC3
 10
-236.470
 20
-97.2980
 30
2.83811e-14
  70
    32
  0
VERTEX
  8
0
  5
2AC4
 10
-236.434
 20
-97.2980
 30
2.83893e-14
  70
    32
  0
VERTEX
  8
0
  5
2AC5
 10
-236.397
 20
-97.2980
 30
2.83976e-14
  70
    32
  0
VERTEX
  8
0
  5
2AC6
 10
-236.361
 20
-97.2980
 30
2.84059e-14
  70
    32
  0
VERTEX
  8
0
  5
2AC7
 10
-236.324
 20
-97.2980
 30
2.84142e-14
  70
    32
  0
VERTEX
  8
0
  5
2AC8
 10
-236.287
 20
-97.2980
 30
2.84225e-14
  70
    32
  0
VERTEX
  8
0
  5
2AC9
 10
-236.250
 20
-97.2980
 30
2.84308e-14
  70
    32
  0
VERTEX
  8
0
  5
2ACA
 10
-236.214
 20
-97.2980
 30
2.84391e-14
  70
    32
  0
VERTEX
  8
0
  5
2ACB
 10
-236.177
 20
-97.2980
 30
2.84475e-14
  70
    32
  0
VERTEX
  8
0
  5
2ACC
 10
-236.140
 20
-97.2980
 30
2.84558e-14
  70
    32
  0
VERTEX
  8
0
  5
2ACD
 10
-236.103
 20
-97.2980
 30
2.84642e-14
  70
    32
  0
VERTEX
  8
0
  5
2ACE
 10
-236.066
 20
-97.2980
 30
2.84726e-14
  70
    32
  0
VERTEX
  8
0
  5
2ACF
 10
-236.029
 20
-97.2980
 30
2.84810e-14
  70
    32
  0
VERTEX
  8
0
  5
2AD0
 10
-235.992
 20
-97.2980
 30
2.84893e-14
  70
    32
  0
VERTEX
  8
0
  5
2AD1
 10
-235.955
 20
-97.2980
 30
2.84978e-14
  70
    32
  0
VERTEX
  8
0
  5
2AD2
 10
-235.918
 20
-97.2980
 30
2.85062e-14
  70
    32
  0
VERTEX
  8
0
  5
2AD3
 10
-235.881
 20
-97.2980
 30
2.85146e-14
  70
    32
  0
VERTEX
  8
0
  5
2AD4
 10
-235.843
 20
-97.2980
 30
2.85230e-14
  70
    32
  0
VERTEX
  8
0
  5
2AD5
 10
-235.806
 20
-97.2980
 30
2.85315e-14
  70
    32
  0
VERTEX
  8
0
  5
2AD6
 10
-235.769
 20
-97.2980
 30
2.85400e-14
  70
    32
  0
VERTEX
  8
0
  5
2AD7
 10
-235.732
 20
-97.2980
 30
2.85484e-14
  70
    32
  0
VERTEX
  8
0
  5
2AD8
 10
-235.694
 20
-97.2980
 30
2.85569e-14
  70
    32
  0
VERTEX
  8
0
  5
2AD9
 10
-235.657
 20
-97.2980
 30
2.85654e-14
  70
    32
  0
VERTEX
  8
0
  5
2ADA
 10
-235.620
 20
-97.2980
 30
2.85739e-14
  70
    32
  0
VERTEX
  8
0
  5
2ADB
 10
-235.582
 20
-97.2980
 30
2.85825e-14
  70
    32
  0
VERTEX
  8
0
  5
2ADC
 10
-235.545
 20
-97.2980
 30
2.85910e-14
  70
    32
  0
VERTEX
  8
0
  5
2ADD
 10
-235.507
 20
-97.2980
 30
2.85996e-14
  70
    32
  0
VERTEX
  8
0
  5
2ADE
 10
-235.470
 20
-97.2980
 30
2.86081e-14
  70
    32
  0
VERTEX
  8
0
  5
2ADF
 10
-235.432
 20
-97.2980
 30
2.86167e-14
  70
    32
  0
VERTEX
  8
0
  5
2AE0
 10
-235.394
 20
-97.2980
 30
2.86253e-14
  70
    32
  0
VERTEX
  8
0
  5
2AE1
 10
-235.357
 20
-97.2980
 30
2.86339e-14
  70
    32
  0
VERTEX
  8
0
  5
2AE2
 10
-235.319
 20
-97.2980
 30
2.86425e-14
  70
    32
  0
VERTEX
  8
0
  5
2AE3
 10
-235.281
 20
-97.2980
 30
2.86511e-14
  70
    32
  0
VERTEX
  8
0
  5
2AE4
 10
-235.244
 20
-97.2980
 30
2.86597e-14
  70
    32
  0
VERTEX
  8
0
  5
2AE5
 10
-235.206
 20
-97.2980
 30
2.86684e-14
  70
    32
  0
VERTEX
  8
0
  5
2AE6
 10
-235.168
 20
-97.2980
 30
2.86770e-14
  70
    32
  0
VERTEX
  8
0
  5
2AE7
 10
-235.130
 20
-97.2980
 30
2.86857e-14
  70
    32
  0
VERTEX
  8
0
  5
2AE8
 10
-235.092
 20
-97.2980
 30
2.86943e-14
  70
    32
  0
VERTEX
  8
0
  5
2AE9
 10
-235.054
 20
-97.2980
 30
2.87030e-14
  70
    32
  0
VERTEX
  8
0
  5
2AEA
 10
-235.016
 20
-97.2980
 30
2.87117e-14
  70
    32
  0
VERTEX
  8
0
  5
2AEB
 10
-234.978
 20
-97.2980
 30
2.87205e-14
  70
    32
  0
VERTEX
  8
0
  5
2AEC
 10
-234.940
 20
-97.2980
 30
2.87292e-14
  70
    32
  0
VERTEX
  8
0
  5
2AED
 10
-234.902
 20
-97.2980
 30
2.87379e-14
  70
    32
  0
VERTEX
  8
0
  5
2AEE
 10
-234.864
 20
-97.2980
 30
2.87467e-14
  70
    32
  0
VERTEX
  8
0
  5
2AEF
 10
-234.826
 20
-97.2980
 30
2.87554e-14
  70
    32
  0
VERTEX
  8
0
  5
2AF0
 10
-234.788
 20
-97.2980
 30
2.87642e-14
  70
    32
  0
VERTEX
  8
0
  5
2AF1
 10
-234.749
 20
-97.2980
 30
2.87730e-14
  70
    32
  0
VERTEX
  8
0
  5
2AF2
 10
-234.711
 20
-97.2980
 30
2.87818e-14
  70
    32
  0
VERTEX
  8
0
  5
2AF3
 10
-234.673
 20
-97.2980
 30
2.87906e-14
  70
    32
  0
VERTEX
  8
0
  5
2AF4
 10
-234.634
 20
-97.2980
 30
2.87994e-14
  70
    32
  0
VERTEX
  8
0
  5
2AF5
 10
-234.596
 20
-97.2980
 30
2.88083e-14
  70
    32
  0
VERTEX
  8
0
  5
2AF6
 10
-234.558
 20
-97.2980
 30
2.88171e-14
  70
    32
  0
VERTEX
  8
0
  5
2AF7
 10
-234.519
 20
-97.2980
 30
2.88260e-14
  70
    32
  0
VERTEX
  8
0
  5
2AF8
 10
-234.481
 20
-97.2980
 30
2.88348e-14
  70
    32
  0
VERTEX
  8
0
  5
2AF9
 10
-234.442
 20
-97.2980
 30
2.88437e-14
  70
    32
  0
VERTEX
  8
0
  5
2AFA
 10
-234.404
 20
-97.2980
 30
2.88526e-14
  70
    32
  0
VERTEX
  8
0
  5
2AFB
 10
-234.365
 20
-97.2980
 30
2.88615e-14
  70
    32
  0
VERTEX
  8
0
  5
2AFC
 10
-234.326
 20
-97.2980
 30
2.88705e-14
  70
    32
  0
VERTEX
  8
0
  5
2AFD
 10
-234.288
 20
-97.2980
 30
2.88794e-14
  70
    32
  0
VERTEX
  8
0
  5
2AFE
 10
-234.249
 20
-97.2980
 30
2.88883e-14
  70
    32
  0
VERTEX
  8
0
  5
2AFF
 10
-234.210
 20
-97.2980
 30
2.88973e-14
  70
    32
  0
VERTEX
  8
0
  5
2B00
 10
-234.171
 20
-97.2980
 30
2.89063e-14
  70
    32
  0
VERTEX
  8
0
  5
2B01
 10
-234.132
 20
-97.2980
 30
2.89153e-14
  70
    32
  0
VERTEX
  8
0
  5
2B02
 10
-234.093
 20
-97.2980
 30
2.89243e-14
  70
    32
  0
VERTEX
  8
0
  5
2B03
 10
-234.055
 20
-97.2980
 30
2.89333e-14
  70
    32
  0
VERTEX
  8
0
  5
2B04
 10
-234.016
 20
-97.2980
 30
2.89423e-14
  70
    32
  0
VERTEX
  8
0
  5
2B05
 10
-233.977
 20
-97.2980
 30
2.89513e-14
  70
    32
  0
VERTEX
  8
0
  5
2B06
 10
-233.937
 20
-97.2980
 30
2.89604e-14
  70
    32
  0
VERTEX
  8
0
  5
2B07
 10
-233.898
 20
-97.2980
 30
2.89694e-14
  70
    32
  0
VERTEX
  8
0
  5
2B08
 10
-233.859
 20
-97.2980
 30
2.89785e-14
  70
    32
  0
VERTEX
  8
0
  5
2B09
 10
-233.820
 20
-97.2980
 30
2.89876e-14
  70
    32
  0
VERTEX
  8
0
  5
2B0A
 10
-233.781
 20
-97.2980
 30
2.89967e-14
  70
    32
  0
VERTEX
  8
0
  5
2B0B
 10
-233.742
 20
-97.2980
 30
2.90058e-14
  70
    32
  0
VERTEX
  8
0
  5
2B0C
 10
-233.702
 20
-97.2980
 30
2.90149e-14
  70
    32
  0
VERTEX
  8
0
  5
2B0D
 10
-233.663
 20
-97.2980
 30
2.90241e-14
  70
    32
  0
VERTEX
  8
0
  5
2B0E
 10
-233.624
 20
-97.2980
 30
2.90332e-14
  70
    32
  0
VERTEX
  8
0
  5
2B0F
 10
-233.584
 20
-97.2980
 30
2.90424e-14
  70
    32
  0
VERTEX
  8
0
  5
2B10
 10
-233.545
 20
-97.2980
 30
2.90516e-14
  70
    32
  0
VERTEX
  8
0
  5
2B11
 10
-233.505
 20
-97.2980
 30
2.90607e-14
  70
    32
  0
VERTEX
  8
0
  5
2B12
 10
-233.466
 20
-97.2980
 30
2.90699e-14
  70
    32
  0
VERTEX
  8
0
  5
2B13
 10
-233.426
 20
-97.2980
 30
2.90792e-14
  70
    32
  0
VERTEX
  8
0
  5
2B14
 10
-233.387
 20
-97.2980
 30
2.90884e-14
  70
    32
  0
VERTEX
  8
0
  5
2B15
 10
-233.347
 20
-97.2980
 30
2.90976e-14
  70
    32
  0
VERTEX
  8
0
  5
2B16
 10
-233.307
 20
-97.2980
 30
2.91069e-14
  70
    32
  0
VERTEX
  8
0
  5
2B17
 10
-233.268
 20
-97.2980
 30
2.91162e-14
  70
    32
  0
VERTEX
  8
0
  5
2B18
 10
-233.228
 20
-97.2980
 30
2.91254e-14
  70
    32
  0
VERTEX
  8
0
  5
2B19
 10
-233.188
 20
-97.2980
 30
2.91347e-14
  70
    32
  0
VERTEX
  8
0
  5
2B1A
 10
-233.148
 20
-97.2980
 30
2.91440e-14
  70
    32
  0
VERTEX
  8
0
  5
2B1B
 10
-233.108
 20
-97.2980
 30
2.91534e-14
  70
    32
  0
VERTEX
  8
0
  5
2B1C
 10
-233.068
 20
-97.2980
 30
2.91627e-14
  70
    32
  0
VERTEX
  8
0
  5
2B1D
 10
-233.028
 20
-97.2980
 30
2.91720e-14
  70
    32
  0
VERTEX
  8
0
  5
2B1E
 10
-232.988
 20
-97.2980
 30
2.91814e-14
  70
    32
  0
VERTEX
  8
0
  5
2B1F
 10
-232.948
 20
-97.2980
 30
2.91908e-14
  70
    32
  0
VERTEX
  8
0
  5
2B20
 10
-232.908
 20
-97.2980
 30
2.92002e-14
  70
    32
  0
VERTEX
  8
0
  5
2B21
 10
-232.868
 20
-97.2980
 30
2.92096e-14
  70
    32
  0
VERTEX
  8
0
  5
2B22
 10
-232.828
 20
-97.2980
 30
2.92190e-14
  70
    32
  0
VERTEX
  8
0
  5
2B23
 10
-232.788
 20
-97.2980
 30
2.92284e-14
  70
    32
  0
VERTEX
  8
0
  5
2B24
 10
-232.748
 20
-97.2980
 30
2.92379e-14
  70
    32
  0
VERTEX
  8
0
  5
2B25
 10
-232.707
 20
-97.2980
 30
2.92473e-14
  70
    32
  0
VERTEX
  8
0
  5
2B26
 10
-232.667
 20
-97.2980
 30
2.92568e-14
  70
    32
  0
VERTEX
  8
0
  5
2B27
 10
-232.627
 20
-97.2980
 30
2.92663e-14
  70
    32
  0
VERTEX
  8
0
  5
2B28
 10
-232.586
 20
-97.2980
 30
2.92758e-14
  70
    32
  0
VERTEX
  8
0
  5
2B29
 10
-232.546
 20
-97.2980
 30
2.92853e-14
  70
    32
  0
VERTEX
  8
0
  5
2B2A
 10
-232.505
 20
-97.2980
 30
2.92948e-14
  70
    32
  0
VERTEX
  8
0
  5
2B2B
 10
-232.465
 20
-97.2980
 30
2.93043e-14
  70
    32
  0
VERTEX
  8
0
  5
2B2C
 10
-232.424
 20
-97.2980
 30
2.93139e-14
  70
    32
  0
VERTEX
  8
0
  5
2B2D
 10
-232.383
 20
-97.2980
 30
2.93234e-14
  70
    32
  0
VERTEX
  8
0
  5
2B2E
 10
-232.343
 20
-97.2980
 30
2.93330e-14
  70
    32
  0
VERTEX
  8
0
  5
2B2F
 10
-232.302
 20
-97.2980
 30
2.93426e-14
  70
    32
  0
VERTEX
  8
0
  5
2B30
 10
-232.261
 20
-97.2980
 30
2.93522e-14
  70
    32
  0
VERTEX
  8
0
  5
2B31
 10
-232.221
 20
-97.2980
 30
2.93618e-14
  70
    32
  0
VERTEX
  8
0
  5
2B32
 10
-232.180
 20
-97.2980
 30
2.93715e-14
  70
    32
  0
VERTEX
  8
0
  5
2B33
 10
-232.139
 20
-97.2980
 30
2.93811e-14
  70
    32
  0
VERTEX
  8
0
  5
2B34
 10
-232.098
 20
-97.2980
 30
2.93908e-14
  70
    32
  0
VERTEX
  8
0
  5
2B35
 10
-232.057
 20
-97.2980
 30
2.94004e-14
  70
    32
  0
VERTEX
  8
0
  5
2B36
 10
-232.016
 20
-97.2980
 30
2.94101e-14
  70
    32
  0
VERTEX
  8
0
  5
2B37
 10
-231.975
 20
-97.2980
 30
2.94198e-14
  70
    32
  0
VERTEX
  8
0
  5
2B38
 10
-231.934
 20
-97.2980
 30
2.94295e-14
  70
    32
  0
VERTEX
  8
0
  5
2B39
 10
-231.893
 20
-97.2980
 30
2.94393e-14
  70
    32
  0
VERTEX
  8
0
  5
2B3A
 10
-231.852
 20
-97.2980
 30
2.94490e-14
  70
    32
  0
VERTEX
  8
0
  5
2B3B
 10
-231.810
 20
-97.2980
 30
2.94588e-14
  70
    32
  0
VERTEX
  8
0
  5
2B3C
 10
-231.769
 20
-97.2980
 30
2.94685e-14
  70
    32
  0
VERTEX
  8
0
  5
2B3D
 10
-231.728
 20
-97.2980
 30
2.94783e-14
  70
    32
  0
VERTEX
  8
0
  5
2B3E
 10
-231.687
 20
-97.2980
 30
2.94881e-14
  70
    32
  0
VERTEX
  8
0
  5
2B3F
 10
-231.645
 20
-97.2980
 30
2.94979e-14
  70
    32
  0
VERTEX
  8
0
  5
2B40
 10
-231.604
 20
-97.2980
 30
2.95078e-14
  70
    32
  0
VERTEX
  8
0
  5
2B41
 10
-231.562
 20
-97.2980
 30
2.95176e-14
  70
    32
  0
VERTEX
  8
0
  5
2B42
 10
-231.521
 20
-97.2980
 30
2.95275e-14
  70
    32
  0
VERTEX
  8
0
  5
2B43
 10
-231.479
 20
-97.2980
 30
2.95373e-14
  70
    32
  0
VERTEX
  8
0
  5
2B44
 10
-231.438
 20
-97.2980
 30
2.95472e-14
  70
    32
  0
VERTEX
  8
0
  5
2B45
 10
-231.396
 20
-97.2980
 30
2.95571e-14
  70
    32
  0
VERTEX
  8
0
  5
2B46
 10
-231.355
 20
-97.2980
 30
2.95670e-14
  70
    32
  0
VERTEX
  8
0
  5
2B47
 10
-231.313
 20
-97.2980
 30
2.95770e-14
  70
    32
  0
VERTEX
  8
0
  5
2B48
 10
-231.271
 20
-97.2980
 30
2.95869e-14
  70
    32
  0
VERTEX
  8
0
  5
2B49
 10
-231.229
 20
-97.2980
 30
2.95968e-14
  70
    32
  0
VERTEX
  8
0
  5
2B4A
 10
-231.187
 20
-97.2980
 30
2.96068e-14
  70
    32
  0
VERTEX
  8
0
  5
2B4B
 10
-231.146
 20
-97.2980
 30
2.96168e-14
  70
    32
  0
VERTEX
  8
0
  5
2B4C
 10
-231.104
 20
-97.2980
 30
2.96268e-14
  70
    32
  0
VERTEX
  8
0
  5
2B4D
 10
-231.062
 20
-97.2980
 30
2.96368e-14
  70
    32
  0
VERTEX
  8
0
  5
2B4E
 10
-231.020
 20
-97.2980
 30
2.96468e-14
  70
    32
  0
VERTEX
  8
0
  5
2B4F
 10
-230.978
 20
-97.2980
 30
2.96569e-14
  70
    32
  0
VERTEX
  8
0
  5
2B50
 10
-230.935
 20
-97.2980
 30
2.96669e-14
  70
    32
  0
VERTEX
  8
0
  5
2B51
 10
-230.893
 20
-97.2980
 30
2.96770e-14
  70
    32
  0
VERTEX
  8
0
  5
2B52
 10
-230.851
 20
-97.2980
 30
2.96871e-14
  70
    32
  0
VERTEX
  8
0
  5
2B53
 10
-230.809
 20
-97.2980
 30
2.96972e-14
  70
    32
  0
VERTEX
  8
0
  5
2B54
 10
-230.767
 20
-97.2980
 30
2.97073e-14
  70
    32
  0
VERTEX
  8
0
  5
2B55
 10
-230.724
 20
-97.2980
 30
2.97174e-14
  70
    32
  0
VERTEX
  8
0
  5
2B56
 10
-230.682
 20
-97.2980
 30
2.97276e-14
  70
    32
  0
VERTEX
  8
0
  5
2B57
 10
-230.640
 20
-97.2980
 30
2.97377e-14
  70
    32
  0
VERTEX
  8
0
  5
2B58
 10
-230.597
 20
-97.2980
 30
2.97479e-14
  70
    32
  0
VERTEX
  8
0
  5
2B59
 10
-230.555
 20
-97.2980
 30
2.97581e-14
  70
    32
  0
VERTEX
  8
0
  5
2B5A
 10
-230.512
 20
-97.2980
 30
2.97683e-14
  70
    32
  0
VERTEX
  8
0
  5
2B5B
 10
-230.470
 20
-97.2980
 30
2.97785e-14
  70
    32
  0
VERTEX
  8
0
  5
2B5C
 10
-230.427
 20
-97.2980
 30
2.97888e-14
  70
    32
  0
VERTEX
  8
0
  5
2B5D
 10
-230.384
 20
-97.2980
 30
2.97990e-14
  70
    32
  0
VERTEX
  8
0
  5
2B5E
 10
-230.342
 20
-97.2980
 30
2.98093e-14
  70
    32
  0
VERTEX
  8
0
  5
2B5F
 10
-230.299
 20
-97.2980
 30
2.98196e-14
  70
    32
  0
VERTEX
  8
0
  5
2B60
 10
-230.256
 20
-97.2980
 30
2.98298e-14
  70
    32
  0
VERTEX
  8
0
  5
2B61
 10
-230.213
 20
-97.2980
 30
2.98401e-14
  70
    32
  0
VERTEX
  8
0
  5
2B62
 10
-230.170
 20
-97.2980
 30
2.98505e-14
  70
    32
  0
VERTEX
  8
0
  5
2B63
 10
-230.127
 20
-97.2980
 30
2.98608e-14
  70
    32
  0
VERTEX
  8
0
  5
2B64
 10
-230.084
 20
-97.2980
 30
2.98712e-14
  70
    32
  0
VERTEX
  8
0
  5
2B65
 10
-230.041
 20
-97.2980
 30
2.98815e-14
  70
    32
  0
VERTEX
  8
0
  5
2B66
 10
-229.998
 20
-97.2980
 30
2.98919e-14
  70
    32
  0
VERTEX
  8
0
  5
2B67
 10
-229.955
 20
-97.2980
 30
2.99023e-14
  70
    32
  0
VERTEX
  8
0
  5
2B68
 10
-229.912
 20
-97.2980
 30
2.99127e-14
  70
    32
  0
VERTEX
  8
0
  5
2B69
 10
-229.869
 20
-97.2980
 30
2.99231e-14
  70
    32
  0
VERTEX
  8
0
  5
2B6A
 10
-229.825
 20
-97.2980
 30
2.99335e-14
  70
    32
  0
VERTEX
  8
0
  5
2B6B
 10
-229.782
 20
-97.2980
 30
2.99440e-14
  70
    32
  0
VERTEX
  8
0
  5
2B6C
 10
-229.738
 20
-97.2980
 30
2.99544e-14
  70
    32
  0
VERTEX
  8
0
  5
2B6D
 10
-229.695
 20
-97.2980
 30
2.99648e-14
  70
    32
  0
VERTEX
  8
0
  5
2B6E
 10
-229.651
 20
-97.2980
 30
2.99752e-14
  70
    32
  0
VERTEX
  8
0
  5
2B6F
 10
-229.607
 20
-97.2980
 30
2.99857e-14
  70
    32
  0
VERTEX
  8
0
  5
2B70
 10
-229.563
 20
-97.2980
 30
2.99961e-14
  70
    32
  0
VERTEX
  8
0
  5
2B71
 10
-229.519
 20
-97.2980
 30
3.00065e-14
  70
    32
  0
VERTEX
  8
0
  5
2B72
 10
-229.475
 20
-97.2980
 30
3.00170e-14
  70
    32
  0
VERTEX
  8
0
  5
2B73
 10
-229.431
 20
-97.2980
 30
3.00274e-14
  70
    32
  0
VERTEX
  8
0
  5
2B74
 10
-229.386
 20
-97.2980
 30
3.00378e-14
  70
    32
  0
VERTEX
  8
0
  5
2B75
 10
-229.342
 20
-97.2980
 30
3.00483e-14
  70
    32
  0
VERTEX
  8
0
  5
2B76
 10
-229.297
 20
-97.2980
 30
3.00587e-14
  70
    32
  0
VERTEX
  8
0
  5
2B77
 10
-229.253
 20
-97.2980
 30
3.00692e-14
  70
    32
  0
VERTEX
  8
0
  5
2B78
 10
-229.208
 20
-97.2980
 30
3.00796e-14
  70
    32
  0
VERTEX
  8
0
  5
2B79
 10
-229.163
 20
-97.2980
 30
3.00901e-14
  70
    32
  0
VERTEX
  8
0
  5
2B7A
 10
-229.118
 20
-97.2980
 30
3.01006e-14
  70
    32
  0
VERTEX
  8
0
  5
2B7B
 10
-229.073
 20
-97.2980
 30
3.01110e-14
  70
    32
  0
VERTEX
  8
0
  5
2B7C
 10
-229.028
 20
-97.2980
 30
3.01215e-14
  70
    32
  0
VERTEX
  8
0
  5
2B7D
 10
-228.983
 20
-97.2980
 30
3.01320e-14
  70
    32
  0
VERTEX
  8
0
  5
2B7E
 10
-228.937
 20
-97.2980
 30
3.01425e-14
  70
    32
  0
VERTEX
  8
0
  5
2B7F
 10
-228.892
 20
-97.2980
 30
3.01529e-14
  70
    32
  0
VERTEX
  8
0
  5
2B80
 10
-228.846
 20
-97.2980
 30
3.01634e-14
  70
    32
  0
VERTEX
  8
0
  5
2B81
 10
-228.801
 20
-97.2980
 30
3.01739e-14
  70
    32
  0
VERTEX
  8
0
  5
2B82
 10
-228.755
 20
-97.2980
 30
3.01844e-14
  70
    32
  0
VERTEX
  8
0
  5
2B83
 10
-228.709
 20
-97.2980
 30
3.01949e-14
  70
    32
  0
VERTEX
  8
0
  5
2B84
 10
-228.663
 20
-97.2980
 30
3.02054e-14
  70
    32
  0
VERTEX
  8
0
  5
2B85
 10
-228.617
 20
-97.2980
 30
3.02159e-14
  70
    32
  0
VERTEX
  8
0
  5
2B86
 10
-228.571
 20
-97.2980
 30
3.02264e-14
  70
    32
  0
VERTEX
  8
0
  5
2B87
 10
-228.524
 20
-97.2980
 30
3.02369e-14
  70
    32
  0
VERTEX
  8
0
  5
2B88
 10
-228.478
 20
-97.2980
 30
3.02474e-14
  70
    32
  0
VERTEX
  8
0
  5
2B89
 10
-228.431
 20
-97.2980
 30
3.02579e-14
  70
    32
  0
VERTEX
  8
0
  5
2B8A
 10
-228.385
 20
-97.2980
 30
3.02684e-14
  70
    32
  0
VERTEX
  8
0
  5
2B8B
 10
-228.338
 20
-97.2980
 30
3.02789e-14
  70
    32
  0
VERTEX
  8
0
  5
2B8C
 10
-228.291
 20
-97.2980
 30
3.02895e-14
  70
    32
  0
VERTEX
  8
0
  5
2B8D
 10
-228.244
 20
-97.2980
 30
3.03000e-14
  70
    32
  0
VERTEX
  8
0
  5
2B8E
 10
-228.197
 20
-97.2980
 30
3.03105e-14
  70
    32
  0
VERTEX
  8
0
  5
2B8F
 10
-228.150
 20
-97.2980
 30
3.03211e-14
  70
    32
  0
VERTEX
  8
0
  5
2B90
 10
-228.102
 20
-97.2980
 30
3.03316e-14
  70
    32
  0
VERTEX
  8
0
  5
2B91
 10
-228.055
 20
-97.2980
 30
3.03421e-14
  70
    32
  0
VERTEX
  8
0
  5
2B92
 10
-228.007
 20
-97.2980
 30
3.03527e-14
  70
    32
  0
VERTEX
  8
0
  5
2B93
 10
-227.960
 20
-97.2980
 30
3.03632e-14
  70
    32
  0
VERTEX
  8
0
  5
2B94
 10
-227.912
 20
-97.2980
 30
3.03738e-14
  70
    32
  0
VERTEX
  8
0
  5
2B95
 10
-227.864
 20
-97.2980
 30
3.03844e-14
  70
    32
  0
VERTEX
  8
0
  5
2B96
 10
-227.816
 20
-97.2980
 30
3.03949e-14
  70
    32
  0
VERTEX
  8
0
  5
2B97
 10
-227.768
 20
-97.2980
 30
3.04055e-14
  70
    32
  0
VERTEX
  8
0
  5
2B98
 10
-227.720
 20
-97.2980
 30
3.04160e-14
  70
    32
  0
VERTEX
  8
0
  5
2B99
 10
-227.671
 20
-97.2980
 30
3.04266e-14
  70
    32
  0
VERTEX
  8
0
  5
2B9A
 10
-227.623
 20
-97.2980
 30
3.04372e-14
  70
    32
  0
VERTEX
  8
0
  5
2B9B
 10
-227.574
 20
-97.2980
 30
3.04478e-14
  70
    32
  0
VERTEX
  8
0
  5
2B9C
 10
-227.526
 20
-97.2980
 30
3.04584e-14
  70
    32
  0
VERTEX
  8
0
  5
2B9D
 10
-227.477
 20
-97.2980
 30
3.04689e-14
  70
    32
  0
VERTEX
  8
0
  5
2B9E
 10
-227.428
 20
-97.2980
 30
3.04795e-14
  70
    32
  0
VERTEX
  8
0
  5
2B9F
 10
-227.379
 20
-97.2980
 30
3.04901e-14
  70
    32
  0
VERTEX
  8
0
  5
2BA0
 10
-227.330
 20
-97.2980
 30
3.05007e-14
  70
    32
  0
VERTEX
  8
0
  5
2BA1
 10
-227.280
 20
-97.2980
 30
3.05113e-14
  70
    32
  0
VERTEX
  8
0
  5
2BA2
 10
-227.231
 20
-97.2980
 30
3.05219e-14
  70
    32
  0
VERTEX
  8
0
  5
2BA3
 10
-227.182
 20
-97.2980
 30
3.05326e-14
  70
    32
  0
VERTEX
  8
0
  5
2BA4
 10
-227.132
 20
-97.2980
 30
3.05432e-14
  70
    32
  0
VERTEX
  8
0
  5
2BA5
 10
-227.082
 20
-97.2980
 30
3.05538e-14
  70
    32
  0
VERTEX
  8
0
  5
2BA6
 10
-227.032
 20
-97.2980
 30
3.05644e-14
  70
    32
  0
VERTEX
  8
0
  5
2BA7
 10
-226.982
 20
-97.2980
 30
3.05750e-14
  70
    32
  0
VERTEX
  8
0
  5
2BA8
 10
-226.932
 20
-97.2980
 30
3.05857e-14
  70
    32
  0
VERTEX
  8
0
  5
2BA9
 10
-226.882
 20
-97.2980
 30
3.05963e-14
  70
    32
  0
VERTEX
  8
0
  5
2BAA
 10
-226.832
 20
-97.2980
 30
3.06070e-14
  70
    32
  0
VERTEX
  8
0
  5
2BAB
 10
-226.781
 20
-97.2980
 30
3.06176e-14
  70
    32
  0
VERTEX
  8
0
  5
2BAC
 10
-226.731
 20
-97.2980
 30
3.06282e-14
  70
    32
  0
VERTEX
  8
0
  5
2BAD
 10
-226.680
 20
-97.2980
 30
3.06389e-14
  70
    32
  0
VERTEX
  8
0
  5
2BAE
 10
-226.629
 20
-97.2980
 30
3.06496e-14
  70
    32
  0
VERTEX
  8
0
  5
2BAF
 10
-226.578
 20
-97.2980
 30
3.06602e-14
  70
    32
  0
VERTEX
  8
0
  5
2BB0
 10
-226.527
 20
-97.2980
 30
3.06709e-14
  70
    32
  0
VERTEX
  8
0
  5
2BB1
 10
-226.476
 20
-97.2980
 30
3.06816e-14
  70
    32
  0
VERTEX
  8
0
  5
2BB2
 10
-226.424
 20
-97.2980
 30
3.06922e-14
  70
    32
  0
VERTEX
  8
0
  5
2BB3
 10
-226.373
 20
-97.2980
 30
3.07029e-14
  70
    32
  0
VERTEX
  8
0
  5
2BB4
 10
-226.321
 20
-97.2980
 30
3.07136e-14
  70
    32
  0
VERTEX
  8
0
  5
2BB5
 10
-226.270
 20
-97.2980
 30
3.07243e-14
  70
    32
  0
VERTEX
  8
0
  5
2BB6
 10
-226.218
 20
-97.2980
 30
3.07350e-14
  70
    32
  0
VERTEX
  8
0
  5
2BB7
 10
-226.166
 20
-97.2980
 30
3.07457e-14
  70
    32
  0
VERTEX
  8
0
  5
2BB8
 10
-226.114
 20
-97.2980
 30
3.07564e-14
  70
    32
  0
VERTEX
  8
0
  5
2BB9
 10
-226.061
 20
-97.2980
 30
3.07671e-14
  70
    32
  0
VERTEX
  8
0
  5
2BBA
 10
-226.009
 20
-97.2980
 30
3.07778e-14
  70
    32
  0
VERTEX
  8
0
  5
2BBB
 10
-225.957
 20
-97.2980
 30
3.07885e-14
  70
    32
  0
VERTEX
  8
0
  5
2BBC
 10
-225.904
 20
-97.2980
 30
3.07992e-14
  70
    32
  0
VERTEX
  8
0
  5
2BBD
 10
-225.851
 20
-97.2980
 30
3.08099e-14
  70
    32
  0
VERTEX
  8
0
  5
2BBE
 10
-225.800
 20
-97.2980
 30
3.08203e-14
  70
    32
  0
VERTEX
  8
0
  5
2BBF
 10
-225.751
 20
-97.2980
 30
3.08303e-14
  70
    32
  0
VERTEX
  8
0
  5
2BC0
 10
-225.703
 20
-97.2980
 30
3.08399e-14
  70
    32
  0
VERTEX
  8
0
  5
2BC1
 10
-225.657
 20
-97.2980
 30
3.08491e-14
  70
    32
  0
VERTEX
  8
0
  5
2BC2
 10
-225.612
 20
-97.2980
 30
3.08580e-14
  70
    32
  0
VERTEX
  8
0
  5
2BC3
 10
-225.569
 20
-97.2980
 30
3.08666e-14
  70
    32
  0
VERTEX
  8
0
  5
2BC4
 10
-225.527
 20
-97.2980
 30
3.08748e-14
  70
    32
  0
VERTEX
  8
0
  5
2BC5
 10
-225.487
 20
-97.2979
 30
3.08827e-14
  70
    32
  0
VERTEX
  8
0
  5
2BC6
 10
-225.449
 20
-97.2979
 30
3.08902e-14
  70
    32
  0
VERTEX
  8
0
  5
2BC7
 10
-225.412
 20
-97.2979
 30
3.08975e-14
  70
    32
  0
VERTEX
  8
0
  5
2BC8
 10
-225.376
 20
-97.2979
 30
3.09044e-14
  70
    32
  0
VERTEX
  8
0
  5
2BC9
 10
-225.341
 20
-97.2978
 30
3.09111e-14
  70
    32
  0
VERTEX
  8
0
  5
2BCA
 10
-225.308
 20
-97.2978
 30
3.09175e-14
  70
    32
  0
VERTEX
  8
0
  5
2BCB
 10
-225.276
 20
-97.2978
 30
3.09236e-14
  70
    32
  0
VERTEX
  8
0
  5
2BCC
 10
-225.245
 20
-97.2978
 30
3.09294e-14
  70
    32
  0
VERTEX
  8
0
  5
2BCD
 10
-225.216
 20
-97.2978
 30
3.09350e-14
  70
    32
  0
VERTEX
  8
0
  5
2BCE
 10
-225.187
 20
-97.2978
 30
3.09403e-14
  70
    32
  0
VERTEX
  8
0
  5
2BCF
 10
-225.160
 20
-97.2978
 30
3.09454e-14
  70
    32
  0
VERTEX
  8
0
  5
2BD0
 10
-225.134
 20
-97.2978
 30
3.09502e-14
  70
    32
  0
VERTEX
  8
0
  5
2BD1
 10
-225.109
 20
-97.2978
 30
3.09549e-14
  70
    32
  0
VERTEX
  8
0
  5
2BD2
 10
-225.085
 20
-97.2978
 30
3.09593e-14
  70
    32
  0
VERTEX
  8
0
  5
2BD3
 10
-225.062
 20
-97.2978
 30
3.09635e-14
  70
    32
  0
VERTEX
  8
0
  5
2BD4
 10
-225.040
 20
-97.2979
 30
3.09675e-14
  70
    32
  0
VERTEX
  8
0
  5
2BD5
 10
-225.018
 20
-97.2979
 30
3.09713e-14
  70
    32
  0
VERTEX
  8
0
  5
2BD6
 10
-224.998
 20
-97.2980
 30
3.09750e-14
  70
    32
  0
VERTEX
  8
0
  5
2BD7
 10
-224.978
 20
-97.2980
 30
3.09785e-14
  70
    32
  0
VERTEX
  8
0
  5
2BD8
 10
-224.960
 20
-97.2981
 30
3.09818e-14
  70
    32
  0
VERTEX
  8
0
  5
2BD9
 10
-224.942
 20
-97.2982
 30
3.09850e-14
  70
    32
  0
VERTEX
  8
0
  5
2BDA
 10
-224.924
 20
-97.2982
 30
3.09880e-14
  70
    32
  0
VERTEX
  8
0
  5
2BDB
 10
-224.908
 20
-97.2983
 30
3.09909e-14
  70
    32
  0
VERTEX
  8
0
  5
2BDC
 10
-224.892
 20
-97.2985
 30
3.09936e-14
  70
    32
  0
VERTEX
  8
0
  5
2BDD
 10
-224.877
 20
-97.2986
 30
3.09963e-14
  70
    32
  0
VERTEX
  8
0
  5
2BDE
 10
-224.862
 20
-97.2987
 30
3.09988e-14
  70
    32
  0
VERTEX
  8
0
  5
2BDF
 10
-224.848
 20
-97.2989
 30
3.10013e-14
  70
    32
  0
VERTEX
  8
0
  5
2BE0
 10
-224.834
 20
-97.2990
 30
3.10037e-14
  70
    32
  0
VERTEX
  8
0
  5
2BE1
 10
-224.821
 20
-97.2992
 30
3.10059e-14
  70
    32
  0
VERTEX
  8
0
  5
2BE2
 10
-224.808
 20
-97.2994
 30
3.10081e-14
  70
    32
  0
VERTEX
  8
0
  5
2BE3
 10
-224.796
 20
-97.2996
 30
3.10103e-14
  70
    32
  0
VERTEX
  8
0
  5
2BE4
 10
-224.784
 20
-97.2998
 30
3.10124e-14
  70
    32
  0
VERTEX
  8
0
  5
2BE5
 10
-224.772
 20
-97.3001
 30
3.10144e-14
  70
    32
  0
VERTEX
  8
0
  5
2BE6
 10
-224.761
 20
-97.3003
 30
3.10164e-14
  70
    32
  0
VERTEX
  8
0
  5
2BE7
 10
-224.750
 20
-97.3006
 30
3.10184e-14
  70
    32
  0
VERTEX
  8
0
  5
2BE8
 10
-224.739
 20
-97.3009
 30
3.10204e-14
  70
    32
  0
VERTEX
  8
0
  5
2BE9
 10
-224.728
 20
-97.3012
 30
3.10223e-14
  70
    32
  0
VERTEX
  8
0
  5
2BEA
 10
-224.717
 20
-97.3015
 30
3.10243e-14
  70
    32
  0
VERTEX
  8
0
  5
2BEB
 10
-224.707
 20
-97.3019
 30
3.10262e-14
  70
    32
  0
VERTEX
  8
0
  5
2BEC
 10
-224.697
 20
-97.3022
 30
3.10282e-14
  70
    32
  0
VERTEX
  8
0
  5
2BED
 10
-224.686
 20
-97.3026
 30
3.10302e-14
  70
    32
  0
VERTEX
  8
0
  5
2BEE
 10
-224.676
 20
-97.3030
 30
3.10323e-14
  70
    32
  0
VERTEX
  8
0
  5
2BEF
 10
-224.666
 20
-97.3035
 30
3.10343e-14
  70
    32
  0
VERTEX
  8
0
  5
2BF0
 10
-224.655
 20
-97.3039
 30
3.10365e-14
  70
    32
  0
VERTEX
  8
0
  5
2BF1
 10
-224.645
 20
-97.3044
 30
3.10387e-14
  70
    32
  0
VERTEX
  8
0
  5
2BF2
 10
-224.634
 20
-97.3049
 30
3.10409e-14
  70
    32
  0
VERTEX
  8
0
  5
2BF3
 10
-224.623
 20
-97.3054
 30
3.10433e-14
  70
    32
  0
VERTEX
  8
0
  5
2BF4
 10
-224.613
 20
-97.3060
 30
3.10457e-14
  70
    32
  0
VERTEX
  8
0
  5
2BF5
 10
-224.602
 20
-97.3066
 30
3.10480e-14
  70
    32
  0
VERTEX
  8
0
  5
2BF6
 10
-224.591
 20
-97.3072
 30
3.10504e-14
  70
    32
  0
VERTEX
  8
0
  5
2BF7
 10
-224.580
 20
-97.3078
 30
3.10529e-14
  70
    32
  0
VERTEX
  8
0
  5
2BF8
 10
-224.569
 20
-97.3084
 30
3.10553e-14
  70
    32
  0
VERTEX
  8
0
  5
2BF9
 10
-224.558
 20
-97.3091
 30
3.10577e-14
  70
    32
  0
VERTEX
  8
0
  5
2BFA
 10
-224.547
 20
-97.3097
 30
3.10601e-14
  70
    32
  0
VERTEX
  8
0
  5
2BFB
 10
-224.536
 20
-97.3104
 30
3.10626e-14
  70
    32
  0
VERTEX
  8
0
  5
2BFC
 10
-224.525
 20
-97.3111
 30
3.10650e-14
  70
    32
  0
VERTEX
  8
0
  5
2BFD
 10
-224.514
 20
-97.3119
 30
3.10674e-14
  70
    32
  0
VERTEX
  8
0
  5
2BFE
 10
-224.503
 20
-97.3126
 30
3.10699e-14
  70
    32
  0
VERTEX
  8
0
  5
2BFF
 10
-224.492
 20
-97.3134
 30
3.10723e-14
  70
    32
  0
VERTEX
  8
0
  5
2C00
 10
-224.481
 20
-97.3142
 30
3.10748e-14
  70
    32
  0
VERTEX
  8
0
  5
2C01
 10
-224.470
 20
-97.3150
 30
3.10773e-14
  70
    32
  0
VERTEX
  8
0
  5
2C02
 10
-224.459
 20
-97.3158
 30
3.10798e-14
  70
    32
  0
VERTEX
  8
0
  5
2C03
 10
-224.448
 20
-97.3167
 30
3.10822e-14
  70
    32
  0
VERTEX
  8
0
  5
2C04
 10
-224.437
 20
-97.3176
 30
3.10847e-14
  70
    32
  0
VERTEX
  8
0
  5
2C05
 10
-224.426
 20
-97.3185
 30
3.10872e-14
  70
    32
  0
VERTEX
  8
0
  5
2C06
 10
-224.415
 20
-97.3194
 30
3.10897e-14
  70
    32
  0
VERTEX
  8
0
  5
2C07
 10
-224.404
 20
-97.3203
 30
3.10922e-14
  70
    32
  0
VERTEX
  8
0
  5
2C08
 10
-224.393
 20
-97.3213
 30
3.10947e-14
  70
    32
  0
VERTEX
  8
0
  5
2C09
 10
-224.382
 20
-97.3223
 30
3.10972e-14
  70
    32
  0
VERTEX
  8
0
  5
2C0A
 10
-224.371
 20
-97.3233
 30
3.10998e-14
  70
    32
  0
VERTEX
  8
0
  5
2C0B
 10
-224.359
 20
-97.3243
 30
3.11023e-14
  70
    32
  0
VERTEX
  8
0
  5
2C0C
 10
-224.348
 20
-97.3253
 30
3.11048e-14
  70
    32
  0
VERTEX
  8
0
  5
2C0D
 10
-224.337
 20
-97.3264
 30
3.11073e-14
  70
    32
  0
VERTEX
  8
0
  5
2C0E
 10
-224.326
 20
-97.3275
 30
3.11099e-14
  70
    32
  0
VERTEX
  8
0
  5
2C0F
 10
-224.315
 20
-97.3286
 30
3.11124e-14
  70
    32
  0
VERTEX
  8
0
  5
2C10
 10
-224.304
 20
-97.3297
 30
3.11150e-14
  70
    32
  0
VERTEX
  8
0
  5
2C11
 10
-224.293
 20
-97.3309
 30
3.11175e-14
  70
    32
  0
VERTEX
  8
0
  5
2C12
 10
-224.282
 20
-97.3320
 30
3.11201e-14
  70
    32
  0
VERTEX
  8
0
  5
2C13
 10
-224.270
 20
-97.3332
 30
3.11227e-14
  70
    32
  0
VERTEX
  8
0
  5
2C14
 10
-224.259
 20
-97.3345
 30
3.11252e-14
  70
    32
  0
VERTEX
  8
0
  5
2C15
 10
-224.248
 20
-97.3357
 30
3.11278e-14
  70
    32
  0
VERTEX
  8
0
  5
2C16
 10
-224.237
 20
-97.3370
 30
3.11304e-14
  70
    32
  0
VERTEX
  8
0
  5
2C17
 10
-224.226
 20
-97.3383
 30
3.11330e-14
  70
    32
  0
VERTEX
  8
0
  5
2C18
 10
-224.214
 20
-97.3396
 30
3.11355e-14
  70
    32
  0
VERTEX
  8
0
  5
2C19
 10
-224.203
 20
-97.3409
 30
3.11381e-14
  70
    32
  0
VERTEX
  8
0
  5
2C1A
 10
-224.192
 20
-97.3422
 30
3.11407e-14
  70
    32
  0
VERTEX
  8
0
  5
2C1B
 10
-224.181
 20
-97.3436
 30
3.11433e-14
  70
    32
  0
VERTEX
  8
0
  5
2C1C
 10
-224.170
 20
-97.3450
 30
3.11459e-14
  70
    32
  0
VERTEX
  8
0
  5
2C1D
 10
-224.158
 20
-97.3464
 30
3.11485e-14
  70
    32
  0
VERTEX
  8
0
  5
2C1E
 10
-224.147
 20
-97.3479
 30
3.11512e-14
  70
    32
  0
VERTEX
  8
0
  5
2C1F
 10
-224.136
 20
-97.3493
 30
3.11538e-14
  70
    32
  0
VERTEX
  8
0
  5
2C20
 10
-224.124
 20
-97.3508
 30
3.11564e-14
  70
    32
  0
VERTEX
  8
0
  5
2C21
 10
-224.113
 20
-97.3523
 30
3.11590e-14
  70
    32
  0
VERTEX
  8
0
  5
2C22
 10
-224.102
 20
-97.3539
 30
3.11617e-14
  70
    32
  0
VERTEX
  8
0
  5
2C23
 10
-224.091
 20
-97.3554
 30
3.11643e-14
  70
    32
  0
VERTEX
  8
0
  5
2C24
 10
-224.079
 20
-97.3570
 30
3.11669e-14
  70
    32
  0
VERTEX
  8
0
  5
2C25
 10
-224.068
 20
-97.3586
 30
3.11696e-14
  70
    32
  0
VERTEX
  8
0
  5
2C26
 10
-224.057
 20
-97.3602
 30
3.11722e-14
  70
    32
  0
VERTEX
  8
0
  5
2C27
 10
-224.045
 20
-97.3619
 30
3.11748e-14
  70
    32
  0
VERTEX
  8
0
  5
2C28
 10
-224.034
 20
-97.3635
 30
3.11775e-14
  70
    32
  0
VERTEX
  8
0
  5
2C29
 10
-224.023
 20
-97.3652
 30
3.11802e-14
  70
    32
  0
VERTEX
  8
0
  5
2C2A
 10
-224.011
 20
-97.3669
 30
3.11828e-14
  70
    32
  0
VERTEX
  8
0
  5
2C2B
 10
-224.000
 20
-97.3687
 30
3.11855e-14
  70
    32
  0
VERTEX
  8
0
  5
2C2C
 10
-223.989
 20
-97.3704
 30
3.11881e-14
  70
    32
  0
VERTEX
  8
0
  5
2C2D
 10
-223.977
 20
-97.3722
 30
3.11908e-14
  70
    32
  0
VERTEX
  8
0
  5
2C2E
 10
-223.966
 20
-97.3740
 30
3.11935e-14
  70
    32
  0
VERTEX
  8
0
  5
2C2F
 10
-223.955
 20
-97.3759
 30
3.11961e-14
  70
    32
  0
VERTEX
  8
0
  5
2C30
 10
-223.943
 20
-97.3777
 30
3.11988e-14
  70
    32
  0
VERTEX
  8
0
  5
2C31
 10
-223.932
 20
-97.3796
 30
3.12015e-14
  70
    32
  0
VERTEX
  8
0
  5
2C32
 10
-223.920
 20
-97.3815
 30
3.12042e-14
  70
    32
  0
VERTEX
  8
0
  5
2C33
 10
-223.909
 20
-97.3835
 30
3.12069e-14
  70
    32
  0
VERTEX
  8
0
  5
2C34
 10
-223.898
 20
-97.3854
 30
3.12095e-14
  70
    32
  0
VERTEX
  8
0
  5
2C35
 10
-223.886
 20
-97.3874
 30
3.12122e-14
  70
    32
  0
VERTEX
  8
0
  5
2C36
 10
-223.875
 20
-97.3894
 30
3.12149e-14
  70
    32
  0
VERTEX
  8
0
  5
2C37
 10
-223.863
 20
-97.3914
 30
3.12176e-14
  70
    32
  0
VERTEX
  8
0
  5
2C38
 10
-223.852
 20
-97.3935
 30
3.12203e-14
  70
    32
  0
VERTEX
  8
0
  5
2C39
 10
-223.840
 20
-97.3955
 30
3.12230e-14
  70
    32
  0
VERTEX
  8
0
  5
2C3A
 10
-223.829
 20
-97.3976
 30
3.12257e-14
  70
    32
  0
VERTEX
  8
0
  5
2C3B
 10
-223.817
 20
-97.3998
 30
3.12284e-14
  70
    32
  0
VERTEX
  8
0
  5
2C3C
 10
-223.806
 20
-97.4019
 30
3.12311e-14
  70
    32
  0
VERTEX
  8
0
  5
2C3D
 10
-223.794
 20
-97.4041
 30
3.12338e-14
  70
    32
  0
VERTEX
  8
0
  5
2C3E
 10
-223.783
 20
-97.4063
 30
3.12366e-14
  70
    32
  0
VERTEX
  8
0
  5
2C3F
 10
-223.771
 20
-97.4085
 30
3.12393e-14
  70
    32
  0
VERTEX
  8
0
  5
2C40
 10
-223.760
 20
-97.4108
 30
3.12420e-14
  70
    32
  0
VERTEX
  8
0
  5
2C41
 10
-223.748
 20
-97.4130
 30
3.12447e-14
  70
    32
  0
VERTEX
  8
0
  5
2C42
 10
-223.737
 20
-97.4153
 30
3.12474e-14
  70
    32
  0
VERTEX
  8
0
  5
2C43
 10
-223.725
 20
-97.4176
 30
3.12501e-14
  70
    32
  0
VERTEX
  8
0
  5
2C44
 10
-223.714
 20
-97.4200
 30
3.12529e-14
  70
    32
  0
VERTEX
  8
0
  5
2C45
 10
-223.702
 20
-97.4224
 30
3.12556e-14
  70
    32
  0
VERTEX
  8
0
  5
2C46
 10
-223.691
 20
-97.4248
 30
3.12583e-14
  70
    32
  0
VERTEX
  8
0
  5
2C47
 10
-223.679
 20
-97.4272
 30
3.12610e-14
  70
    32
  0
VERTEX
  8
0
  5
2C48
 10
-223.668
 20
-97.4296
 30
3.12638e-14
  70
    32
  0
VERTEX
  8
0
  5
2C49
 10
-223.656
 20
-97.4321
 30
3.12665e-14
  70
    32
  0
VERTEX
  8
0
  5
2C4A
 10
-223.645
 20
-97.4346
 30
3.12692e-14
  70
    32
  0
VERTEX
  8
0
  5
2C4B
 10
-223.633
 20
-97.4371
 30
3.12720e-14
  70
    32
  0
VERTEX
  8
0
  5
2C4C
 10
-223.621
 20
-97.4397
 30
3.12747e-14
  70
    32
  0
VERTEX
  8
0
  5
2C4D
 10
-223.610
 20
-97.4423
 30
3.12774e-14
  70
    32
  0
VERTEX
  8
0
  5
2C4E
 10
-223.598
 20
-97.4449
 30
3.12802e-14
  70
    32
  0
VERTEX
  8
0
  5
2C4F
 10
-223.587
 20
-97.4475
 30
3.12829e-14
  70
    32
  0
VERTEX
  8
0
  5
2C50
 10
-223.575
 20
-97.4501
 30
3.12856e-14
  70
    32
  0
VERTEX
  8
0
  5
2C51
 10
-223.564
 20
-97.4528
 30
3.12884e-14
  70
    32
  0
VERTEX
  8
0
  5
2C52
 10
-223.552
 20
-97.4555
 30
3.12911e-14
  70
    32
  0
VERTEX
  8
0
  5
2C53
 10
-223.540
 20
-97.4583
 30
3.12939e-14
  70
    32
  0
VERTEX
  8
0
  5
2C54
 10
-223.529
 20
-97.4610
 30
3.12966e-14
  70
    32
  0
VERTEX
  8
0
  5
2C55
 10
-223.517
 20
-97.4638
 30
3.12993e-14
  70
    32
  0
VERTEX
  8
0
  5
2C56
 10
-223.505
 20
-97.4666
 30
3.13021e-14
  70
    32
  0
VERTEX
  8
0
  5
2C57
 10
-223.494
 20
-97.4695
 30
3.13048e-14
  70
    32
  0
VERTEX
  8
0
  5
2C58
 10
-223.482
 20
-97.4723
 30
3.13076e-14
  70
    32
  0
VERTEX
  8
0
  5
2C59
 10
-223.470
 20
-97.4752
 30
3.13103e-14
  70
    32
  0
VERTEX
  8
0
  5
2C5A
 10
-223.459
 20
-97.4781
 30
3.13131e-14
  70
    32
  0
VERTEX
  8
0
  5
2C5B
 10
-223.447
 20
-97.4811
 30
3.13158e-14
  70
    32
  0
VERTEX
  8
0
  5
2C5C
 10
-223.435
 20
-97.4840
 30
3.13186e-14
  70
    32
  0
VERTEX
  8
0
  5
2C5D
 10
-223.424
 20
-97.4870
 30
3.13213e-14
  70
    32
  0
VERTEX
  8
0
  5
2C5E
 10
-223.412
 20
-97.4901
 30
3.13241e-14
  70
    32
  0
VERTEX
  8
0
  5
2C5F
 10
-223.400
 20
-97.4931
 30
3.13268e-14
  70
    32
  0
VERTEX
  8
0
  5
2C60
 10
-223.389
 20
-97.4962
 30
3.13295e-14
  70
    32
  0
VERTEX
  8
0
  5
2C61
 10
-223.377
 20
-97.4993
 30
3.13323e-14
  70
    32
  0
VERTEX
  8
0
  5
2C62
 10
-223.365
 20
-97.5024
 30
3.13350e-14
  70
    32
  0
VERTEX
  8
0
  5
2C63
 10
-223.354
 20
-97.5056
 30
3.13378e-14
  70
    32
  0
VERTEX
  8
0
  5
2C64
 10
-223.342
 20
-97.5088
 30
3.13405e-14
  70
    32
  0
VERTEX
  8
0
  5
2C65
 10
-223.330
 20
-97.5120
 30
3.13433e-14
  70
    32
  0
VERTEX
  8
0
  5
2C66
 10
-223.318
 20
-97.5152
 30
3.13460e-14
  70
    32
  0
VERTEX
  8
0
  5
2C67
 10
-223.307
 20
-97.5185
 30
3.13488e-14
  70
    32
  0
VERTEX
  8
0
  5
2C68
 10
-223.295
 20
-97.5218
 30
3.13515e-14
  70
    32
  0
VERTEX
  8
0
  5
2C69
 10
-223.283
 20
-97.5251
 30
3.13543e-14
  70
    32
  0
VERTEX
  8
0
  5
2C6A
 10
-223.272
 20
-97.5285
 30
3.13570e-14
  70
    32
  0
VERTEX
  8
0
  5
2C6B
 10
-223.260
 20
-97.5318
 30
3.13597e-14
  70
    32
  0
VERTEX
  8
0
  5
2C6C
 10
-223.248
 20
-97.5353
 30
3.13625e-14
  70
    32
  0
VERTEX
  8
0
  5
2C6D
 10
-223.236
 20
-97.5387
 30
3.13652e-14
  70
    32
  0
VERTEX
  8
0
  5
2C6E
 10
-223.224
 20
-97.5421
 30
3.13680e-14
  70
    32
  0
VERTEX
  8
0
  5
2C6F
 10
-223.213
 20
-97.5456
 30
3.13707e-14
  70
    32
  0
VERTEX
  8
0
  5
2C70
 10
-223.201
 20
-97.5492
 30
3.13734e-14
  70
    32
  0
VERTEX
  8
0
  5
2C71
 10
-223.189
 20
-97.5527
 30
3.13762e-14
  70
    32
  0
VERTEX
  8
0
  5
2C72
 10
-223.177
 20
-97.5563
 30
3.13789e-14
  70
    32
  0
VERTEX
  8
0
  5
2C73
 10
-223.166
 20
-97.5599
 30
3.13816e-14
  70
    32
  0
VERTEX
  8
0
  5
2C74
 10
-223.154
 20
-97.5635
 30
3.13844e-14
  70
    32
  0
VERTEX
  8
0
  5
2C75
 10
-223.142
 20
-97.5672
 30
3.13871e-14
  70
    32
  0
VERTEX
  8
0
  5
2C76
 10
-223.130
 20
-97.5709
 30
3.13898e-14
  70
    32
  0
VERTEX
  8
0
  5
2C77
 10
-223.118
 20
-97.5746
 30
3.13926e-14
  70
    32
  0
VERTEX
  8
0
  5
2C78
 10
-223.107
 20
-97.5783
 30
3.13953e-14
  70
    32
  0
VERTEX
  8
0
  5
2C79
 10
-223.095
 20
-97.5821
 30
3.13980e-14
  70
    32
  0
VERTEX
  8
0
  5
2C7A
 10
-223.083
 20
-97.5859
 30
3.14008e-14
  70
    32
  0
VERTEX
  8
0
  5
2C7B
 10
-223.071
 20
-97.5897
 30
3.14035e-14
  70
    32
  0
VERTEX
  8
0
  5
2C7C
 10
-223.059
 20
-97.5936
 30
3.14062e-14
  70
    32
  0
VERTEX
  8
0
  5
2C7D
 10
-223.047
 20
-97.5975
 30
3.14089e-14
  70
    32
  0
VERTEX
  8
0
  5
2C7E
 10
-223.036
 20
-97.6014
 30
3.14116e-14
  70
    32
  0
VERTEX
  8
0
  5
2C7F
 10
-223.024
 20
-97.6053
 30
3.14144e-14
  70
    32
  0
VERTEX
  8
0
  5
2C80
 10
-223.012
 20
-97.6093
 30
3.14171e-14
  70
    32
  0
VERTEX
  8
0
  5
2C81
 10
-223.000
 20
-97.6133
 30
3.14198e-14
  70
    32
  0
VERTEX
  8
0
  5
2C82
 10
-222.988
 20
-97.6174
 30
3.14225e-14
  70
    32
  0
VERTEX
  8
0
  5
2C83
 10
-222.976
 20
-97.6214
 30
3.14252e-14
  70
    32
  0
VERTEX
  8
0
  5
2C84
 10
-222.964
 20
-97.6255
 30
3.14279e-14
  70
    32
  0
VERTEX
  8
0
  5
2C85
 10
-222.953
 20
-97.6296
 30
3.14306e-14
  70
    32
  0
VERTEX
  8
0
  5
2C86
 10
-222.941
 20
-97.6338
 30
3.14333e-14
  70
    32
  0
VERTEX
  8
0
  5
2C87
 10
-222.929
 20
-97.6380
 30
3.14360e-14
  70
    32
  0
VERTEX
  8
0
  5
2C88
 10
-222.917
 20
-97.6422
 30
3.14387e-14
  70
    32
  0
VERTEX
  8
0
  5
2C89
 10
-222.905
 20
-97.6464
 30
3.14414e-14
  70
    32
  0
VERTEX
  8
0
  5
2C8A
 10
-222.893
 20
-97.6507
 30
3.14441e-14
  70
    32
  0
VERTEX
  8
0
  5
2C8B
 10
-222.881
 20
-97.6550
 30
3.14468e-14
  70
    32
  0
VERTEX
  8
0
  5
2C8C
 10
-222.869
 20
-97.6593
 30
3.14495e-14
  70
    32
  0
VERTEX
  8
0
  5
2C8D
 10
-222.857
 20
-97.6637
 30
3.14522e-14
  70
    32
  0
VERTEX
  8
0
  5
2C8E
 10
-222.846
 20
-97.6681
 30
3.14548e-14
  70
    32
  0
VERTEX
  8
0
  5
2C8F
 10
-222.834
 20
-97.6725
 30
3.14575e-14
  70
    32
  0
VERTEX
  8
0
  5
2C90
 10
-222.822
 20
-97.6770
 30
3.14602e-14
  70
    32
  0
VERTEX
  8
0
  5
2C91
 10
-222.810
 20
-97.6814
 30
3.14629e-14
  70
    32
  0
VERTEX
  8
0
  5
2C92
 10
-222.798
 20
-97.6860
 30
3.14655e-14
  70
    32
  0
VERTEX
  8
0
  5
2C93
 10
-222.786
 20
-97.6905
 30
3.14682e-14
  70
    32
  0
VERTEX
  8
0
  5
2C94
 10
-222.774
 20
-97.6951
 30
3.14709e-14
  70
    32
  0
VERTEX
  8
0
  5
2C95
 10
-222.762
 20
-97.6997
 30
3.14735e-14
  70
    32
  0
VERTEX
  8
0
  5
2C96
 10
-222.750
 20
-97.7043
 30
3.14762e-14
  70
    32
  0
VERTEX
  8
0
  5
2C97
 10
-222.738
 20
-97.7090
 30
3.14788e-14
  70
    32
  0
VERTEX
  8
0
  5
2C98
 10
-222.726
 20
-97.7137
 30
3.14815e-14
  70
    32
  0
VERTEX
  8
0
  5
2C99
 10
-222.714
 20
-97.7184
 30
3.14841e-14
  70
    32
  0
VERTEX
  8
0
  5
2C9A
 10
-222.702
 20
-97.7232
 30
3.14868e-14
  70
    32
  0
VERTEX
  8
0
  5
2C9B
 10
-222.690
 20
-97.7279
 30
3.14894e-14
  70
    32
  0
VERTEX
  8
0
  5
2C9C
 10
-222.678
 20
-97.7328
 30
3.14920e-14
  70
    32
  0
VERTEX
  8
0
  5
2C9D
 10
-222.666
 20
-97.7376
 30
3.14947e-14
  70
    32
  0
VERTEX
  8
0
  5
2C9E
 10
-222.655
 20
-97.7425
 30
3.14973e-14
  70
    32
  0
VERTEX
  8
0
  5
2C9F
 10
-222.643
 20
-97.7474
 30
3.14999e-14
  70
    32
  0
VERTEX
  8
0
  5
2CA0
 10
-222.631
 20
-97.7524
 30
3.15025e-14
  70
    32
  0
VERTEX
  8
0
  5
2CA1
 10
-222.619
 20
-97.7573
 30
3.15052e-14
  70
    32
  0
VERTEX
  8
0
  5
2CA2
 10
-222.607
 20
-97.7623
 30
3.15078e-14
  70
    32
  0
VERTEX
  8
0
  5
2CA3
 10
-222.595
 20
-97.7674
 30
3.15104e-14
  70
    32
  0
VERTEX
  8
0
  5
2CA4
 10
-222.583
 20
-97.7724
 30
3.15130e-14
  70
    32
  0
VERTEX
  8
0
  5
2CA5
 10
-222.571
 20
-97.7775
 30
3.15156e-14
  70
    32
  0
VERTEX
  8
0
  5
2CA6
 10
-222.559
 20
-97.7827
 30
3.15182e-14
  70
    32
  0
VERTEX
  8
0
  5
2CA7
 10
-222.547
 20
-97.7878
 30
3.15208e-14
  70
    32
  0
VERTEX
  8
0
  5
2CA8
 10
-222.535
 20
-97.7930
 30
3.15234e-14
  70
    32
  0
VERTEX
  8
0
  5
2CA9
 10
-222.523
 20
-97.7983
 30
3.15259e-14
  70
    32
  0
VERTEX
  8
0
  5
2CAA
 10
-222.511
 20
-97.8035
 30
3.15285e-14
  70
    32
  0
VERTEX
  8
0
  5
2CAB
 10
-222.499
 20
-97.8088
 30
3.15311e-14
  70
    32
  0
VERTEX
  8
0
  5
2CAC
 10
-222.487
 20
-97.8141
 30
3.15337e-14
  70
    32
  0
VERTEX
  8
0
  5
2CAD
 10
-222.475
 20
-97.8195
 30
3.15362e-14
  70
    32
  0
VERTEX
  8
0
  5
2CAE
 10
-222.463
 20
-97.8249
 30
3.15388e-14
  70
    32
  0
VERTEX
  8
0
  5
2CAF
 10
-222.451
 20
-97.8303
 30
3.15413e-14
  70
    32
  0
VERTEX
  8
0
  5
2CB0
 10
-222.439
 20
-97.8358
 30
3.15439e-14
  70
    32
  0
VERTEX
  8
0
  5
2CB1
 10
-222.427
 20
-97.8413
 30
3.15464e-14
  70
    32
  0
VERTEX
  8
0
  5
2CB2
 10
-222.415
 20
-97.8468
 30
3.15490e-14
  70
    32
  0
VERTEX
  8
0
  5
2CB3
 10
-222.403
 20
-97.8523
 30
3.15515e-14
  70
    32
  0
VERTEX
  8
0
  5
2CB4
 10
-222.391
 20
-97.8579
 30
3.15540e-14
  70
    32
  0
VERTEX
  8
0
  5
2CB5
 10
-222.379
 20
-97.8635
 30
3.15565e-14
  70
    32
  0
VERTEX
  8
0
  5
2CB6
 10
-222.366
 20
-97.8692
 30
3.15591e-14
  70
    32
  0
VERTEX
  8
0
  5
2CB7
 10
-222.354
 20
-97.8749
 30
3.15616e-14
  70
    32
  0
VERTEX
  8
0
  5
2CB8
 10
-222.342
 20
-97.8806
 30
3.15641e-14
  70
    32
  0
VERTEX
  8
0
  5
2CB9
 10
-222.330
 20
-97.8863
 30
3.15666e-14
  70
    32
  0
VERTEX
  8
0
  5
2CBA
 10
-222.318
 20
-97.8921
 30
3.15691e-14
  70
    32
  0
VERTEX
  8
0
  5
2CBB
 10
-222.306
 20
-97.8979
 30
3.15717e-14
  70
    32
  0
VERTEX
  8
0
  5
2CBC
 10
-222.294
 20
-97.9038
 30
3.15742e-14
  70
    32
  0
VERTEX
  8
0
  5
2CBD
 10
-222.282
 20
-97.9096
 30
3.15768e-14
  70
    32
  0
VERTEX
  8
0
  5
2CBE
 10
-222.270
 20
-97.9155
 30
3.15793e-14
  70
    32
  0
VERTEX
  8
0
  5
2CBF
 10
-222.258
 20
-97.9215
 30
3.15819e-14
  70
    32
  0
VERTEX
  8
0
  5
2CC0
 10
-222.246
 20
-97.9275
 30
3.15845e-14
  70
    32
  0
VERTEX
  8
0
  5
2CC1
 10
-222.234
 20
-97.9335
 30
3.15872e-14
  70
    32
  0
VERTEX
  8
0
  5
2CC2
 10
-222.222
 20
-97.9395
 30
3.15898e-14
  70
    32
  0
VERTEX
  8
0
  5
2CC3
 10
-222.210
 20
-97.9456
 30
3.15924e-14
  70
    32
  0
VERTEX
  8
0
  5
2CC4
 10
-222.198
 20
-97.9517
 30
3.15951e-14
  70
    32
  0
VERTEX
  8
0
  5
2CC5
 10
-222.186
 20
-97.9579
 30
3.15978e-14
  70
    32
  0
VERTEX
  8
0
  5
2CC6
 10
-222.174
 20
-97.9640
 30
3.16004e-14
  70
    32
  0
VERTEX
  8
0
  5
2CC7
 10
-222.162
 20
-97.9702
 30
3.16031e-14
  70
    32
  0
VERTEX
  8
0
  5
2CC8
 10
-222.150
 20
-97.9765
 30
3.16058e-14
  70
    32
  0
VERTEX
  8
0
  5
2CC9
 10
-222.138
 20
-97.9828
 30
3.16086e-14
  70
    32
  0
VERTEX
  8
0
  5
2CCA
 10
-222.126
 20
-97.9891
 30
3.16113e-14
  70
    32
  0
VERTEX
  8
0
  5
2CCB
 10
-222.114
 20
-97.9954
 30
3.16140e-14
  70
    32
  0
VERTEX
  8
0
  5
2CCC
 10
-222.102
 20
-98.0018
 30
3.16168e-14
  70
    32
  0
VERTEX
  8
0
  5
2CCD
 10
-222.089
 20
-98.0082
 30
3.16195e-14
  70
    32
  0
VERTEX
  8
0
  5
2CCE
 10
-222.077
 20
-98.0147
 30
3.16223e-14
  70
    32
  0
VERTEX
  8
0
  5
2CCF
 10
-222.065
 20
-98.0212
 30
3.16251e-14
  70
    32
  0
VERTEX
  8
0
  5
2CD0
 10
-222.053
 20
-98.0277
 30
3.16279e-14
  70
    32
  0
VERTEX
  8
0
  5
2CD1
 10
-222.041
 20
-98.0342
 30
3.16307e-14
  70
    32
  0
VERTEX
  8
0
  5
2CD2
 10
-222.029
 20
-98.0408
 30
3.16335e-14
  70
    32
  0
VERTEX
  8
0
  5
2CD3
 10
-222.017
 20
-98.0475
 30
3.16363e-14
  70
    32
  0
VERTEX
  8
0
  5
2CD4
 10
-222.005
 20
-98.0541
 30
3.16391e-14
  70
    32
  0
VERTEX
  8
0
  5
2CD5
 10
-221.993
 20
-98.0608
 30
3.16419e-14
  70
    32
  0
VERTEX
  8
0
  5
2CD6
 10
-221.981
 20
-98.0675
 30
3.16448e-14
  70
    32
  0
VERTEX
  8
0
  5
2CD7
 10
-221.969
 20
-98.0743
 30
3.16476e-14
  70
    32
  0
VERTEX
  8
0
  5
2CD8
 10
-221.957
 20
-98.0811
 30
3.16505e-14
  70
    32
  0
VERTEX
  8
0
  5
2CD9
 10
-221.945
 20
-98.0879
 30
3.16534e-14
  70
    32
  0
VERTEX
  8
0
  5
2CDA
 10
-221.933
 20
-98.0948
 30
3.16562e-14
  70
    32
  0
VERTEX
  8
0
  5
2CDB
 10
-221.921
 20
-98.1017
 30
3.16591e-14
  70
    32
  0
VERTEX
  8
0
  5
2CDC
 10
-221.909
 20
-98.1087
 30
3.16620e-14
  70
    32
  0
VERTEX
  8
0
  5
2CDD
 10
-221.897
 20
-98.1156
 30
3.16649e-14
  70
    32
  0
VERTEX
  8
0
  5
2CDE
 10
-221.885
 20
-98.1227
 30
3.16678e-14
  70
    32
  0
VERTEX
  8
0
  5
2CDF
 10
-221.873
 20
-98.1297
 30
3.16707e-14
  70
    32
  0
VERTEX
  8
0
  5
2CE0
 10
-221.861
 20
-98.1368
 30
3.16736e-14
  70
    32
  0
VERTEX
  8
0
  5
2CE1
 10
-221.849
 20
-98.1439
 30
3.16766e-14
  70
    32
  0
VERTEX
  8
0
  5
2CE2
 10
-221.837
 20
-98.1511
 30
3.16795e-14
  70
    32
  0
VERTEX
  8
0
  5
2CE3
 10
-221.825
 20
-98.1583
 30
3.16824e-14
  70
    32
  0
VERTEX
  8
0
  5
2CE4
 10
-221.813
 20
-98.1655
 30
3.16854e-14
  70
    32
  0
VERTEX
  8
0
  5
2CE5
 10
-221.801
 20
-98.1728
 30
3.16883e-14
  70
    32
  0
VERTEX
  8
0
  5
2CE6
 10
-221.789
 20
-98.1801
 30
3.16913e-14
  70
    32
  0
VERTEX
  8
0
  5
2CE7
 10
-221.777
 20
-98.1874
 30
3.16942e-14
  70
    32
  0
VERTEX
  8
0
  5
2CE8
 10
-221.765
 20
-98.1948
 30
3.16972e-14
  70
    32
  0
VERTEX
  8
0
  5
2CE9
 10
-221.753
 20
-98.2022
 30
3.17001e-14
  70
    32
  0
VERTEX
  8
0
  5
2CEA
 10
-221.741
 20
-98.2096
 30
3.17031e-14
  70
    32
  0
VERTEX
  8
0
  5
2CEB
 10
-221.729
 20
-98.2171
 30
3.17061e-14
  70
    32
  0
VERTEX
  8
0
  5
2CEC
 10
-221.717
 20
-98.2246
 30
3.17091e-14
  70
    32
  0
VERTEX
  8
0
  5
2CED
 10
-221.705
 20
-98.2322
 30
3.17120e-14
  70
    32
  0
VERTEX
  8
0
  5
2CEE
 10
-221.693
 20
-98.2398
 30
3.17150e-14
  70
    32
  0
VERTEX
  8
0
  5
2CEF
 10
-221.681
 20
-98.2474
 30
3.17180e-14
  70
    32
  0
VERTEX
  8
0
  5
2CF0
 10
-221.669
 20
-98.2551
 30
3.17210e-14
  70
    32
  0
VERTEX
  8
0
  5
2CF1
 10
-221.657
 20
-98.2628
 30
3.17240e-14
  70
    32
  0
VERTEX
  8
0
  5
2CF2
 10
-221.645
 20
-98.2706
 30
3.17270e-14
  70
    32
  0
VERTEX
  8
0
  5
2CF3
 10
-221.633
 20
-98.2783
 30
3.17300e-14
  70
    32
  0
VERTEX
  8
0
  5
2CF4
 10
-221.621
 20
-98.2862
 30
3.17330e-14
  70
    32
  0
VERTEX
  8
0
  5
2CF5
 10
-221.609
 20
-98.2940
 30
3.17360e-14
  70
    32
  0
VERTEX
  8
0
  5
2CF6
 10
-221.598
 20
-98.3019
 30
3.17390e-14
  70
    32
  0
VERTEX
  8
0
  5
2CF7
 10
-221.586
 20
-98.3099
 30
3.17420e-14
  70
    32
  0
VERTEX
  8
0
  5
2CF8
 10
-221.574
 20
-98.3178
 30
3.17450e-14
  70
    32
  0
VERTEX
  8
0
  5
2CF9
 10
-221.562
 20
-98.3259
 30
3.17480e-14
  70
    32
  0
VERTEX
  8
0
  5
2CFA
 10
-221.550
 20
-98.3339
 30
3.17510e-14
  70
    32
  0
VERTEX
  8
0
  5
2CFB
 10
-221.538
 20
-98.3420
 30
3.17540e-14
  70
    32
  0
VERTEX
  8
0
  5
2CFC
 10
-221.526
 20
-98.3501
 30
3.17570e-14
  70
    32
  0
VERTEX
  8
0
  5
2CFD
 10
-221.514
 20
-98.3583
 30
3.17600e-14
  70
    32
  0
VERTEX
  8
0
  5
2CFE
 10
-221.502
 20
-98.3665
 30
3.17630e-14
  70
    32
  0
VERTEX
  8
0
  5
2CFF
 10
-221.490
 20
-98.3747
 30
3.17661e-14
  70
    32
  0
VERTEX
  8
0
  5
2D00
 10
-221.479
 20
-98.3830
 30
3.17691e-14
  70
    32
  0
VERTEX
  8
0
  5
2D01
 10
-221.467
 20
-98.3913
 30
3.17721e-14
  70
    32
  0
VERTEX
  8
0
  5
2D02
 10
-221.455
 20
-98.3997
 30
3.17751e-14
  70
    32
  0
VERTEX
  8
0
  5
2D03
 10
-221.443
 20
-98.4081
 30
3.17781e-14
  70
    32
  0
VERTEX
  8
0
  5
2D04
 10
-221.431
 20
-98.4165
 30
3.17811e-14
  70
    32
  0
VERTEX
  8
0
  5
2D05
 10
-221.419
 20
-98.4250
 30
3.17841e-14
  70
    32
  0
VERTEX
  8
0
  5
2D06
 10
-221.408
 20
-98.4335
 30
3.17871e-14
  70
    32
  0
VERTEX
  8
0
  5
2D07
 10
-221.396
 20
-98.4421
 30
3.17901e-14
  70
    32
  0
VERTEX
  8
0
  5
2D08
 10
-221.384
 20
-98.4507
 30
3.17931e-14
  70
    32
  0
VERTEX
  8
0
  5
2D09
 10
-221.372
 20
-98.4593
 30
3.17961e-14
  70
    32
  0
VERTEX
  8
0
  5
2D0A
 10
-221.360
 20
-98.4680
 30
3.17991e-14
  70
    32
  0
VERTEX
  8
0
  5
2D0B
 10
-221.349
 20
-98.4767
 30
3.18021e-14
  70
    32
  0
VERTEX
  8
0
  5
2D0C
 10
-221.337
 20
-98.4854
 30
3.18050e-14
  70
    32
  0
VERTEX
  8
0
  5
2D0D
 10
-221.325
 20
-98.4942
 30
3.18080e-14
  70
    32
  0
VERTEX
  8
0
  5
2D0E
 10
-221.313
 20
-98.5031
 30
3.18110e-14
  70
    32
  0
VERTEX
  8
0
  5
2D0F
 10
-221.301
 20
-98.5119
 30
3.18140e-14
  70
    32
  0
VERTEX
  8
0
  5
2D10
 10
-221.290
 20
-98.5209
 30
3.18170e-14
  70
    32
  0
VERTEX
  8
0
  5
2D11
 10
-221.278
 20
-98.5298
 30
3.18199e-14
  70
    32
  0
VERTEX
  8
0
  5
2D12
 10
-221.266
 20
-98.5388
 30
3.18229e-14
  70
    32
  0
VERTEX
  8
0
  5
2D13
 10
-221.254
 20
-98.5478
 30
3.18258e-14
  70
    32
  0
VERTEX
  8
0
  5
2D14
 10
-221.243
 20
-98.5569
 30
3.18288e-14
  70
    32
  0
VERTEX
  8
0
  5
2D15
 10
-221.231
 20
-98.5660
 30
3.18317e-14
  70
    32
  0
VERTEX
  8
0
  5
2D16
 10
-221.219
 20
-98.5752
 30
3.18347e-14
  70
    32
  0
VERTEX
  8
0
  5
2D17
 10
-221.208
 20
-98.5844
 30
3.18376e-14
  70
    32
  0
VERTEX
  8
0
  5
2D18
 10
-221.196
 20
-98.5936
 30
3.18406e-14
  70
    32
  0
VERTEX
  8
0
  5
2D19
 10
-221.184
 20
-98.6029
 30
3.18435e-14
  70
    32
  0
VERTEX
  8
0
  5
2D1A
 10
-221.173
 20
-98.6122
 30
3.18464e-14
  70
    32
  0
VERTEX
  8
0
  5
2D1B
 10
-221.161
 20
-98.6216
 30
3.18493e-14
  70
    32
  0
VERTEX
  8
0
  5
2D1C
 10
-221.149
 20
-98.6310
 30
3.18522e-14
  70
    32
  0
VERTEX
  8
0
  5
2D1D
 10
-221.138
 20
-98.6404
 30
3.18551e-14
  70
    32
  0
VERTEX
  8
0
  5
2D1E
 10
-221.126
 20
-98.6499
 30
3.18580e-14
  70
    32
  0
VERTEX
  8
0
  5
2D1F
 10
-221.114
 20
-98.6594
 30
3.18609e-14
  70
    32
  0
VERTEX
  8
0
  5
2D20
 10
-221.103
 20
-98.6690
 30
3.18638e-14
  70
    32
  0
VERTEX
  8
0
  5
2D21
 10
-221.091
 20
-98.6786
 30
3.18667e-14
  70
    32
  0
VERTEX
  8
0
  5
2D22
 10
-221.080
 20
-98.6883
 30
3.18695e-14
  70
    32
  0
VERTEX
  8
0
  5
2D23
 10
-221.068
 20
-98.6980
 30
3.18724e-14
  70
    32
  0
VERTEX
  8
0
  5
2D24
 10
-221.056
 20
-98.7077
 30
3.18752e-14
  70
    32
  0
VERTEX
  8
0
  5
2D25
 10
-221.045
 20
-98.7175
 30
3.18781e-14
  70
    32
  0
VERTEX
  8
0
  5
2D26
 10
-221.033
 20
-98.7273
 30
3.18809e-14
  70
    32
  0
VERTEX
  8
0
  5
2D27
 10
-221.022
 20
-98.7371
 30
3.18837e-14
  70
    32
  0
VERTEX
  8
0
  5
2D28
 10
-221.010
 20
-98.7471
 30
3.18865e-14
  70
    32
  0
VERTEX
  8
0
  5
2D29
 10
-220.999
 20
-98.7570
 30
3.18893e-14
  70
    32
  0
VERTEX
  8
0
  5
2D2A
 10
-220.987
 20
-98.7670
 30
3.18921e-14
  70
    32
  0
VERTEX
  8
0
  5
2D2B
 10
-220.976
 20
-98.7770
 30
3.18949e-14
  70
    32
  0
VERTEX
  8
0
  5
2D2C
 10
-220.964
 20
-98.7871
 30
3.18977e-14
  70
    32
  0
VERTEX
  8
0
  5
2D2D
 10
-220.953
 20
-98.7972
 30
3.19005e-14
  70
    32
  0
VERTEX
  8
0
  5
2D2E
 10
-220.941
 20
-98.8074
 30
3.19032e-14
  70
    32
  0
VERTEX
  8
0
  5
2D2F
 10
-220.930
 20
-98.8176
 30
3.19060e-14
  70
    32
  0
VERTEX
  8
0
  5
2D30
 10
-220.918
 20
-98.8278
 30
3.19087e-14
  70
    32
  0
VERTEX
  8
0
  5
2D31
 10
-220.907
 20
-98.8381
 30
3.19114e-14
  70
    32
  0
VERTEX
  8
0
  5
2D32
 10
-220.895
 20
-98.8484
 30
3.19141e-14
  70
    32
  0
VERTEX
  8
0
  5
2D33
 10
-220.884
 20
-98.8588
 30
3.19168e-14
  70
    32
  0
VERTEX
  8
0
  5
2D34
 10
-220.873
 20
-98.8692
 30
3.19195e-14
  70
    32
  0
VERTEX
  8
0
  5
2D35
 10
-220.861
 20
-98.8797
 30
3.19222e-14
  70
    32
  0
VERTEX
  8
0
  5
2D36
 10
-220.850
 20
-98.8902
 30
3.19249e-14
  70
    32
  0
VERTEX
  8
0
  5
2D37
 10
-220.839
 20
-98.9007
 30
3.19275e-14
  70
    32
  0
VERTEX
  8
0
  5
2D38
 10
-220.827
 20
-98.9113
 30
3.19302e-14
  70
    32
  0
VERTEX
  8
0
  5
2D39
 10
-220.816
 20
-98.9220
 30
3.19328e-14
  70
    32
  0
VERTEX
  8
0
  5
2D3A
 10
-220.805
 20
-98.9326
 30
3.19354e-14
  70
    32
  0
VERTEX
  8
0
  5
2D3B
 10
-220.793
 20
-98.9434
 30
3.19380e-14
  70
    32
  0
VERTEX
  8
0
  5
2D3C
 10
-220.782
 20
-98.9541
 30
3.19406e-14
  70
    32
  0
VERTEX
  8
0
  5
2D3D
 10
-220.771
 20
-98.9649
 30
3.19432e-14
  70
    32
  0
VERTEX
  8
0
  5
2D3E
 10
-220.759
 20
-98.9758
 30
3.19457e-14
  70
    32
  0
VERTEX
  8
0
  5
2D3F
 10
-220.748
 20
-98.9867
 30
3.19483e-14
  70
    32
  0
VERTEX
  8
0
  5
2D40
 10
-220.737
 20
-98.9976
 30
3.19508e-14
  70
    32
  0
VERTEX
  8
0
  5
2D41
 10
-220.726
 20
-99.0086
 30
3.19533e-14
  70
    32
  0
VERTEX
  8
0
  5
2D42
 10
-220.714
 20
-99.0196
 30
3.19558e-14
  70
    32
  0
VERTEX
  8
0
  5
2D43
 10
-220.703
 20
-99.0307
 30
3.19583e-14
  70
    32
  0
VERTEX
  8
0
  5
2D44
 10
-220.692
 20
-99.0418
 30
3.19608e-14
  70
    32
  0
VERTEX
  8
0
  5
2D45
 10
-220.681
 20
-99.0530
 30
3.19633e-14
  70
    32
  0
VERTEX
  8
0
  5
2D46
 10
-220.670
 20
-99.0642
 30
3.19657e-14
  70
    32
  0
VERTEX
  8
0
  5
2D47
 10
-220.658
 20
-99.0755
 30
3.19681e-14
  70
    32
  0
VERTEX
  8
0
  5
2D48
 10
-220.647
 20
-99.0868
 30
3.19705e-14
  70
    32
  0
VERTEX
  8
0
  5
2D49
 10
-220.636
 20
-99.0981
 30
3.19729e-14
  70
    32
  0
VERTEX
  8
0
  5
2D4A
 10
-220.625
 20
-99.1095
 30
3.19753e-14
  70
    32
  0
VERTEX
  8
0
  5
2D4B
 10
-220.614
 20
-99.1210
 30
3.19777e-14
  70
    32
  0
VERTEX
  8
0
  5
2D4C
 10
-220.603
 20
-99.1324
 30
3.19800e-14
  70
    32
  0
VERTEX
  8
0
  5
2D4D
 10
-220.592
 20
-99.1440
 30
3.19824e-14
  70
    32
  0
VERTEX
  8
0
  5
2D4E
 10
-220.581
 20
-99.1555
 30
3.19847e-14
  70
    32
  0
VERTEX
  8
0
  5
2D4F
 10
-220.570
 20
-99.1672
 30
3.19870e-14
  70
    32
  0
VERTEX
  8
0
  5
2D50
 10
-220.559
 20
-99.1788
 30
3.19892e-14
  70
    32
  0
VERTEX
  8
0
  5
2D51
 10
-220.548
 20
-99.1905
 30
3.19915e-14
  70
    32
  0
VERTEX
  8
0
  5
2D52
 10
-220.537
 20
-99.2023
 30
3.19937e-14
  70
    32
  0
VERTEX
  8
0
  5
2D53
 10
-220.526
 20
-99.2141
 30
3.19960e-14
  70
    32
  0
VERTEX
  8
0
  5
2D54
 10
-220.515
 20
-99.2259
 30
3.19982e-14
  70
    32
  0
VERTEX
  8
0
  5
2D55
 10
-220.504
 20
-99.2378
 30
3.20003e-14
  70
    32
  0
VERTEX
  8
0
  5
2D56
 10
-220.493
 20
-99.2498
 30
3.20025e-14
  70
    32
  0
VERTEX
  8
0
  5
2D57
 10
-220.482
 20
-99.2618
 30
3.20047e-14
  70
    32
  0
VERTEX
  8
0
  5
2D58
 10
-220.471
 20
-99.2738
 30
3.20068e-14
  70
    32
  0
VERTEX
  8
0
  5
2D59
 10
-220.460
 20
-99.2859
 30
3.20089e-14
  70
    32
  0
VERTEX
  8
0
  5
2D5A
 10
-220.449
 20
-99.2980
 30
3.20110e-14
  70
    32
  0
VERTEX
  8
0
  5
2D5B
 10
-220.438
 20
-99.3102
 30
3.20131e-14
  70
    32
  0
VERTEX
  8
0
  5
2D5C
 10
-220.428
 20
-99.3224
 30
3.20151e-14
  70
    32
  0
VERTEX
  8
0
  5
2D5D
 10
-220.417
 20
-99.3347
 30
3.20172e-14
  70
    32
  0
VERTEX
  8
0
  5
2D5E
 10
-220.406
 20
-99.3470
 30
3.20193e-14
  70
    32
  0
VERTEX
  8
0
  5
2D5F
 10
-220.395
 20
-99.3593
 30
3.20214e-14
  70
    32
  0
VERTEX
  8
0
  5
2D60
 10
-220.384
 20
-99.3717
 30
3.20235e-14
  70
    32
  0
VERTEX
  8
0
  5
2D61
 10
-220.374
 20
-99.3842
 30
3.20256e-14
  70
    32
  0
VERTEX
  8
0
  5
2D62
 10
-220.363
 20
-99.3967
 30
3.20277e-14
  70
    32
  0
VERTEX
  8
0
  5
2D63
 10
-220.352
 20
-99.4092
 30
3.20298e-14
  70
    32
  0
VERTEX
  8
0
  5
2D64
 10
-220.341
 20
-99.4218
 30
3.20319e-14
  70
    32
  0
VERTEX
  8
0
  5
2D65
 10
-220.331
 20
-99.4345
 30
3.20340e-14
  70
    32
  0
VERTEX
  8
0
  5
2D66
 10
-220.320
 20
-99.4472
 30
3.20361e-14
  70
    32
  0
VERTEX
  8
0
  5
2D67
 10
-220.309
 20
-99.4599
 30
3.20382e-14
  70
    32
  0
VERTEX
  8
0
  5
2D68
 10
-220.299
 20
-99.4727
 30
3.20403e-14
  70
    32
  0
VERTEX
  8
0
  5
2D69
 10
-220.288
 20
-99.4855
 30
3.20424e-14
  70
    32
  0
VERTEX
  8
0
  5
2D6A
 10
-220.278
 20
-99.4984
 30
3.20445e-14
  70
    32
  0
VERTEX
  8
0
  5
2D6B
 10
-220.267
 20
-99.5113
 30
3.20467e-14
  70
    32
  0
VERTEX
  8
0
  5
2D6C
 10
-220.257
 20
-99.5243
 30
3.20488e-14
  70
    32
  0
VERTEX
  8
0
  5
2D6D
 10
-220.246
 20
-99.5373
 30
3.20509e-14
  70
    32
  0
VERTEX
  8
0
  5
2D6E
 10
-220.235
 20
-99.5504
 30
3.20530e-14
  70
    32
  0
VERTEX
  8
0
  5
2D6F
 10
-220.225
 20
-99.5635
 30
3.20551e-14
  70
    32
  0
VERTEX
  8
0
  5
2D70
 10
-220.215
 20
-99.5767
 30
3.20573e-14
  70
    32
  0
VERTEX
  8
0
  5
2D71
 10
-220.204
 20
-99.5899
 30
3.20594e-14
  70
    32
  0
VERTEX
  8
0
  5
2D72
 10
-220.194
 20
-99.6031
 30
3.20615e-14
  70
    32
  0
VERTEX
  8
0
  5
2D73
 10
-220.183
 20
-99.6165
 30
3.20637e-14
  70
    32
  0
VERTEX
  8
0
  5
2D74
 10
-220.173
 20
-99.6298
 30
3.20658e-14
  70
    32
  0
VERTEX
  8
0
  5
2D75
 10
-220.163
 20
-99.6432
 30
3.20679e-14
  70
    32
  0
VERTEX
  8
0
  5
2D76
 10
-220.152
 20
-99.6567
 30
3.20700e-14
  70
    32
  0
VERTEX
  8
0
  5
2D77
 10
-220.142
 20
-99.6702
 30
3.20722e-14
  70
    32
  0
VERTEX
  8
0
  5
2D78
 10
-220.132
 20
-99.6837
 30
3.20743e-14
  70
    32
  0
VERTEX
  8
0
  5
2D79
 10
-220.121
 20
-99.6973
 30
3.20764e-14
  70
    32
  0
VERTEX
  8
0
  5
2D7A
 10
-220.111
 20
-99.7110
 30
3.20786e-14
  70
    32
  0
VERTEX
  8
0
  5
2D7B
 10
-220.101
 20
-99.7247
 30
3.20807e-14
  70
    32
  0
VERTEX
  8
0
  5
2D7C
 10
-220.091
 20
-99.7384
 30
3.20828e-14
  70
    32
  0
VERTEX
  8
0
  5
2D7D
 10
-220.081
 20
-99.7522
 30
3.20849e-14
  70
    32
  0
VERTEX
  8
0
  5
2D7E
 10
-220.070
 20
-99.7661
 30
3.20871e-14
  70
    32
  0
VERTEX
  8
0
  5
2D7F
 10
-220.060
 20
-99.7800
 30
3.20892e-14
  70
    32
  0
VERTEX
  8
0
  5
2D80
 10
-220.050
 20
-99.7939
 30
3.20913e-14
  70
    32
  0
VERTEX
  8
0
  5
2D81
 10
-220.040
 20
-99.8079
 30
3.20934e-14
  70
    32
  0
VERTEX
  8
0
  5
2D82
 10
-220.030
 20
-99.8220
 30
3.20956e-14
  70
    32
  0
VERTEX
  8
0
  5
2D83
 10
-220.020
 20
-99.8361
 30
3.20977e-14
  70
    32
  0
VERTEX
  8
0
  5
2D84
 10
-220.010
 20
-99.8502
 30
3.20998e-14
  70
    32
  0
VERTEX
  8
0
  5
2D85
 10
-220.000
 20
-99.8644
 30
3.21019e-14
  70
    32
  0
VERTEX
  8
0
  5
2D86
 10
-219.990
 20
-99.8787
 30
3.21040e-14
  70
    32
  0
VERTEX
  8
0
  5
2D87
 10
-219.980
 20
-99.8930
 30
3.21061e-14
  70
    32
  0
VERTEX
  8
0
  5
2D88
 10
-219.971
 20
-99.9073
 30
3.21082e-14
  70
    32
  0
VERTEX
  8
0
  5
2D89
 10
-219.961
 20
-99.9217
 30
3.21103e-14
  70
    32
  0
VERTEX
  8
0
  5
2D8A
 10
-219.951
 20
-99.9361
 30
3.21124e-14
  70
    32
  0
VERTEX
  8
0
  5
2D8B
 10
-219.941
 20
-99.9506
 30
3.21145e-14
  70
    32
  0
VERTEX
  8
0
  5
2D8C
 10
-219.931
 20
-99.9652
 30
3.21166e-14
  70
    32
  0
VERTEX
  8
0
  5
2D8D
 10
-219.922
 20
-99.9798
 30
3.21187e-14
  70
    32
  0
VERTEX
  8
0
  5
2D8E
 10
-219.912
 20
-99.9944
 30
3.21208e-14
  70
    32
  0
VERTEX
  8
0
  5
2D8F
 10
-219.902
 20
-100.009
 30
3.21229e-14
  70
    32
  0
VERTEX
  8
0
  5
2D90
 10
-219.893
 20
-100.024
 30
3.21249e-14
  70
    32
  0
VERTEX
  8
0
  5
2D91
 10
-219.883
 20
-100.039
 30
3.21270e-14
  70
    32
  0
VERTEX
  8
0
  5
2D92
 10
-219.873
 20
-100.054
 30
3.21291e-14
  70
    32
  0
VERTEX
  8
0
  5
2D93
 10
-219.864
 20
-100.068
 30
3.21311e-14
  70
    32
  0
VERTEX
  8
0
  5
2D94
 10
-219.854
 20
-100.083
 30
3.21332e-14
  70
    32
  0
VERTEX
  8
0
  5
2D95
 10
-219.845
 20
-100.098
 30
3.21352e-14
  70
    32
  0
VERTEX
  8
0
  5
2D96
 10
-219.835
 20
-100.113
 30
3.21373e-14
  70
    32
  0
VERTEX
  8
0
  5
2D97
 10
-219.826
 20
-100.129
 30
3.21393e-14
  70
    32
  0
VERTEX
  8
0
  5
2D98
 10
-219.816
 20
-100.144
 30
3.21414e-14
  70
    32
  0
VERTEX
  8
0
  5
2D99
 10
-219.807
 20
-100.159
 30
3.21434e-14
  70
    32
  0
VERTEX
  8
0
  5
2D9A
 10
-219.798
 20
-100.174
 30
3.21454e-14
  70
    32
  0
VERTEX
  8
0
  5
2D9B
 10
-219.788
 20
-100.189
 30
3.21474e-14
  70
    32
  0
VERTEX
  8
0
  5
2D9C
 10
-219.779
 20
-100.205
 30
3.21495e-14
  70
    32
  0
VERTEX
  8
0
  5
2D9D
 10
-219.770
 20
-100.220
 30
3.21515e-14
  70
    32
  0
VERTEX
  8
0
  5
2D9E
 10
-219.761
 20
-100.236
 30
3.21535e-14
  70
    32
  0
VERTEX
  8
0
  5
2D9F
 10
-219.752
 20
-100.251
 30
3.21555e-14
  70
    32
  0
VERTEX
  8
0
  5
2DA0
 10
-219.742
 20
-100.267
 30
3.21575e-14
  70
    32
  0
VERTEX
  8
0
  5
2DA1
 10
-219.733
 20
-100.282
 30
3.21594e-14
  70
    32
  0
VERTEX
  8
0
  5
2DA2
 10
-219.724
 20
-100.298
 30
3.21614e-14
  70
    32
  0
VERTEX
  8
0
  5
2DA3
 10
-219.715
 20
-100.314
 30
3.21634e-14
  70
    32
  0
VERTEX
  8
0
  5
2DA4
 10
-219.706
 20
-100.330
 30
3.21653e-14
  70
    32
  0
VERTEX
  8
0
  5
2DA5
 10
-219.697
 20
-100.345
 30
3.21673e-14
  70
    32
  0
VERTEX
  8
0
  5
2DA6
 10
-219.688
 20
-100.361
 30
3.21692e-14
  70
    32
  0
VERTEX
  8
0
  5
2DA7
 10
-219.679
 20
-100.377
 30
3.21712e-14
  70
    32
  0
VERTEX
  8
0
  5
2DA8
 10
-219.670
 20
-100.393
 30
3.21731e-14
  70
    32
  0
VERTEX
  8
0
  5
2DA9
 10
-219.662
 20
-100.409
 30
3.21750e-14
  70
    32
  0
VERTEX
  8
0
  5
2DAA
 10
-219.653
 20
-100.425
 30
3.21769e-14
  70
    32
  0
VERTEX
  8
0
  5
2DAB
 10
-219.644
 20
-100.442
 30
3.21788e-14
  70
    32
  0
VERTEX
  8
0
  5
2DAC
 10
-219.635
 20
-100.458
 30
3.21807e-14
  70
    32
  0
VERTEX
  8
0
  5
2DAD
 10
-219.627
 20
-100.474
 30
3.21826e-14
  70
    32
  0
VERTEX
  8
0
  5
2DAE
 10
-219.618
 20
-100.490
 30
3.21845e-14
  70
    32
  0
VERTEX
  8
0
  5
2DAF
 10
-219.609
 20
-100.507
 30
3.21864e-14
  70
    32
  0
VERTEX
  8
0
  5
2DB0
 10
-219.601
 20
-100.523
 30
3.21882e-14
  70
    32
  0
VERTEX
  8
0
  5
2DB1
 10
-219.592
 20
-100.540
 30
3.21901e-14
  70
    32
  0
VERTEX
  8
0
  5
2DB2
 10
-219.584
 20
-100.556
 30
3.21919e-14
  70
    32
  0
VERTEX
  8
0
  5
2DB3
 10
-219.575
 20
-100.573
 30
3.21937e-14
  70
    32
  0
VERTEX
  8
0
  5
2DB4
 10
-219.567
 20
-100.589
 30
3.21956e-14
  70
    32
  0
VERTEX
  8
0
  5
2DB5
 10
-219.558
 20
-100.606
 30
3.21974e-14
  70
    32
  0
VERTEX
  8
0
  5
2DB6
 10
-219.550
 20
-100.623
 30
3.21992e-14
  70
    32
  0
VERTEX
  8
0
  5
2DB7
 10
-219.542
 20
-100.640
 30
3.22010e-14
  70
    32
  0
VERTEX
  8
0
  5
2DB8
 10
-219.534
 20
-100.656
 30
3.22027e-14
  70
    32
  0
VERTEX
  8
0
  5
2DB9
 10
-219.525
 20
-100.673
 30
3.22045e-14
  70
    32
  0
VERTEX
  8
0
  5
2DBA
 10
-219.517
 20
-100.690
 30
3.22063e-14
  70
    32
  0
VERTEX
  8
0
  5
2DBB
 10
-219.509
 20
-100.707
 30
3.22080e-14
  70
    32
  0
VERTEX
  8
0
  5
2DBC
 10
-219.501
 20
-100.724
 30
3.22097e-14
  70
    32
  0
VERTEX
  8
0
  5
2DBD
 10
-219.493
 20
-100.741
 30
3.22115e-14
  70
    32
  0
VERTEX
  8
0
  5
2DBE
 10
-219.485
 20
-100.759
 30
3.22132e-14
  70
    32
  0
VERTEX
  8
0
  5
2DBF
 10
-219.477
 20
-100.776
 30
3.22149e-14
  70
    32
  0
VERTEX
  8
0
  5
2DC0
 10
-219.469
 20
-100.793
 30
3.22166e-14
  70
    32
  0
VERTEX
  8
0
  5
2DC1
 10
-219.461
 20
-100.810
 30
3.22183e-14
  70
    32
  0
VERTEX
  8
0
  5
2DC2
 10
-219.453
 20
-100.828
 30
3.22199e-14
  70
    32
  0
VERTEX
  8
0
  5
2DC3
 10
-219.445
 20
-100.845
 30
3.22216e-14
  70
    32
  0
VERTEX
  8
0
  5
2DC4
 10
-219.437
 20
-100.863
 30
3.22232e-14
  70
    32
  0
VERTEX
  8
0
  5
2DC5
 10
-219.430
 20
-100.880
 30
3.22248e-14
  70
    32
  0
VERTEX
  8
0
  5
2DC6
 10
-219.422
 20
-100.898
 30
3.22265e-14
  70
    32
  0
VERTEX
  8
0
  5
2DC7
 10
-219.414
 20
-100.916
 30
3.22281e-14
  70
    32
  0
VERTEX
  8
0
  5
2DC8
 10
-219.407
 20
-100.933
 30
3.22296e-14
  70
    32
  0
VERTEX
  8
0
  5
2DC9
 10
-219.399
 20
-100.951
 30
3.22312e-14
  70
    32
  0
VERTEX
  8
0
  5
2DCA
 10
-219.392
 20
-100.969
 30
3.22328e-14
  70
    32
  0
VERTEX
  8
0
  5
2DCB
 10
-219.384
 20
-100.987
 30
3.22343e-14
  70
    32
  0
VERTEX
  8
0
  5
2DCC
 10
-219.377
 20
-101.005
 30
3.22359e-14
  70
    32
  0
VERTEX
  8
0
  5
2DCD
 10
-219.369
 20
-101.023
 30
3.22374e-14
  70
    32
  0
VERTEX
  8
0
  5
2DCE
 10
-219.362
 20
-101.041
 30
3.22389e-14
  70
    32
  0
VERTEX
  8
0
  5
2DCF
 10
-219.355
 20
-101.059
 30
3.22404e-14
  70
    32
  0
VERTEX
  8
0
  5
2DD0
 10
-219.347
 20
-101.077
 30
3.22419e-14
  70
    32
  0
VERTEX
  8
0
  5
2DD1
 10
-219.340
 20
-101.095
 30
3.22433e-14
  70
    32
  0
VERTEX
  8
0
  5
2DD2
 10
-219.333
 20
-101.114
 30
3.22448e-14
  70
    32
  0
VERTEX
  8
0
  5
2DD3
 10
-219.326
 20
-101.132
 30
3.22462e-14
  70
    32
  0
VERTEX
  8
0
  5
2DD4
 10
-219.319
 20
-101.150
 30
3.22476e-14
  70
    32
  0
VERTEX
  8
0
  5
2DD5
 10
-219.312
 20
-101.169
 30
3.22490e-14
  70
    32
  0
VERTEX
  8
0
  5
2DD6
 10
-219.305
 20
-101.187
 30
3.22504e-14
  70
    32
  0
VERTEX
  8
0
  5
2DD7
 10
-219.298
 20
-101.206
 30
3.22518e-14
  70
    32
  0
VERTEX
  8
0
  5
2DD8
 10
-219.291
 20
-101.225
 30
3.22531e-14
  70
    32
  0
VERTEX
  8
0
  5
2DD9
 10
-219.284
 20
-101.243
 30
3.22545e-14
  70
    32
  0
VERTEX
  8
0
  5
2DDA
 10
-219.277
 20
-101.262
 30
3.22558e-14
  70
    32
  0
VERTEX
  8
0
  5
2DDB
 10
-219.271
 20
-101.281
 30
3.22571e-14
  70
    32
  0
VERTEX
  8
0
  5
2DDC
 10
-219.264
 20
-101.300
 30
3.22584e-14
  70
    32
  0
VERTEX
  8
0
  5
2DDD
 10
-219.257
 20
-101.319
 30
3.22596e-14
  70
    32
  0
VERTEX
  8
0
  5
2DDE
 10
-219.251
 20
-101.338
 30
3.22608e-14
  70
    32
  0
VERTEX
  8
0
  5
2DDF
 10
-219.244
 20
-101.357
 30
3.22621e-14
  70
    32
  0
VERTEX
  8
0
  5
2DE0
 10
-219.238
 20
-101.376
 30
3.22632e-14
  70
    32
  0
VERTEX
  8
0
  5
2DE1
 10
-219.231
 20
-101.395
 30
3.22644e-14
  70
    32
  0
VERTEX
  8
0
  5
2DE2
 10
-219.225
 20
-101.414
 30
3.22655e-14
  70
    32
  0
VERTEX
  8
0
  5
2DE3
 10
-219.218
 20
-101.433
 30
3.22666e-14
  70
    32
  0
VERTEX
  8
0
  5
2DE4
 10
-219.212
 20
-101.452
 30
3.22677e-14
  70
    32
  0
VERTEX
  8
0
  5
2DE5
 10
-219.206
 20
-101.472
 30
3.22687e-14
  70
    32
  0
VERTEX
  8
0
  5
2DE6
 10
-219.200
 20
-101.491
 30
3.22698e-14
  70
    32
  0
VERTEX
  8
0
  5
2DE7
 10
-219.194
 20
-101.511
 30
3.22708e-14
  70
    32
  0
VERTEX
  8
0
  5
2DE8
 10
-219.188
 20
-101.530
 30
3.22718e-14
  70
    32
  0
VERTEX
  8
0
  5
2DE9
 10
-219.182
 20
-101.550
 30
3.22727e-14
  70
    32
  0
VERTEX
  8
0
  5
2DEA
 10
-219.176
 20
-101.569
 30
3.22737e-14
  70
    32
  0
VERTEX
  8
0
  5
2DEB
 10
-219.170
 20
-101.589
 30
3.22746e-14
  70
    32
  0
VERTEX
  8
0
  5
2DEC
 10
-219.164
 20
-101.609
 30
3.22755e-14
  70
    32
  0
VERTEX
  8
0
  5
2DED
 10
-219.158
 20
-101.629
 30
3.22764e-14
  70
    32
  0
VERTEX
  8
0
  5
2DEE
 10
-219.152
 20
-101.649
 30
3.22772e-14
  70
    32
  0
VERTEX
  8
0
  5
2DEF
 10
-219.147
 20
-101.668
 30
3.22781e-14
  70
    32
  0
VERTEX
  8
0
  5
2DF0
 10
-219.141
 20
-101.688
 30
3.22789e-14
  70
    32
  0
VERTEX
  8
0
  5
2DF1
 10
-219.135
 20
-101.709
 30
3.22797e-14
  70
    32
  0
VERTEX
  8
0
  5
2DF2
 10
-219.130
 20
-101.729
 30
3.22805e-14
  70
    32
  0
VERTEX
  8
0
  5
2DF3
 10
-219.124
 20
-101.749
 30
3.22812e-14
  70
    32
  0
VERTEX
  8
0
  5
2DF4
 10
-219.119
 20
-101.769
 30
3.22819e-14
  70
    32
  0
VERTEX
  8
0
  5
2DF5
 10
-219.114
 20
-101.789
 30
3.22827e-14
  70
    32
  0
VERTEX
  8
0
  5
2DF6
 10
-219.108
 20
-101.810
 30
3.22834e-14
  70
    32
  0
VERTEX
  8
0
  5
2DF7
 10
-219.103
 20
-101.830
 30
3.22840e-14
  70
    32
  0
VERTEX
  8
0
  5
2DF8
 10
-219.098
 20
-101.850
 30
3.22847e-14
  70
    32
  0
VERTEX
  8
0
  5
2DF9
 10
-219.093
 20
-101.871
 30
3.22853e-14
  70
    32
  0
VERTEX
  8
0
  5
2DFA
 10
-219.088
 20
-101.891
 30
3.22860e-14
  70
    32
  0
VERTEX
  8
0
  5
2DFB
 10
-219.083
 20
-101.912
 30
3.22866e-14
  70
    32
  0
VERTEX
  8
0
  5
2DFC
 10
-219.078
 20
-101.933
 30
3.22871e-14
  70
    32
  0
VERTEX
  8
0
  5
2DFD
 10
-219.073
 20
-101.953
 30
3.22877e-14
  70
    32
  0
VERTEX
  8
0
  5
2DFE
 10
-219.069
 20
-101.974
 30
3.22883e-14
  70
    32
  0
VERTEX
  8
0
  5
2DFF
 10
-219.064
 20
-101.995
 30
3.22888e-14
  70
    32
  0
VERTEX
  8
0
  5
2E00
 10
-219.059
 20
-102.016
 30
3.22893e-14
  70
    32
  0
VERTEX
  8
0
  5
2E01
 10
-219.055
 20
-102.037
 30
3.22898e-14
  70
    32
  0
VERTEX
  8
0
  5
2E02
 10
-219.050
 20
-102.058
 30
3.22903e-14
  70
    32
  0
VERTEX
  8
0
  5
2E03
 10
-219.046
 20
-102.079
 30
3.22908e-14
  70
    32
  0
VERTEX
  8
0
  5
2E04
 10
-219.042
 20
-102.100
 30
3.22912e-14
  70
    32
  0
VERTEX
  8
0
  5
2E05
 10
-219.037
 20
-102.121
 30
3.22917e-14
  70
    32
  0
VERTEX
  8
0
  5
2E06
 10
-219.033
 20
-102.142
 30
3.22921e-14
  70
    32
  0
VERTEX
  8
0
  5
2E07
 10
-219.029
 20
-102.163
 30
3.22925e-14
  70
    32
  0
VERTEX
  8
0
  5
2E08
 10
-219.025
 20
-102.185
 30
3.22929e-14
  70
    32
  0
VERTEX
  8
0
  5
2E09
 10
-219.021
 20
-102.206
 30
3.22933e-14
  70
    32
  0
VERTEX
  8
0
  5
2E0A
 10
-219.017
 20
-102.228
 30
3.22937e-14
  70
    32
  0
VERTEX
  8
0
  5
2E0B
 10
-219.013
 20
-102.249
 30
3.22940e-14
  70
    32
  0
VERTEX
  8
0
  5
2E0C
 10
-219.009
 20
-102.271
 30
3.22943e-14
  70
    32
  0
VERTEX
  8
0
  5
2E0D
 10
-219.005
 20
-102.292
 30
3.22947e-14
  70
    32
  0
VERTEX
  8
0
  5
2E0E
 10
-219.002
 20
-102.314
 30
3.22950e-14
  70
    32
  0
VERTEX
  8
0
  5
2E0F
 10
-218.998
 20
-102.336
 30
3.22953e-14
  70
    32
  0
VERTEX
  8
0
  5
2E10
 10
-218.995
 20
-102.357
 30
3.22956e-14
  70
    32
  0
VERTEX
  8
0
  5
2E11
 10
-218.991
 20
-102.379
 30
3.22959e-14
  70
    32
  0
VERTEX
  8
0
  5
2E12
 10
-218.988
 20
-102.401
 30
3.22961e-14
  70
    32
  0
VERTEX
  8
0
  5
2E13
 10
-218.985
 20
-102.423
 30
3.22964e-14
  70
    32
  0
VERTEX
  8
0
  5
2E14
 10
-218.982
 20
-102.445
 30
3.22966e-14
  70
    32
  0
VERTEX
  8
0
  5
2E15
 10
-218.978
 20
-102.467
 30
3.22969e-14
  70
    32
  0
VERTEX
  8
0
  5
2E16
 10
-218.975
 20
-102.489
 30
3.22971e-14
  70
    32
  0
VERTEX
  8
0
  5
2E17
 10
-218.972
 20
-102.511
 30
3.22973e-14
  70
    32
  0
VERTEX
  8
0
  5
2E18
 10
-218.970
 20
-102.534
 30
3.22975e-14
  70
    32
  0
VERTEX
  8
0
  5
2E19
 10
-218.967
 20
-102.556
 30
3.22977e-14
  70
    32
  0
VERTEX
  8
0
  5
2E1A
 10
-218.964
 20
-102.578
 30
3.22979e-14
  70
    32
  0
VERTEX
  8
0
  5
2E1B
 10
-218.961
 20
-102.601
 30
3.22980e-14
  70
    32
  0
VERTEX
  8
0
  5
2E1C
 10
-218.959
 20
-102.623
 30
3.22982e-14
  70
    32
  0
VERTEX
  8
0
  5
2E1D
 10
-218.956
 20
-102.645
 30
3.22983e-14
  70
    32
  0
VERTEX
  8
0
  5
2E1E
 10
-218.954
 20
-102.668
 30
3.22985e-14
  70
    32
  0
VERTEX
  8
0
  5
2E1F
 10
-218.952
 20
-102.691
 30
3.22986e-14
  70
    32
  0
VERTEX
  8
0
  5
2E20
 10
-218.949
 20
-102.713
 30
3.22987e-14
  70
    32
  0
VERTEX
  8
0
  5
2E21
 10
-218.947
 20
-102.736
 30
3.22989e-14
  70
    32
  0
VERTEX
  8
0
  5
2E22
 10
-218.945
 20
-102.759
 30
3.22990e-14
  70
    32
  0
VERTEX
  8
0
  5
2E23
 10
-218.943
 20
-102.782
 30
3.22991e-14
  70
    32
  0
VERTEX
  8
0
  5
2E24
 10
-218.941
 20
-102.804
 30
3.22992e-14
  70
    32
  0
VERTEX
  8
0
  5
2E25
 10
-218.939
 20
-102.827
 30
3.22993e-14
  70
    32
  0
VERTEX
  8
0
  5
2E26
 10
-218.938
 20
-102.850
 30
3.22993e-14
  70
    32
  0
VERTEX
  8
0
  5
2E27
 10
-218.936
 20
-102.873
 30
3.22994e-14
  70
    32
  0
VERTEX
  8
0
  5
2E28
 10
-218.934
 20
-102.897
 30
3.22995e-14
  70
    32
  0
VERTEX
  8
0
  5
2E29
 10
-218.933
 20
-102.920
 30
3.22996e-14
  70
    32
  0
VERTEX
  8
0
  5
2E2A
 10
-218.932
 20
-102.943
 30
3.22996e-14
  70
    32
  0
VERTEX
  8
0
  5
2E2B
 10
-218.930
 20
-102.966
 30
3.22997e-14
  70
    32
  0
VERTEX
  8
0
  5
2E2C
 10
-218.929
 20
-102.990
 30
3.22997e-14
  70
    32
  0
VERTEX
  8
0
  5
2E2D
 10
-218.928
 20
-103.013
 30
3.22998e-14
  70
    32
  0
VERTEX
  8
0
  5
2E2E
 10
-218.927
 20
-103.036
 30
3.22998e-14
  70
    32
  0
VERTEX
  8
0
  5
2E2F
 10
-218.926
 20
-103.060
 30
3.22998e-14
  70
    32
  0
VERTEX
  8
0
  5
2E30
 10
-218.925
 20
-103.083
 30
3.22999e-14
  70
    32
  0
VERTEX
  8
0
  5
2E31
 10
-218.924
 20
-103.107
 30
3.22999e-14
  70
    32
  0
VERTEX
  8
0
  5
2E32
 10
-218.924
 20
-103.131
 30
3.22999e-14
  70
    32
  0
VERTEX
  8
0
  5
2E33
 10
-218.923
 20
-103.154
 30
3.22999e-14
  70
    32
  0
VERTEX
  8
0
  5
2E34
 10
-218.922
 20
-103.178
 30
3.22999e-14
  70
    32
  0
VERTEX
  8
0
  5
2E35
 10
-218.922
 20
-103.202
 30
3.23000e-14
  70
    32
  0
VERTEX
  8
0
  5
2E36
 10
-218.922
 20
-103.226
 30
3.23000e-14
  70
    32
  0
VERTEX
  8
0
  5
2E37
 10
-218.921
 20
-103.250
 30
3.23000e-14
  70
    32
  0
VERTEX
  8
0
  5
2E38
 10
-218.921
 20
-103.274
 30
3.23000e-14
  70
    32
  0
VERTEX
  8
0
  5
2E39
 10
-218.921
 20
-103.298
 30
3.23000e-14
  70
    32
  0
VERTEX
  8
0
  5
2E3A
 10
-218.921
 20
-103.322
 30
3.23000e-14
  70
    32
  0
VERTEX
  8
0
  5
2E3B
 10
-218.922
 20
-103.346
 30
3.23000e-14
  70
    32
  0
VERTEX
  8
0
  5
2E3C
 10
-218.922
 20
-103.370
 30
3.23000e-14
  70
    32
  0
VERTEX
  8
0
  5
2E3D
 10
-218.922
 20
-103.395
 30
3.23000e-14
  70
    32
  0
VERTEX
  8
0
  5
2E3E
 10
-218.923
 20
-103.419
 30
3.23000e-14
  70
    32
  0
VERTEX
  8
0
  5
2E3F
 10
-218.923
 20
-103.443
 30
3.23000e-14
  70
    32
  0
VERTEX
  8
0
  5
2E40
 10
-218.924
 20
-103.468
 30
3.23000e-14
  70
    32
  0
VERTEX
  8
0
  5
2E41
 10
-218.924
 20
-103.492
 30
3.23000e-14
  70
    32
  0
VERTEX
  8
0
  5
2E42
 10
-218.925
 20
-103.517
 30
3.23000e-14
  70
    32
  0
VERTEX
  8
0
  5
2E43
 10
-218.926
 20
-103.541
 30
3.23000e-14
  70
    32
  0
VERTEX
  8
0
  5
2E44
 10
-218.927
 20
-103.566
 30
3.23000e-14
  70
    32
  0
VERTEX
  8
0
  5
2E45
 10
-218.928
 20
-103.591
 30
3.23000e-14
  70
    32
  0
VERTEX
  8
0
  5
2E46
 10
-218.930
 20
-103.615
 30
3.23000e-14
  70
    32
  0
VERTEX
  8
0
  5
2E47
 10
-218.931
 20
-103.640
 30
3.23000e-14
  70
    32
  0
VERTEX
  8
0
  5
2E48
 10
-218.932
 20
-103.665
 30
3.22999e-14
  70
    32
  0
VERTEX
  8
0
  5
2E49
 10
-218.934
 20
-103.690
 30
3.22999e-14
  70
    32
  0
VERTEX
  8
0
  5
2E4A
 10
-218.936
 20
-103.715
 30
3.22999e-14
  70
    32
  0
VERTEX
  8
0
  5
2E4B
 10
-218.937
 20
-103.740
 30
3.22999e-14
  70
    32
  0
VERTEX
  8
0
  5
2E4C
 10
-218.939
 20
-103.765
 30
3.22998e-14
  70
    32
  0
VERTEX
  8
0
  5
2E4D
 10
-218.941
 20
-103.790
 30
3.22998e-14
  70
    32
  0
VERTEX
  8
0
  5
2E4E
 10
-218.943
 20
-103.815
 30
3.22997e-14
  70
    32
  0
VERTEX
  8
0
  5
2E4F
 10
-218.946
 20
-103.840
 30
3.22997e-14
  70
    32
  0
VERTEX
  8
0
  5
2E50
 10
-218.948
 20
-103.865
 30
3.22996e-14
  70
    32
  0
VERTEX
  8
0
  5
2E51
 10
-218.950
 20
-103.890
 30
3.22995e-14
  70
    32
  0
VERTEX
  8
0
  5
2E52
 10
-218.953
 20
-103.915
 30
3.22994e-14
  70
    32
  0
VERTEX
  8
0
  5
2E53
 10
-218.955
 20
-103.941
 30
3.22993e-14
  70
    32
  0
VERTEX
  8
0
  5
2E54
 10
-218.958
 20
-103.966
 30
3.22992e-14
  70
    32
  0
VERTEX
  8
0
  5
2E55
 10
-218.961
 20
-103.991
 30
3.22991e-14
  70
    32
  0
VERTEX
  8
0
  5
2E56
 10
-218.964
 20
-104.017
 30
3.22990e-14
  70
    32
  0
VERTEX
  8
0
  5
2E57
 10
-218.967
 20
-104.042
 30
3.22989e-14
  70
    32
  0
VERTEX
  8
0
  5
2E58
 10
-218.970
 20
-104.068
 30
3.22987e-14
  70
    32
  0
VERTEX
  8
0
  5
2E59
 10
-218.974
 20
-104.093
 30
3.22986e-14
  70
    32
  0
VERTEX
  8
0
  5
2E5A
 10
-218.977
 20
-104.119
 30
3.22984e-14
  70
    32
  0
VERTEX
  8
0
  5
2E5B
 10
-218.981
 20
-104.145
 30
3.22982e-14
  70
    32
  0
VERTEX
  8
0
  5
2E5C
 10
-218.984
 20
-104.170
 30
3.22980e-14
  70
    32
  0
VERTEX
  8
0
  5
2E5D
 10
-218.988
 20
-104.196
 30
3.22978e-14
  70
    32
  0
VERTEX
  8
0
  5
2E5E
 10
-218.992
 20
-104.222
 30
3.22976e-14
  70
    32
  0
VERTEX
  8
0
  5
2E5F
 10
-218.996
 20
-104.247
 30
3.22973e-14
  70
    32
  0
VERTEX
  8
0
  5
2E60
 10
-219.000
 20
-104.273
 30
3.22971e-14
  70
    32
  0
VERTEX
  8
0
  5
2E61
 10
-219.005
 20
-104.299
 30
3.22968e-14
  70
    32
  0
VERTEX
  8
0
  5
2E62
 10
-219.009
 20
-104.325
 30
3.22965e-14
  70
    32
  0
VERTEX
  8
0
  5
2E63
 10
-219.014
 20
-104.351
 30
3.22962e-14
  70
    32
  0
VERTEX
  8
0
  5
2E64
 10
-219.018
 20
-104.377
 30
3.22959e-14
  70
    32
  0
VERTEX
  8
0
  5
2E65
 10
-219.023
 20
-104.403
 30
3.22955e-14
  70
    32
  0
VERTEX
  8
0
  5
2E66
 10
-219.028
 20
-104.429
 30
3.22952e-14
  70
    32
  0
VERTEX
  8
0
  5
2E67
 10
-219.033
 20
-104.455
 30
3.22948e-14
  70
    32
  0
VERTEX
  8
0
  5
2E68
 10
-219.038
 20
-104.481
 30
3.22944e-14
  70
    32
  0
VERTEX
  8
0
  5
2E69
 10
-219.044
 20
-104.507
 30
3.22940e-14
  70
    32
  0
VERTEX
  8
0
  5
2E6A
 10
-219.049
 20
-104.533
 30
3.22935e-14
  70
    32
  0
VERTEX
  8
0
  5
2E6B
 10
-219.055
 20
-104.559
 30
3.22931e-14
  70
    32
  0
VERTEX
  8
0
  5
2E6C
 10
-219.060
 20
-104.586
 30
3.22926e-14
  70
    32
  0
VERTEX
  8
0
  5
2E6D
 10
-219.066
 20
-104.612
 30
3.22921e-14
  70
    32
  0
VERTEX
  8
0
  5
2E6E
 10
-219.072
 20
-104.638
 30
3.22916e-14
  70
    32
  0
VERTEX
  8
0
  5
2E6F
 10
-219.078
 20
-104.664
 30
3.22910e-14
  70
    32
  0
VERTEX
  8
0
  5
2E70
 10
-219.084
 20
-104.691
 30
3.22904e-14
  70
    32
  0
VERTEX
  8
0
  5
2E71
 10
-219.091
 20
-104.717
 30
3.22898e-14
  70
    32
  0
VERTEX
  8
0
  5
2E72
 10
-219.097
 20
-104.744
 30
3.22892e-14
  70
    32
  0
VERTEX
  8
0
  5
2E73
 10
-219.104
 20
-104.770
 30
3.22886e-14
  70
    32
  0
VERTEX
  8
0
  5
2E74
 10
-219.111
 20
-104.797
 30
3.22879e-14
  70
    32
  0
VERTEX
  8
0
  5
2E75
 10
-219.118
 20
-104.823
 30
3.22872e-14
  70
    32
  0
VERTEX
  8
0
  5
2E76
 10
-219.125
 20
-104.850
 30
3.22865e-14
  70
    32
  0
VERTEX
  8
0
  5
2E77
 10
-219.132
 20
-104.876
 30
3.22857e-14
  70
    32
  0
VERTEX
  8
0
  5
2E78
 10
-219.139
 20
-104.903
 30
3.22850e-14
  70
    32
  0
VERTEX
  8
0
  5
2E79
 10
-219.147
 20
-104.929
 30
3.22842e-14
  70
    32
  0
VERTEX
  8
0
  5
2E7A
 10
-219.154
 20
-104.956
 30
3.22833e-14
  70
    32
  0
VERTEX
  8
0
  5
2E7B
 10
-219.162
 20
-104.983
 30
3.22825e-14
  70
    32
  0
VERTEX
  8
0
  5
2E7C
 10
-219.170
 20
-105.009
 30
3.22816e-14
  70
    32
  0
VERTEX
  8
0
  5
2E7D
 10
-219.178
 20
-105.036
 30
3.22807e-14
  70
    32
  0
VERTEX
  8
0
  5
2E7E
 10
-219.186
 20
-105.063
 30
3.22797e-14
  70
    32
  0
VERTEX
  8
0
  5
2E7F
 10
-219.194
 20
-105.089
 30
3.22788e-14
  70
    32
  0
VERTEX
  8
0
  5
2E80
 10
-219.203
 20
-105.116
 30
3.22777e-14
  70
    32
  0
VERTEX
  8
0
  5
2E81
 10
-219.212
 20
-105.143
 30
3.22767e-14
  70
    32
  0
VERTEX
  8
0
  5
2E82
 10
-219.220
 20
-105.170
 30
3.22756e-14
  70
    32
  0
VERTEX
  8
0
  5
2E83
 10
-219.229
 20
-105.197
 30
3.22745e-14
  70
    32
  0
VERTEX
  8
0
  5
2E84
 10
-219.238
 20
-105.224
 30
3.22734e-14
  70
    32
  0
VERTEX
  8
0
  5
2E85
 10
-219.248
 20
-105.251
 30
3.22722e-14
  70
    32
  0
VERTEX
  8
0
  5
2E86
 10
-219.257
 20
-105.278
 30
3.22710e-14
  70
    32
  0
VERTEX
  8
0
  5
2E87
 10
-219.266
 20
-105.305
 30
3.22698e-14
  70
    32
  0
VERTEX
  8
0
  5
2E88
 10
-219.276
 20
-105.331
 30
3.22685e-14
  70
    32
  0
VERTEX
  8
0
  5
2E89
 10
-219.286
 20
-105.358
 30
3.22672e-14
  70
    32
  0
VERTEX
  8
0
  5
2E8A
 10
-219.296
 20
-105.386
 30
3.22659e-14
  70
    32
  0
VERTEX
  8
0
  5
2E8B
 10
-219.306
 20
-105.413
 30
3.22645e-14
  70
    32
  0
VERTEX
  8
0
  5
2E8C
 10
-219.316
 20
-105.440
 30
3.22631e-14
  70
    32
  0
VERTEX
  8
0
  5
2E8D
 10
-219.327
 20
-105.467
 30
3.22616e-14
  70
    32
  0
VERTEX
  8
0
  5
2E8E
 10
-219.337
 20
-105.494
 30
3.22601e-14
  70
    32
  0
VERTEX
  8
0
  5
2E8F
 10
-219.348
 20
-105.521
 30
3.22586e-14
  70
    32
  0
VERTEX
  8
0
  5
2E90
 10
-219.359
 20
-105.548
 30
3.22570e-14
  70
    32
  0
VERTEX
  8
0
  5
2E91
 10
-219.370
 20
-105.575
 30
3.22554e-14
  70
    32
  0
VERTEX
  8
0
  5
2E92
 10
-219.381
 20
-105.602
 30
3.22538e-14
  70
    32
  0
VERTEX
  8
0
  5
2E93
 10
-219.393
 20
-105.630
 30
3.22521e-14
  70
    32
  0
VERTEX
  8
0
  5
2E94
 10
-219.404
 20
-105.657
 30
3.22504e-14
  70
    32
  0
VERTEX
  8
0
  5
2E95
 10
-219.416
 20
-105.684
 30
3.22486e-14
  70
    32
  0
VERTEX
  8
0
  5
2E96
 10
-219.428
 20
-105.711
 30
3.22468e-14
  70
    32
  0
VERTEX
  8
0
  5
2E97
 10
-219.440
 20
-105.739
 30
3.22449e-14
  70
    32
  0
VERTEX
  8
0
  5
2E98
 10
-219.452
 20
-105.766
 30
3.22430e-14
  70
    32
  0
VERTEX
  8
0
  5
2E99
 10
-219.465
 20
-105.793
 30
3.22411e-14
  70
    32
  0
VERTEX
  8
0
  5
2E9A
 10
-219.477
 20
-105.820
 30
3.22390e-14
  70
    32
  0
VERTEX
  8
0
  5
2E9B
 10
-219.490
 20
-105.848
 30
3.22369e-14
  70
    32
  0
VERTEX
  8
0
  5
2E9C
 10
-219.503
 20
-105.875
 30
3.22348e-14
  70
    32
  0
VERTEX
  8
0
  5
2E9D
 10
-219.516
 20
-105.902
 30
3.22326e-14
  70
    32
  0
VERTEX
  8
0
  5
2E9E
 10
-219.529
 20
-105.930
 30
3.22303e-14
  70
    32
  0
VERTEX
  8
0
  5
2E9F
 10
-219.543
 20
-105.957
 30
3.22279e-14
  70
    32
  0
VERTEX
  8
0
  5
2EA0
 10
-219.556
 20
-105.984
 30
3.22255e-14
  70
    32
  0
VERTEX
  8
0
  5
2EA1
 10
-219.570
 20
-106.012
 30
3.22231e-14
  70
    32
  0
VERTEX
  8
0
  5
2EA2
 10
-219.584
 20
-106.039
 30
3.22205e-14
  70
    32
  0
VERTEX
  8
0
  5
2EA3
 10
-219.598
 20
-106.066
 30
3.22179e-14
  70
    32
  0
VERTEX
  8
0
  5
2EA4
 10
-219.612
 20
-106.094
 30
3.22152e-14
  70
    32
  0
VERTEX
  8
0
  5
2EA5
 10
-219.627
 20
-106.121
 30
3.22125e-14
  70
    32
  0
VERTEX
  8
0
  5
2EA6
 10
-219.641
 20
-106.148
 30
3.22097e-14
  70
    32
  0
VERTEX
  8
0
  5
2EA7
 10
-219.656
 20
-106.176
 30
3.22069e-14
  70
    32
  0
VERTEX
  8
0
  5
2EA8
 10
-219.671
 20
-106.203
 30
3.22039e-14
  70
    32
  0
VERTEX
  8
0
  5
2EA9
 10
-219.686
 20
-106.230
 30
3.22009e-14
  70
    32
  0
VERTEX
  8
0
  5
2EAA
 10
-219.701
 20
-106.257
 30
3.21979e-14
  70
    32
  0
VERTEX
  8
0
  5
2EAB
 10
-219.717
 20
-106.285
 30
3.21947e-14
  70
    32
  0
VERTEX
  8
0
  5
2EAC
 10
-219.733
 20
-106.312
 30
3.21915e-14
  70
    32
  0
VERTEX
  8
0
  5
2EAD
 10
-219.749
 20
-106.339
 30
3.21883e-14
  70
    32
  0
VERTEX
  8
0
  5
2EAE
 10
-219.765
 20
-106.366
 30
3.21850e-14
  70
    32
  0
VERTEX
  8
0
  5
2EAF
 10
-219.781
 20
-106.394
 30
3.21816e-14
  70
    32
  0
VERTEX
  8
0
  5
2EB0
 10
-219.797
 20
-106.421
 30
3.21781e-14
  70
    32
  0
VERTEX
  8
0
  5
2EB1
 10
-219.814
 20
-106.448
 30
3.21746e-14
  70
    32
  0
VERTEX
  8
0
  5
2EB2
 10
-219.831
 20
-106.475
 30
3.21710e-14
  70
    32
  0
VERTEX
  8
0
  5
2EB3
 10
-219.848
 20
-106.502
 30
3.21673e-14
  70
    32
  0
VERTEX
  8
0
  5
2EB4
 10
-219.865
 20
-106.529
 30
3.21636e-14
  70
    32
  0
VERTEX
  8
0
  5
2EB5
 10
-219.882
 20
-106.556
 30
3.21598e-14
  70
    32
  0
VERTEX
  8
0
  5
2EB6
 10
-219.900
 20
-106.584
 30
3.21559e-14
  70
    32
  0
VERTEX
  8
0
  5
2EB7
 10
-219.918
 20
-106.611
 30
3.21520e-14
  70
    32
  0
VERTEX
  8
0
  5
2EB8
 10
-219.936
 20
-106.638
 30
3.21480e-14
  70
    32
  0
VERTEX
  8
0
  5
2EB9
 10
-219.954
 20
-106.665
 30
3.21439e-14
  70
    32
  0
VERTEX
  8
0
  5
2EBA
 10
-219.972
 20
-106.692
 30
3.21398e-14
  70
    32
  0
VERTEX
  8
0
  5
2EBB
 10
-219.991
 20
-106.718
 30
3.21356e-14
  70
    32
  0
VERTEX
  8
0
  5
2EBC
 10
-220.009
 20
-106.745
 30
3.21313e-14
  70
    32
  0
VERTEX
  8
0
  5
2EBD
 10
-220.028
 20
-106.772
 30
3.21269e-14
  70
    32
  0
VERTEX
  8
0
  5
2EBE
 10
-220.048
 20
-106.799
 30
3.21225e-14
  70
    32
  0
VERTEX
  8
0
  5
2EBF
 10
-220.067
 20
-106.826
 30
3.21180e-14
  70
    32
  0
VERTEX
  8
0
  5
2EC0
 10
-220.086
 20
-106.853
 30
3.21134e-14
  70
    32
  0
VERTEX
  8
0
  5
2EC1
 10
-220.106
 20
-106.879
 30
3.21088e-14
  70
    32
  0
VERTEX
  8
0
  5
2EC2
 10
-220.126
 20
-106.906
 30
3.21041e-14
  70
    32
  0
VERTEX
  8
0
  5
2EC3
 10
-220.146
 20
-106.933
 30
3.20993e-14
  70
    32
  0
VERTEX
  8
0
  5
2EC4
 10
-220.167
 20
-106.959
 30
3.20945e-14
  70
    32
  0
VERTEX
  8
0
  5
2EC5
 10
-220.187
 20
-106.986
 30
3.20896e-14
  70
    32
  0
VERTEX
  8
0
  5
2EC6
 10
-220.208
 20
-107.012
 30
3.20846e-14
  70
    32
  0
VERTEX
  8
0
  5
2EC7
 10
-220.229
 20
-107.039
 30
3.20795e-14
  70
    32
  0
VERTEX
  8
0
  5
2EC8
 10
-220.250
 20
-107.065
 30
3.20744e-14
  70
    32
  0
VERTEX
  8
0
  5
2EC9
 10
-220.272
 20
-107.092
 30
3.20692e-14
  70
    32
  0
VERTEX
  8
0
  5
2ECA
 10
-220.294
 20
-107.118
 30
3.20639e-14
  70
    32
  0
VERTEX
  8
0
  5
2ECB
 10
-220.315
 20
-107.144
 30
3.20586e-14
  70
    32
  0
VERTEX
  8
0
  5
2ECC
 10
-220.337
 20
-107.170
 30
3.20531e-14
  70
    32
  0
VERTEX
  8
0
  5
2ECD
 10
-220.360
 20
-107.197
 30
3.20476e-14
  70
    32
  0
VERTEX
  8
0
  5
2ECE
 10
-220.382
 20
-107.223
 30
3.20421e-14
  70
    32
  0
VERTEX
  8
0
  5
2ECF
 10
-220.405
 20
-107.249
 30
3.20364e-14
  70
    32
  0
VERTEX
  8
0
  5
2ED0
 10
-220.428
 20
-107.275
 30
3.20307e-14
  70
    32
  0
VERTEX
  8
0
  5
2ED1
 10
-220.451
 20
-107.301
 30
3.20249e-14
  70
    32
  0
VERTEX
  8
0
  5
2ED2
 10
-220.475
 20
-107.327
 30
3.20190e-14
  70
    32
  0
VERTEX
  8
0
  5
2ED3
 10
-220.498
 20
-107.353
 30
3.20131e-14
  70
    32
  0
VERTEX
  8
0
  5
2ED4
 10
-220.522
 20
-107.378
 30
3.20071e-14
  70
    32
  0
VERTEX
  8
0
  5
2ED5
 10
-220.546
 20
-107.404
 30
3.20010e-14
  70
    32
  0
VERTEX
  8
0
  5
2ED6
 10
-220.570
 20
-107.430
 30
3.19948e-14
  70
    32
  0
VERTEX
  8
0
  5
2ED7
 10
-220.595
 20
-107.455
 30
3.19886e-14
  70
    32
  0
VERTEX
  8
0
  5
2ED8
 10
-220.620
 20
-107.481
 30
3.19823e-14
  70
    32
  0
VERTEX
  8
0
  5
2ED9
 10
-220.645
 20
-107.506
 30
3.19759e-14
  70
    32
  0
VERTEX
  8
0
  5
2EDA
 10
-220.670
 20
-107.532
 30
3.19694e-14
  70
    32
  0
VERTEX
  8
0
  5
2EDB
 10
-220.695
 20
-107.557
 30
3.19629e-14
  70
    32
  0
VERTEX
  8
0
  5
2EDC
 10
-220.721
 20
-107.582
 30
3.19563e-14
  70
    32
  0
VERTEX
  8
0
  5
2EDD
 10
-220.747
 20
-107.608
 30
3.19496e-14
  70
    32
  0
VERTEX
  8
0
  5
2EDE
 10
-220.773
 20
-107.633
 30
3.19428e-14
  70
    32
  0
VERTEX
  8
0
  5
2EDF
 10
-220.799
 20
-107.658
 30
3.19360e-14
  70
    32
  0
VERTEX
  8
0
  5
2EE0
 10
-220.826
 20
-107.683
 30
3.19290e-14
  70
    32
  0
VERTEX
  8
0
  5
2EE1
 10
-220.853
 20
-107.708
 30
3.19222e-14
  70
    32
  0
VERTEX
  8
0
  5
2EE2
 10
-220.880
 20
-107.733
 30
3.19153e-14
  70
    32
  0
VERTEX
  8
0
  5
2EE3
 10
-220.907
 20
-107.757
 30
3.19086e-14
  70
    32
  0
VERTEX
  8
0
  5
2EE4
 10
-220.935
 20
-107.782
 30
3.19018e-14
  70
    32
  0
VERTEX
  8
0
  5
2EE5
 10
-220.962
 20
-107.807
 30
3.18951e-14
  70
    32
  0
VERTEX
  8
0
  5
2EE6
 10
-220.990
 20
-107.831
 30
3.18885e-14
  70
    32
  0
VERTEX
  8
0
  5
2EE7
 10
-221.019
 20
-107.855
 30
3.18818e-14
  70
    32
  0
VERTEX
  8
0
  5
2EE8
 10
-221.047
 20
-107.880
 30
3.18752e-14
  70
    32
  0
VERTEX
  8
0
  5
2EE9
 10
-221.076
 20
-107.904
 30
3.18686e-14
  70
    32
  0
VERTEX
  8
0
  5
2EEA
 10
-221.105
 20
-107.928
 30
3.18620e-14
  70
    32
  0
VERTEX
  8
0
  5
2EEB
 10
-221.134
 20
-107.952
 30
3.18554e-14
  70
    32
  0
VERTEX
  8
0
  5
2EEC
 10
-221.164
 20
-107.976
 30
3.18488e-14
  70
    32
  0
VERTEX
  8
0
  5
2EED
 10
-221.193
 20
-108.000
 30
3.18422e-14
  70
    32
  0
VERTEX
  8
0
  5
2EEE
 10
-221.223
 20
-108.023
 30
3.18357e-14
  70
    32
  0
VERTEX
  8
0
  5
2EEF
 10
-221.253
 20
-108.047
 30
3.18290e-14
  70
    32
  0
VERTEX
  8
0
  5
2EF0
 10
-221.284
 20
-108.070
 30
3.18224e-14
  70
    32
  0
VERTEX
  8
0
  5
2EF1
 10
-221.315
 20
-108.094
 30
3.18158e-14
  70
    32
  0
VERTEX
  8
0
  5
2EF2
 10
-221.346
 20
-108.117
 30
3.18091e-14
  70
    32
  0
VERTEX
  8
0
  5
2EF3
 10
-221.377
 20
-108.140
 30
3.18024e-14
  70
    32
  0
VERTEX
  8
0
  5
2EF4
 10
-221.408
 20
-108.163
 30
3.17956e-14
  70
    32
  0
VERTEX
  8
0
  5
2EF5
 10
-221.440
 20
-108.186
 30
3.17888e-14
  70
    32
  0
VERTEX
  8
0
  5
2EF6
 10
-221.472
 20
-108.208
 30
3.17820e-14
  70
    32
  0
VERTEX
  8
0
  5
2EF7
 10
-221.504
 20
-108.231
 30
3.17751e-14
  70
    32
  0
VERTEX
  8
0
  5
2EF8
 10
-221.537
 20
-108.253
 30
3.17681e-14
  70
    32
  0
VERTEX
  8
0
  5
2EF9
 10
-221.569
 20
-108.275
 30
3.17611e-14
  70
    32
  0
VERTEX
  8
0
  5
2EFA
 10
-221.602
 20
-108.298
 30
3.17540e-14
  70
    32
  0
VERTEX
  8
0
  5
2EFB
 10
-221.636
 20
-108.319
 30
3.17469e-14
  70
    32
  0
VERTEX
  8
0
  5
2EFC
 10
-221.669
 20
-108.341
 30
3.17396e-14
  70
    32
  0
VERTEX
  8
0
  5
2EFD
 10
-221.703
 20
-108.363
 30
3.17323e-14
  70
    32
  0
VERTEX
  8
0
  5
2EFE
 10
-221.737
 20
-108.384
 30
3.17249e-14
  70
    32
  0
VERTEX
  8
0
  5
2EFF
 10
-221.772
 20
-108.406
 30
3.17174e-14
  70
    32
  0
VERTEX
  8
0
  5
2F00
 10
-221.806
 20
-108.427
 30
3.17098e-14
  70
    32
  0
VERTEX
  8
0
  5
2F01
 10
-221.841
 20
-108.448
 30
3.17021e-14
  70
    32
  0
VERTEX
  8
0
  5
2F02
 10
-221.876
 20
-108.469
 30
3.16943e-14
  70
    32
  0
VERTEX
  8
0
  5
2F03
 10
-221.911
 20
-108.489
 30
3.16864e-14
  70
    32
  0
VERTEX
  8
0
  5
2F04
 10
-221.947
 20
-108.510
 30
3.16783e-14
  70
    32
  0
VERTEX
  8
0
  5
2F05
 10
-221.983
 20
-108.530
 30
3.16702e-14
  70
    32
  0
VERTEX
  8
0
  5
2F06
 10
-222.019
 20
-108.550
 30
3.16619e-14
  70
    32
  0
VERTEX
  8
0
  5
2F07
 10
-222.056
 20
-108.570
 30
3.16534e-14
  70
    32
  0
VERTEX
  8
0
  5
2F08
 10
-222.093
 20
-108.590
 30
3.16449e-14
  70
    32
  0
VERTEX
  8
0
  5
2F09
 10
-222.130
 20
-108.610
 30
3.16361e-14
  70
    32
  0
VERTEX
  8
0
  5
2F0A
 10
-222.167
 20
-108.629
 30
3.16273e-14
  70
    32
  0
VERTEX
  8
0
  5
2F0B
 10
-222.204
 20
-108.648
 30
3.16183e-14
  70
    32
  0
VERTEX
  8
0
  5
2F0C
 10
-222.242
 20
-108.667
 30
3.16091e-14
  70
    32
  0
VERTEX
  8
0
  5
2F0D
 10
-222.280
 20
-108.686
 30
3.15998e-14
  70
    32
  0
VERTEX
  8
0
  5
2F0E
 10
-222.319
 20
-108.705
 30
3.15903e-14
  70
    32
  0
VERTEX
  8
0
  5
2F0F
 10
-222.358
 20
-108.723
 30
3.15806e-14
  70
    32
  0
VERTEX
  8
0
  5
2F10
 10
-222.396
 20
-108.741
 30
3.15707e-14
  70
    32
  0
VERTEX
  8
0
  5
2F11
 10
-222.436
 20
-108.759
 30
3.15607e-14
  70
    32
  0
VERTEX
  8
0
  5
2F12
 10
-222.475
 20
-108.777
 30
3.15505e-14
  70
    32
  0
VERTEX
  8
0
  5
2F13
 10
-222.515
 20
-108.795
 30
3.15401e-14
  70
    32
  0
VERTEX
  8
0
  5
2F14
 10
-222.555
 20
-108.812
 30
3.15294e-14
  70
    32
  0
VERTEX
  8
0
  5
2F15
 10
-222.596
 20
-108.829
 30
3.15186e-14
  70
    32
  0
VERTEX
  8
0
  5
2F16
 10
-222.636
 20
-108.846
 30
3.15076e-14
  70
    32
  0
VERTEX
  8
0
  5
2F17
 10
-222.677
 20
-108.863
 30
3.14963e-14
  70
    32
  0
VERTEX
  8
0
  5
2F18
 10
-222.719
 20
-108.879
 30
3.14849e-14
  70
    32
  0
VERTEX
  8
0
  5
2F19
 10
-222.760
 20
-108.895
 30
3.14732e-14
  70
    32
  0
VERTEX
  8
0
  5
2F1A
 10
-222.802
 20
-108.911
 30
3.14616e-14
  70
    32
  0
VERTEX
  8
0
  5
2F1B
 10
-222.844
 20
-108.927
 30
3.14503e-14
  70
    32
  0
VERTEX
  8
0
  5
2F1C
 10
-222.886
 20
-108.942
 30
3.14391e-14
  70
    32
  0
VERTEX
  8
0
  5
2F1D
 10
-222.929
 20
-108.958
 30
3.14282e-14
  70
    32
  0
VERTEX
  8
0
  5
2F1E
 10
-222.972
 20
-108.973
 30
3.14174e-14
  70
    32
  0
VERTEX
  8
0
  5
2F1F
 10
-223.015
 20
-108.987
 30
3.14067e-14
  70
    32
  0
VERTEX
  8
0
  5
2F20
 10
-223.059
 20
-109.002
 30
3.13963e-14
  70
    32
  0
VERTEX
  8
0
  5
2F21
 10
-223.103
 20
-109.016
 30
3.13859e-14
  70
    32
  0
VERTEX
  8
0
  5
2F22
 10
-223.147
 20
-109.030
 30
3.13757e-14
  70
    32
  0
VERTEX
  8
0
  5
2F23
 10
-223.191
 20
-109.044
 30
3.13656e-14
  70
    32
  0
VERTEX
  8
0
  5
2F24
 10
-223.236
 20
-109.057
 30
3.13557e-14
  70
    32
  0
VERTEX
  8
0
  5
2F25
 10
-223.281
 20
-109.070
 30
3.13458e-14
  70
    32
  0
VERTEX
  8
0
  5
2F26
 10
-223.326
 20
-109.083
 30
3.13360e-14
  70
    32
  0
VERTEX
  8
0
  5
2F27
 10
-223.372
 20
-109.095
 30
3.13263e-14
  70
    32
  0
VERTEX
  8
0
  5
2F28
 10
-223.418
 20
-109.107
 30
3.13166e-14
  70
    32
  0
VERTEX
  8
0
  5
2F29
 10
-223.464
 20
-109.119
 30
3.13070e-14
  70
    32
  0
VERTEX
  8
0
  5
2F2A
 10
-223.511
 20
-109.130
 30
3.12975e-14
  70
    32
  0
VERTEX
  8
0
  5
2F2B
 10
-223.557
 20
-109.142
 30
3.12880e-14
  70
    32
  0
VERTEX
  8
0
  5
2F2C
 10
-223.604
 20
-109.152
 30
3.12784e-14
  70
    32
  0
VERTEX
  8
0
  5
2F2D
 10
-223.652
 20
-109.163
 30
3.12689e-14
  70
    32
  0
VERTEX
  8
0
  5
2F2E
 10
-223.699
 20
-109.173
 30
3.12594e-14
  70
    32
  0
VERTEX
  8
0
  5
2F2F
 10
-223.747
 20
-109.183
 30
3.12499e-14
  70
    32
  0
VERTEX
  8
0
  5
2F30
 10
-223.795
 20
-109.192
 30
3.12403e-14
  70
    32
  0
VERTEX
  8
0
  5
2F31
 10
-223.844
 20
-109.201
 30
3.12307e-14
  70
    32
  0
VERTEX
  8
0
  5
2F32
 10
-223.893
 20
-109.210
 30
3.12211e-14
  70
    32
  0
VERTEX
  8
0
  5
2F33
 10
-223.942
 20
-109.218
 30
3.12113e-14
  70
    32
  0
VERTEX
  8
0
  5
2F34
 10
-223.991
 20
-109.226
 30
3.12016e-14
  70
    32
  0
VERTEX
  8
0
  5
2F35
 10
-224.041
 20
-109.234
 30
3.11917e-14
  70
    32
  0
VERTEX
  8
0
  5
2F36
 10
-224.090
 20
-109.241
 30
3.11817e-14
  70
    32
  0
VERTEX
  8
0
  5
2F37
 10
-224.141
 20
-109.248
 30
3.11716e-14
  70
    32
  0
VERTEX
  8
0
  5
2F38
 10
-224.191
 20
-109.254
 30
3.11614e-14
  70
    32
  0
VERTEX
  8
0
  5
2F39
 10
-224.242
 20
-109.260
 30
3.11511e-14
  70
    32
  0
VERTEX
  8
0
  5
2F3A
 10
-224.293
 20
-109.266
 30
3.11406e-14
  70
    32
  0
VERTEX
  8
0
  5
2F3B
 10
-224.344
 20
-109.271
 30
3.11300e-14
  70
    32
  0
VERTEX
  8
0
  5
2F3C
 10
-224.396
 20
-109.275
 30
3.11192e-14
  70
    32
  0
VERTEX
  8
0
  5
2F3D
 10
-224.448
 20
-109.280
 30
3.11082e-14
  70
    32
  0
VERTEX
  8
0
  5
2F3E
 10
-224.500
 20
-109.284
 30
3.10971e-14
  70
    32
  0
VERTEX
  8
0
  5
2F3F
 10
-224.553
 20
-109.287
 30
3.10857e-14
  70
    32
  0
VERTEX
  8
0
  5
2F40
 10
-224.605
 20
-109.290
 30
3.10741e-14
  70
    32
  0
VERTEX
  8
0
  5
2F41
 10
-224.658
 20
-109.292
 30
3.10624e-14
  70
    32
  0
VERTEX
  8
0
  5
2F42
 10
-224.712
 20
-109.294
 30
3.10503e-14
  70
    32
  0
VERTEX
  8
0
  5
2F43
 10
-224.766
 20
-109.296
 30
3.10381e-14
  70
    32
  0
VERTEX
  8
0
  5
2F44
 10
-224.819
 20
-109.297
 30
3.10255e-14
  70
    32
  0
VERTEX
  8
0
  5
2F45
 10
-224.874
 20
-109.298
 30
3.10127e-14
  70
    32
  0
VERTEX
  8
0
  5
2F46
 10
-224.929
 20
-109.298
 30
3.10004e-14
  70
    32
  0
VERTEX
  8
0
  5
2F47
 10
-224.994
 20
-109.298
 30
3.09874e-14
  70
    32
  0
VERTEX
  8
0
  5
2F48
 10
-225.061
 20
-109.298
 30
3.09727e-14
  70
    32
  0
VERTEX
  8
0
  5
2F49
 10
-225.128
 20
-109.298
 30
3.09579e-14
  70
    32
  0
VERTEX
  8
0
  5
2F4A
 10
-225.194
 20
-109.298
 30
3.09432e-14
  70
    32
  0
VERTEX
  8
0
  5
2F4B
 10
-225.261
 20
-109.298
 30
3.09284e-14
  70
    32
  0
VERTEX
  8
0
  5
2F4C
 10
-225.328
 20
-109.298
 30
3.09137e-14
  70
    32
  0
VERTEX
  8
0
  5
2F4D
 10
-225.395
 20
-109.298
 30
3.08989e-14
  70
    32
  0
VERTEX
  8
0
  5
2F4E
 10
-225.462
 20
-109.298
 30
3.08842e-14
  70
    32
  0
VERTEX
  8
0
  5
2F4F
 10
-225.528
 20
-109.298
 30
3.08694e-14
  70
    32
  0
VERTEX
  8
0
  5
2F50
 10
-225.595
 20
-109.298
 30
3.08546e-14
  70
    32
  0
VERTEX
  8
0
  5
2F51
 10
-225.662
 20
-109.298
 30
3.08399e-14
  70
    32
  0
VERTEX
  8
0
  5
2F52
 10
-225.729
 20
-109.298
 30
3.08251e-14
  70
    32
  0
VERTEX
  8
0
  5
2F53
 10
-225.796
 20
-109.298
 30
3.08104e-14
  70
    32
  0
VERTEX
  8
0
  5
2F54
 10
-225.862
 20
-109.298
 30
3.07956e-14
  70
    32
  0
VERTEX
  8
0
  5
2F55
 10
-225.929
 20
-109.298
 30
3.07808e-14
  70
    32
  0
VERTEX
  8
0
  5
2F56
 10
-225.996
 20
-109.298
 30
3.07661e-14
  70
    32
  0
VERTEX
  8
0
  5
2F57
 10
-226.063
 20
-109.298
 30
3.07513e-14
  70
    32
  0
VERTEX
  8
0
  5
2F58
 10
-226.129
 20
-109.298
 30
3.07365e-14
  70
    32
  0
VERTEX
  8
0
  5
2F59
 10
-226.196
 20
-109.298
 30
3.07218e-14
  70
    32
  0
VERTEX
  8
0
  5
2F5A
 10
-226.263
 20
-109.298
 30
3.07070e-14
  70
    32
  0
VERTEX
  8
0
  5
2F5B
 10
-226.330
 20
-109.298
 30
3.06922e-14
  70
    32
  0
VERTEX
  8
0
  5
2F5C
 10
-226.397
 20
-109.298
 30
3.06775e-14
  70
    32
  0
VERTEX
  8
0
  5
2F5D
 10
-226.463
 20
-109.298
 30
3.06627e-14
  70
    32
  0
VERTEX
  8
0
  5
2F5E
 10
-226.530
 20
-109.298
 30
3.06479e-14
  70
    32
  0
VERTEX
  8
0
  5
2F5F
 10
-226.597
 20
-109.298
 30
3.06332e-14
  70
    32
  0
VERTEX
  8
0
  5
2F60
 10
-226.664
 20
-109.298
 30
3.06184e-14
  70
    32
  0
VERTEX
  8
0
  5
2F61
 10
-226.731
 20
-109.298
 30
3.06036e-14
  70
    32
  0
VERTEX
  8
0
  5
2F62
 10
-226.797
 20
-109.298
 30
3.05889e-14
  70
    32
  0
VERTEX
  8
0
  5
2F63
 10
-226.864
 20
-109.298
 30
3.05741e-14
  70
    32
  0
VERTEX
  8
0
  5
2F64
 10
-226.931
 20
-109.298
 30
3.05593e-14
  70
    32
  0
VERTEX
  8
0
  5
2F65
 10
-226.998
 20
-109.298
 30
3.05445e-14
  70
    32
  0
VERTEX
  8
0
  5
2F66
 10
-227.064
 20
-109.298
 30
3.05298e-14
  70
    32
  0
VERTEX
  8
0
  5
2F67
 10
-227.131
 20
-109.298
 30
3.05150e-14
  70
    32
  0
VERTEX
  8
0
  5
2F68
 10
-227.198
 20
-109.298
 30
3.05002e-14
  70
    32
  0
VERTEX
  8
0
  5
2F69
 10
-227.265
 20
-109.298
 30
3.04855e-14
  70
    32
  0
VERTEX
  8
0
  5
2F6A
 10
-227.332
 20
-109.298
 30
3.04707e-14
  70
    32
  0
VERTEX
  8
0
  5
2F6B
 10
-227.398
 20
-109.298
 30
3.04559e-14
  70
    32
  0
VERTEX
  8
0
  5
2F6C
 10
-227.465
 20
-109.298
 30
3.04411e-14
  70
    32
  0
VERTEX
  8
0
  5
2F6D
 10
-227.532
 20
-109.298
 30
3.04263e-14
  70
    32
  0
VERTEX
  8
0
  5
2F6E
 10
-227.599
 20
-109.298
 30
3.04116e-14
  70
    32
  0
VERTEX
  8
0
  5
2F6F
 10
-227.666
 20
-109.298
 30
3.03968e-14
  70
    32
  0
VERTEX
  8
0
  5
2F70
 10
-227.732
 20
-109.298
 30
3.03820e-14
  70
    32
  0
VERTEX
  8
0
  5
2F71
 10
-227.799
 20
-109.298
 30
3.03672e-14
  70
    32
  0
VERTEX
  8
0
  5
2F72
 10
-227.866
 20
-109.298
 30
3.03525e-14
  70
    32
  0
VERTEX
  8
0
  5
2F73
 10
-227.933
 20
-109.298
 30
3.03377e-14
  70
    32
  0
VERTEX
  8
0
  5
2F74
 10
-227.999
 20
-109.298
 30
3.03229e-14
  70
    32
  0
VERTEX
  8
0
  5
2F75
 10
-228.066
 20
-109.298
 30
3.03081e-14
  70
    32
  0
VERTEX
  8
0
  5
2F76
 10
-228.133
 20
-109.298
 30
3.02933e-14
  70
    32
  0
VERTEX
  8
0
  5
2F77
 10
-228.200
 20
-109.298
 30
3.02785e-14
  70
    32
  0
VERTEX
  8
0
  5
2F78
 10
-228.267
 20
-109.298
 30
3.02638e-14
  70
    32
  0
VERTEX
  8
0
  5
2F79
 10
-228.333
 20
-109.298
 30
3.02490e-14
  70
    32
  0
VERTEX
  8
0
  5
2F7A
 10
-228.400
 20
-109.298
 30
3.02342e-14
  70
    32
  0
VERTEX
  8
0
  5
2F7B
 10
-228.467
 20
-109.298
 30
3.02194e-14
  70
    32
  0
VERTEX
  8
0
  5
2F7C
 10
-228.534
 20
-109.298
 30
3.02046e-14
  70
    32
  0
VERTEX
  8
0
  5
2F7D
 10
-228.601
 20
-109.298
 30
3.01898e-14
  70
    32
  0
VERTEX
  8
0
  5
2F7E
 10
-228.667
 20
-109.298
 30
3.01751e-14
  70
    32
  0
VERTEX
  8
0
  5
2F7F
 10
-228.734
 20
-109.298
 30
3.01603e-14
  70
    32
  0
VERTEX
  8
0
  5
2F80
 10
-228.801
 20
-109.298
 30
3.01455e-14
  70
    32
  0
VERTEX
  8
0
  5
2F81
 10
-228.868
 20
-109.298
 30
3.01307e-14
  70
    32
  0
VERTEX
  8
0
  5
2F82
 10
-228.934
 20
-109.298
 30
3.01159e-14
  70
    32
  0
VERTEX
  8
0
  5
2F83
 10
-229.001
 20
-109.298
 30
3.01011e-14
  70
    32
  0
VERTEX
  8
0
  5
2F84
 10
-229.068
 20
-109.298
 30
3.00863e-14
  70
    32
  0
VERTEX
  8
0
  5
2F85
 10
-229.135
 20
-109.298
 30
3.00715e-14
  70
    32
  0
VERTEX
  8
0
  5
2F86
 10
-229.202
 20
-109.298
 30
3.00568e-14
  70
    32
  0
VERTEX
  8
0
  5
2F87
 10
-229.268
 20
-109.298
 30
3.00420e-14
  70
    32
  0
VERTEX
  8
0
  5
2F88
 10
-229.335
 20
-109.298
 30
3.00272e-14
  70
    32
  0
VERTEX
  8
0
  5
2F89
 10
-229.402
 20
-109.298
 30
3.00124e-14
  70
    32
  0
VERTEX
  8
0
  5
2F8A
 10
-229.469
 20
-109.298
 30
2.99976e-14
  70
    32
  0
VERTEX
  8
0
  5
2F8B
 10
-229.536
 20
-109.298
 30
2.99828e-14
  70
    32
  0
VERTEX
  8
0
  5
2F8C
 10
-229.602
 20
-109.298
 30
2.99680e-14
  70
    32
  0
VERTEX
  8
0
  5
2F8D
 10
-229.669
 20
-109.298
 30
2.99532e-14
  70
    32
  0
VERTEX
  8
0
  5
2F8E
 10
-229.736
 20
-109.298
 30
2.99384e-14
  70
    32
  0
VERTEX
  8
0
  5
2F8F
 10
-229.803
 20
-109.298
 30
2.99236e-14
  70
    32
  0
VERTEX
  8
0
  5
2F90
 10
-229.869
 20
-109.298
 30
2.99088e-14
  70
    32
  0
VERTEX
  8
0
  5
2F91
 10
-229.936
 20
-109.298
 30
2.98940e-14
  70
    32
  0
VERTEX
  8
0
  5
2F92
 10
-230.003
 20
-109.298
 30
2.98793e-14
  70
    32
  0
VERTEX
  8
0
  5
2F93
 10
-230.070
 20
-109.298
 30
2.98645e-14
  70
    32
  0
VERTEX
  8
0
  5
2F94
 10
-230.137
 20
-109.298
 30
2.98497e-14
  70
    32
  0
VERTEX
  8
0
  5
2F95
 10
-230.203
 20
-109.298
 30
2.98349e-14
  70
    32
  0
VERTEX
  8
0
  5
2F96
 10
-230.270
 20
-109.298
 30
2.98201e-14
  70
    32
  0
VERTEX
  8
0
  5
2F97
 10
-230.337
 20
-109.298
 30
2.98053e-14
  70
    32
  0
VERTEX
  8
0
  5
2F98
 10
-230.404
 20
-109.298
 30
2.97905e-14
  70
    32
  0
VERTEX
  8
0
  5
2F99
 10
-230.471
 20
-109.298
 30
2.97757e-14
  70
    32
  0
VERTEX
  8
0
  5
2F9A
 10
-230.537
 20
-109.298
 30
2.97609e-14
  70
    32
  0
VERTEX
  8
0
  5
2F9B
 10
-230.604
 20
-109.298
 30
2.97461e-14
  70
    32
  0
VERTEX
  8
0
  5
2F9C
 10
-230.671
 20
-109.298
 30
2.97313e-14
  70
    32
  0
VERTEX
  8
0
  5
2F9D
 10
-230.738
 20
-109.298
 30
2.97165e-14
  70
    32
  0
VERTEX
  8
0
  5
2F9E
 10
-230.804
 20
-109.298
 30
2.97017e-14
  70
    32
  0
VERTEX
  8
0
  5
2F9F
 10
-230.871
 20
-109.298
 30
2.96869e-14
  70
    32
  0
VERTEX
  8
0
  5
2FA0
 10
-230.938
 20
-109.298
 30
2.96721e-14
  70
    32
  0
VERTEX
  8
0
  5
2FA1
 10
-231.005
 20
-109.298
 30
2.96573e-14
  70
    32
  0
VERTEX
  8
0
  5
2FA2
 10
-231.072
 20
-109.298
 30
2.96425e-14
  70
    32
  0
VERTEX
  8
0
  5
2FA3
 10
-231.138
 20
-109.298
 30
2.96277e-14
  70
    32
  0
VERTEX
  8
0
  5
2FA4
 10
-231.205
 20
-109.298
 30
2.96129e-14
  70
    32
  0
VERTEX
  8
0
  5
2FA5
 10
-231.272
 20
-109.298
 30
2.95981e-14
  70
    32
  0
VERTEX
  8
0
  5
2FA6
 10
-231.339
 20
-109.298
 30
2.95833e-14
  70
    32
  0
VERTEX
  8
0
  5
2FA7
 10
-231.406
 20
-109.298
 30
2.95685e-14
  70
    32
  0
VERTEX
  8
0
  5
2FA8
 10
-231.472
 20
-109.298
 30
2.95537e-14
  70
    32
  0
VERTEX
  8
0
  5
2FA9
 10
-231.539
 20
-109.298
 30
2.95389e-14
  70
    32
  0
VERTEX
  8
0
  5
2FAA
 10
-231.606
 20
-109.298
 30
2.95241e-14
  70
    32
  0
VERTEX
  8
0
  5
2FAB
 10
-231.673
 20
-109.298
 30
2.95093e-14
  70
    32
  0
VERTEX
  8
0
  5
2FAC
 10
-231.739
 20
-109.298
 30
2.94945e-14
  70
    32
  0
VERTEX
  8
0
  5
2FAD
 10
-231.806
 20
-109.298
 30
2.94797e-14
  70
    32
  0
VERTEX
  8
0
  5
2FAE
 10
-231.873
 20
-109.298
 30
2.94649e-14
  70
    32
  0
VERTEX
  8
0
  5
2FAF
 10
-231.940
 20
-109.298
 30
2.94501e-14
  70
    32
  0
VERTEX
  8
0
  5
2FB0
 10
-232.007
 20
-109.298
 30
2.94353e-14
  70
    32
  0
VERTEX
  8
0
  5
2FB1
 10
-232.073
 20
-109.298
 30
2.94205e-14
  70
    32
  0
VERTEX
  8
0
  5
2FB2
 10
-232.140
 20
-109.298
 30
2.94057e-14
  70
    32
  0
VERTEX
  8
0
  5
2FB3
 10
-232.207
 20
-109.298
 30
2.93909e-14
  70
    32
  0
VERTEX
  8
0
  5
2FB4
 10
-232.274
 20
-109.298
 30
2.93761e-14
  70
    32
  0
VERTEX
  8
0
  5
2FB5
 10
-232.341
 20
-109.298
 30
2.93613e-14
  70
    32
  0
VERTEX
  8
0
  5
2FB6
 10
-232.407
 20
-109.298
 30
2.93465e-14
  70
    32
  0
VERTEX
  8
0
  5
2FB7
 10
-232.474
 20
-109.298
 30
2.93317e-14
  70
    32
  0
VERTEX
  8
0
  5
2FB8
 10
-232.541
 20
-109.298
 30
2.93169e-14
  70
    32
  0
VERTEX
  8
0
  5
2FB9
 10
-232.608
 20
-109.298
 30
2.93021e-14
  70
    32
  0
VERTEX
  8
0
  5
2FBA
 10
-232.674
 20
-109.298
 30
2.92873e-14
  70
    32
  0
VERTEX
  8
0
  5
2FBB
 10
-232.741
 20
-109.298
 30
2.92725e-14
  70
    32
  0
VERTEX
  8
0
  5
2FBC
 10
-232.808
 20
-109.298
 30
2.92576e-14
  70
    32
  0
VERTEX
  8
0
  5
2FBD
 10
-232.875
 20
-109.298
 30
2.92428e-14
  70
    32
  0
VERTEX
  8
0
  5
2FBE
 10
-232.942
 20
-109.298
 30
2.92280e-14
  70
    32
  0
VERTEX
  8
0
  5
2FBF
 10
-233.008
 20
-109.298
 30
2.92132e-14
  70
    32
  0
VERTEX
  8
0
  5
2FC0
 10
-233.075
 20
-109.298
 30
2.91984e-14
  70
    32
  0
VERTEX
  8
0
  5
2FC1
 10
-233.142
 20
-109.298
 30
2.91836e-14
  70
    32
  0
VERTEX
  8
0
  5
2FC2
 10
-233.209
 20
-109.298
 30
2.91688e-14
  70
    32
  0
VERTEX
  8
0
  5
2FC3
 10
-233.276
 20
-109.298
 30
2.91540e-14
  70
    32
  0
VERTEX
  8
0
  5
2FC4
 10
-233.342
 20
-109.298
 30
2.91392e-14
  70
    32
  0
VERTEX
  8
0
  5
2FC5
 10
-233.409
 20
-109.298
 30
2.91244e-14
  70
    32
  0
VERTEX
  8
0
  5
2FC6
 10
-233.476
 20
-109.298
 30
2.91096e-14
  70
    32
  0
VERTEX
  8
0
  5
2FC7
 10
-233.543
 20
-109.298
 30
2.90948e-14
  70
    32
  0
VERTEX
  8
0
  5
2FC8
 10
-233.609
 20
-109.298
 30
2.90800e-14
  70
    32
  0
VERTEX
  8
0
  5
2FC9
 10
-233.676
 20
-109.298
 30
2.90652e-14
  70
    32
  0
VERTEX
  8
0
  5
2FCA
 10
-233.743
 20
-109.298
 30
2.90504e-14
  70
    32
  0
VERTEX
  8
0
  5
2FCB
 10
-233.810
 20
-109.298
 30
2.90356e-14
  70
    32
  0
VERTEX
  8
0
  5
2FCC
 10
-233.877
 20
-109.298
 30
2.90208e-14
  70
    32
  0
VERTEX
  8
0
  5
2FCD
 10
-233.943
 20
-109.298
 30
2.90060e-14
  70
    32
  0
VERTEX
  8
0
  5
2FCE
 10
-234.010
 20
-109.298
 30
2.89912e-14
  70
    32
  0
VERTEX
  8
0
  5
2FCF
 10
-234.077
 20
-109.298
 30
2.89763e-14
  70
    32
  0
VERTEX
  8
0
  5
2FD0
 10
-234.144
 20
-109.298
 30
2.89615e-14
  70
    32
  0
VERTEX
  8
0
  5
2FD1
 10
-234.211
 20
-109.298
 30
2.89467e-14
  70
    32
  0
VERTEX
  8
0
  5
2FD2
 10
-234.277
 20
-109.298
 30
2.89319e-14
  70
    32
  0
VERTEX
  8
0
  5
2FD3
 10
-234.344
 20
-109.298
 30
2.89171e-14
  70
    32
  0
VERTEX
  8
0
  5
2FD4
 10
-234.411
 20
-109.298
 30
2.89023e-14
  70
    32
  0
VERTEX
  8
0
  5
2FD5
 10
-234.478
 20
-109.298
 30
2.88825e-14
  70
    32
  0
VERTEX
  8
0
  5
2FD6
 10
-234.545
 20
-109.298
 30
2.88624e-14
  70
    32
  0
VERTEX
  8
0
  5
2FD7
 10
-234.613
 20
-109.298
 30
2.88429e-14
  70
    32
  0
VERTEX
  8
0
  5
2FD8
 10
-234.681
 20
-109.298
 30
2.88241e-14
  70
    32
  0
VERTEX
  8
0
  5
2FD9
 10
-234.750
 20
-109.298
 30
2.88059e-14
  70
    32
  0
VERTEX
  8
0
  5
2FDA
 10
-234.819
 20
-109.298
 30
2.87882e-14
  70
    32
  0
VERTEX
  8
0
  5
2FDB
 10
-234.888
 20
-109.298
 30
2.87710e-14
  70
    32
  0
VERTEX
  8
0
  5
2FDC
 10
-234.958
 20
-109.298
 30
2.87543e-14
  70
    32
  0
VERTEX
  8
0
  5
2FDD
 10
-235.029
 20
-109.298
 30
2.87380e-14
  70
    32
  0
VERTEX
  8
0
  5
2FDE
 10
-235.100
 20
-109.298
 30
2.87221e-14
  70
    32
  0
VERTEX
  8
0
  5
2FDF
 10
-235.171
 20
-109.298
 30
2.87066e-14
  70
    32
  0
VERTEX
  8
0
  5
2FE0
 10
-235.243
 20
-109.298
 30
2.86914e-14
  70
    32
  0
VERTEX
  8
0
  5
2FE1
 10
-235.315
 20
-109.298
 30
2.86764e-14
  70
    32
  0
VERTEX
  8
0
  5
2FE2
 10
-235.388
 20
-109.298
 30
2.86617e-14
  70
    32
  0
VERTEX
  8
0
  5
2FE3
 10
-235.461
 20
-109.298
 30
2.86472e-14
  70
    32
  0
VERTEX
  8
0
  5
2FE4
 10
-235.535
 20
-109.298
 30
2.86328e-14
  70
    32
  0
VERTEX
  8
0
  5
2FE5
 10
-235.609
 20
-109.298
 30
2.86186e-14
  70
    32
  0
VERTEX
  8
0
  5
2FE6
 10
-235.684
 20
-109.298
 30
2.86044e-14
  70
    32
  0
VERTEX
  8
0
  5
2FE7
 10
-235.759
 20
-109.298
 30
2.85902e-14
  70
    32
  0
VERTEX
  8
0
  5
2FE8
 10
-235.835
 20
-109.298
 30
2.85761e-14
  70
    32
  0
VERTEX
  8
0
  5
2FE9
 10
-235.911
 20
-109.298
 30
2.85619e-14
  70
    32
  0
VERTEX
  8
0
  5
2FEA
 10
-235.988
 20
-109.298
 30
2.85476e-14
  70
    32
  0
VERTEX
  8
0
  5
2FEB
 10
-236.065
 20
-109.298
 30
2.85332e-14
  70
    32
  0
VERTEX
  8
0
  5
2FEC
 10
-236.143
 20
-109.298
 30
2.85186e-14
  70
    32
  0
VERTEX
  8
0
  5
2FED
 10
-236.221
 20
-109.298
 30
2.85038e-14
  70
    32
  0
VERTEX
  8
0
  5
2FEE
 10
-236.300
 20
-109.298
 30
2.84888e-14
  70
    32
  0
VERTEX
  8
0
  5
2FEF
 10
-236.379
 20
-109.298
 30
2.84735e-14
  70
    32
  0
VERTEX
  8
0
  5
2FF0
 10
-236.459
 20
-109.298
 30
2.84579e-14
  70
    32
  0
VERTEX
  8
0
  5
2FF1
 10
-236.540
 20
-109.298
 30
2.84417e-14
  70
    32
  0
VERTEX
  8
0
  5
2FF2
 10
-236.622
 20
-109.298
 30
2.84226e-14
  70
    32
  0
VERTEX
  8
0
  5
2FF3
 10
-236.706
 20
-109.298
 30
2.84006e-14
  70
    32
  0
VERTEX
  8
0
  5
2FF4
 10
-236.791
 20
-109.298
 30
2.83765e-14
  70
    32
  0
VERTEX
  8
0
  5
2FF5
 10
-236.878
 20
-109.298
 30
2.83510e-14
  70
    32
  0
VERTEX
  8
0
  5
2FF6
 10
-236.967
 20
-109.298
 30
2.83250e-14
  70
    32
  0
VERTEX
  8
0
  5
2FF7
 10
-237.058
 20
-109.298
 30
2.82990e-14
  70
    32
  0
VERTEX
  8
0
  5
2FF8
 10
-237.151
 20
-109.298
 30
2.82740e-14
  70
    32
  0
VERTEX
  8
0
  5
2FF9
 10
-237.246
 20
-109.298
 30
2.82506e-14
  70
    32
  0
VERTEX
  8
0
  5
2FFA
 10
-237.342
 20
-109.298
 30
2.82295e-14
  70
    32
  0
VERTEX
  8
0
  5
2FFB
 10
-237.432
 20
-109.298
 30
2.82106e-14
  70
    32
  0
VERTEX
  8
0
  5
2FFC
 10
-237.514
 20
-109.298
 30
2.81935e-14
  70
    32
  0
VERTEX
  8
0
  5
2FFD
 10
-237.589
 20
-109.298
 30
2.81782e-14
  70
    32
  0
VERTEX
  8
0
  5
2FFE
 10
-237.657
 20
-109.298
 30
2.81645e-14
  70
    32
  0
VERTEX
  8
0
  5
2FFF
 10
-237.719
 20
-109.298
 30
2.81523e-14
  70
    32
  0
VERTEX
  8
0
  5
3000
 10
-237.776
 20
-109.298
 30
2.81414e-14
  70
    32
  0
VERTEX
  8
0
  5
3001
 10
-237.827
 20
-109.298
 30
2.81317e-14
  70
    32
  0
VERTEX
  8
0
  5
3002
 10
-237.874
 20
-109.298
 30
2.81230e-14
  70
    32
  0
VERTEX
  8
0
  5
3003
 10
-237.917
 20
-109.298
 30
2.81153e-14
  70
    32
  0
VERTEX
  8
0
  5
3004
 10
-237.956
 20
-109.298
 30
2.81083e-14
  70
    32
  0
VERTEX
  8
0
  5
3005
 10
-237.992
 20
-109.298
 30
2.81019e-14
  70
    32
  0
VERTEX
  8
0
  5
3006
 10
-238.026
 20
-109.297
 30
2.80961e-14
  70
    32
  0
VERTEX
  8
0
  5
3007
 10
-238.058
 20
-109.297
 30
2.80905e-14
  70
    32
  0
VERTEX
  8
0
  5
3008
 10
-238.089
 20
-109.296
 30
2.80852e-14
  70
    32
  0
VERTEX
  8
0
  5
3009
 10
-238.118
 20
-109.295
 30
2.80799e-14
  70
    32
  0
VERTEX
  8
0
  5
300A
 10
-238.148
 20
-109.294
 30
2.80746e-14
  70
    32
  0
VERTEX
  8
0
  5
300B
 10
-238.177
 20
-109.293
 30
2.80690e-14
  70
    32
  0
VERTEX
  8
0
  5
300C
 10
-238.207
 20
-109.291
 30
2.80631e-14
  70
    32
  0
VERTEX
  8
0
  5
300D
 10
-238.239
 20
-109.290
 30
2.80567e-14
  70
    32
  0
VERTEX
  8
0
  5
300E
 10
-238.271
 20
-109.288
 30
2.80498e-14
  70
    32
  0
VERTEX
  8
0
  5
300F
 10
-238.305
 20
-109.286
 30
2.80427e-14
  70
    32
  0
VERTEX
  8
0
  5
3010
 10
-238.338
 20
-109.284
 30
2.80355e-14
  70
    32
  0
VERTEX
  8
0
  5
3011
 10
-238.371
 20
-109.281
 30
2.80283e-14
  70
    32
  0
VERTEX
  8
0
  5
3012
 10
-238.405
 20
-109.279
 30
2.80210e-14
  70
    32
  0
VERTEX
  8
0
  5
3013
 10
-238.438
 20
-109.276
 30
2.80136e-14
  70
    32
  0
VERTEX
  8
0
  5
3014
 10
-238.472
 20
-109.273
 30
2.80062e-14
  70
    32
  0
VERTEX
  8
0
  5
3015
 10
-238.505
 20
-109.270
 30
2.79988e-14
  70
    32
  0
VERTEX
  8
0
  5
3016
 10
-238.539
 20
-109.266
 30
2.79913e-14
  70
    32
  0
VERTEX
  8
0
  5
3017
 10
-238.573
 20
-109.263
 30
2.79837e-14
  70
    32
  0
VERTEX
  8
0
  5
3018
 10
-238.606
 20
-109.259
 30
2.79761e-14
  70
    32
  0
VERTEX
  8
0
  5
3019
 10
-238.640
 20
-109.255
 30
2.79685e-14
  70
    32
  0
VERTEX
  8
0
  5
301A
 10
-238.674
 20
-109.251
 30
2.79608e-14
  70
    32
  0
VERTEX
  8
0
  5
301B
 10
-238.708
 20
-109.247
 30
2.79530e-14
  70
    32
  0
VERTEX
  8
0
  5
301C
 10
-238.742
 20
-109.242
 30
2.79452e-14
  70
    32
  0
VERTEX
  8
0
  5
301D
 10
-238.777
 20
-109.237
 30
2.79374e-14
  70
    32
  0
VERTEX
  8
0
  5
301E
 10
-238.811
 20
-109.232
 30
2.79296e-14
  70
    32
  0
VERTEX
  8
0
  5
301F
 10
-238.845
 20
-109.227
 30
2.79217e-14
  70
    32
  0
VERTEX
  8
0
  5
3020
 10
-238.879
 20
-109.222
 30
2.79137e-14
  70
    32
  0
VERTEX
  8
0
  5
3021
 10
-238.914
 20
-109.216
 30
2.79058e-14
  70
    32
  0
VERTEX
  8
0
  5
3022
 10
-238.948
 20
-109.210
 30
2.78978e-14
  70
    32
  0
VERTEX
  8
0
  5
3023
 10
-238.983
 20
-109.204
 30
2.78897e-14
  70
    32
  0
VERTEX
  8
0
  5
3024
 10
-239.017
 20
-109.198
 30
2.78817e-14
  70
    32
  0
VERTEX
  8
0
  5
3025
 10
-239.052
 20
-109.191
 30
2.78736e-14
  70
    32
  0
VERTEX
  8
0
  5
3026
 10
-239.086
 20
-109.184
 30
2.78655e-14
  70
    32
  0
VERTEX
  8
0
  5
3027
 10
-239.121
 20
-109.178
 30
2.78574e-14
  70
    32
  0
VERTEX
  8
0
  5
3028
 10
-239.156
 20
-109.170
 30
2.78493e-14
  70
    32
  0
VERTEX
  8
0
  5
3029
 10
-239.191
 20
-109.163
 30
2.78411e-14
  70
    32
  0
VERTEX
  8
0
  5
302A
 10
-239.226
 20
-109.155
 30
2.78329e-14
  70
    32
  0
VERTEX
  8
0
  5
302B
 10
-239.260
 20
-109.147
 30
2.78247e-14
  70
    32
  0
VERTEX
  8
0
  5
302C
 10
-239.295
 20
-109.139
 30
2.78165e-14
  70
    32
  0
VERTEX
  8
0
  5
302D
 10
-239.330
 20
-109.131
 30
2.78083e-14
  70
    32
  0
VERTEX
  8
0
  5
302E
 10
-239.365
 20
-109.122
 30
2.78001e-14
  70
    32
  0
VERTEX
  8
0
  5
302F
 10
-239.401
 20
-109.114
 30
2.77919e-14
  70
    32
  0
VERTEX
  8
0
  5
3030
 10
-239.436
 20
-109.105
 30
2.77836e-14
  70
    32
  0
VERTEX
  8
0
  5
3031
 10
-239.471
 20
-109.095
 30
2.77754e-14
  70
    32
  0
VERTEX
  8
0
  5
3032
 10
-239.506
 20
-109.086
 30
2.77671e-14
  70
    32
  0
VERTEX
  8
0
  5
3033
 10
-239.541
 20
-109.076
 30
2.77589e-14
  70
    32
  0
VERTEX
  8
0
  5
3034
 10
-239.577
 20
-109.066
 30
2.77506e-14
  70
    32
  0
VERTEX
  8
0
  5
3035
 10
-239.612
 20
-109.056
 30
2.77424e-14
  70
    32
  0
VERTEX
  8
0
  5
3036
 10
-239.647
 20
-109.045
 30
2.77342e-14
  70
    32
  0
VERTEX
  8
0
  5
3037
 10
-239.683
 20
-109.034
 30
2.77259e-14
  70
    32
  0
VERTEX
  8
0
  5
3038
 10
-239.718
 20
-109.023
 30
2.77177e-14
  70
    32
  0
VERTEX
  8
0
  5
3039
 10
-239.754
 20
-109.012
 30
2.77095e-14
  70
    32
  0
VERTEX
  8
0
  5
303A
 10
-239.789
 20
-109.001
 30
2.77013e-14
  70
    32
  0
VERTEX
  8
0
  5
303B
 10
-239.825
 20
-108.989
 30
2.76931e-14
  70
    32
  0
VERTEX
  8
0
  5
303C
 10
-239.860
 20
-108.977
 30
2.76850e-14
  70
    32
  0
VERTEX
  8
0
  5
303D
 10
-239.896
 20
-108.964
 30
2.76768e-14
  70
    32
  0
VERTEX
  8
0
  5
303E
 10
-239.932
 20
-108.952
 30
2.76687e-14
  70
    32
  0
VERTEX
  8
0
  5
303F
 10
-239.967
 20
-108.939
 30
2.76606e-14
  70
    32
  0
VERTEX
  8
0
  5
3040
 10
-240.003
 20
-108.926
 30
2.76525e-14
  70
    32
  0
VERTEX
  8
0
  5
3041
 10
-240.039
 20
-108.912
 30
2.76444e-14
  70
    32
  0
VERTEX
  8
0
  5
3042
 10
-240.074
 20
-108.899
 30
2.76364e-14
  70
    32
  0
VERTEX
  8
0
  5
3043
 10
-240.110
 20
-108.885
 30
2.76284e-14
  70
    32
  0
VERTEX
  8
0
  5
3044
 10
-240.146
 20
-108.871
 30
2.76204e-14
  70
    32
  0
VERTEX
  8
0
  5
3045
 10
-240.182
 20
-108.856
 30
2.76125e-14
  70
    32
  0
VERTEX
  8
0
  5
3046
 10
-240.218
 20
-108.841
 30
2.76046e-14
  70
    32
  0
VERTEX
  8
0
  5
3047
 10
-240.254
 20
-108.826
 30
2.75967e-14
  70
    32
  0
VERTEX
  8
0
  5
3048
 10
-240.289
 20
-108.811
 30
2.75888e-14
  70
    32
  0
VERTEX
  8
0
  5
3049
 10
-240.325
 20
-108.796
 30
2.75810e-14
  70
    32
  0
VERTEX
  8
0
  5
304A
 10
-240.361
 20
-108.780
 30
2.75733e-14
  70
    32
  0
VERTEX
  8
0
  5
304B
 10
-240.397
 20
-108.763
 30
2.75656e-14
  70
    32
  0
VERTEX
  8
0
  5
304C
 10
-240.433
 20
-108.747
 30
2.75579e-14
  70
    32
  0
VERTEX
  8
0
  5
304D
 10
-240.469
 20
-108.730
 30
2.75503e-14
  70
    32
  0
VERTEX
  8
0
  5
304E
 10
-240.505
 20
-108.713
 30
2.75427e-14
  70
    32
  0
VERTEX
  8
0
  5
304F
 10
-240.541
 20
-108.696
 30
2.75351e-14
  70
    32
  0
VERTEX
  8
0
  5
3050
 10
-240.577
 20
-108.678
 30
2.75276e-14
  70
    32
  0
VERTEX
  8
0
  5
3051
 10
-240.613
 20
-108.660
 30
2.75198e-14
  70
    32
  0
VERTEX
  8
0
  5
3052
 10
-240.649
 20
-108.642
 30
2.75120e-14
  70
    32
  0
VERTEX
  8
0
  5
3053
 10
-240.685
 20
-108.624
 30
2.75041e-14
  70
    32
  0
VERTEX
  8
0
  5
3054
 10
-240.721
 20
-108.605
 30
2.74960e-14
  70
    32
  0
VERTEX
  8
0
  5
3055
 10
-240.757
 20
-108.586
 30
2.74878e-14
  70
    32
  0
VERTEX
  8
0
  5
3056
 10
-240.793
 20
-108.566
 30
2.74796e-14
  70
    32
  0
VERTEX
  8
0
  5
3057
 10
-240.829
 20
-108.547
 30
2.74713e-14
  70
    32
  0
VERTEX
  8
0
  5
3058
 10
-240.865
 20
-108.527
 30
2.74629e-14
  70
    32
  0
VERTEX
  8
0
  5
3059
 10
-240.901
 20
-108.506
 30
2.74544e-14
  70
    32
  0
VERTEX
  8
0
  5
305A
 10
-240.936
 20
-108.486
 30
2.74458e-14
  70
    32
  0
VERTEX
  8
0
  5
305B
 10
-240.972
 20
-108.465
 30
2.74372e-14
  70
    32
  0
VERTEX
  8
0
  5
305C
 10
-241.008
 20
-108.444
 30
2.74285e-14
  70
    32
  0
VERTEX
  8
0
  5
305D
 10
-241.044
 20
-108.422
 30
2.74197e-14
  70
    32
  0
VERTEX
  8
0
  5
305E
 10
-241.079
 20
-108.400
 30
2.74110e-14
  70
    32
  0
VERTEX
  8
0
  5
305F
 10
-241.115
 20
-108.378
 30
2.74021e-14
  70
    32
  0
VERTEX
  8
0
  5
3060
 10
-241.151
 20
-108.356
 30
2.73932e-14
  70
    32
  0
VERTEX
  8
0
  5
3061
 10
-241.186
 20
-108.333
 30
2.73843e-14
  70
    32
  0
VERTEX
  8
0
  5
3062
 10
-241.222
 20
-108.310
 30
2.73754e-14
  70
    32
  0
VERTEX
  8
0
  5
3063
 10
-241.257
 20
-108.286
 30
2.73665e-14
  70
    32
  0
VERTEX
  8
0
  5
3064
 10
-241.293
 20
-108.262
 30
2.73575e-14
  70
    32
  0
VERTEX
  8
0
  5
3065
 10
-241.328
 20
-108.238
 30
2.73485e-14
  70
    32
  0
VERTEX
  8
0
  5
3066
 10
-241.363
 20
-108.214
 30
2.73396e-14
  70
    32
  0
VERTEX
  8
0
  5
3067
 10
-241.398
 20
-108.189
 30
2.73306e-14
  70
    32
  0
VERTEX
  8
0
  5
3068
 10
-241.434
 20
-108.164
 30
2.73216e-14
  70
    32
  0
VERTEX
  8
0
  5
3069
 10
-241.469
 20
-108.138
 30
2.73127e-14
  70
    32
  0
VERTEX
  8
0
  5
306A
 10
-241.504
 20
-108.112
 30
2.73037e-14
  70
    32
  0
VERTEX
  8
0
  5
306B
 10
-241.539
 20
-108.086
 30
2.72948e-14
  70
    32
  0
VERTEX
  8
0
  5
306C
 10
-241.574
 20
-108.059
 30
2.72860e-14
  70
    32
  0
VERTEX
  8
0
  5
306D
 10
-241.608
 20
-108.033
 30
2.72771e-14
  70
    32
  0
VERTEX
  8
0
  5
306E
 10
-241.643
 20
-108.005
 30
2.72683e-14
  70
    32
  0
VERTEX
  8
0
  5
306F
 10
-241.678
 20
-107.978
 30
2.72596e-14
  70
    32
  0
VERTEX
  8
0
  5
3070
 10
-241.712
 20
-107.950
 30
2.72509e-14
  70
    32
  0
VERTEX
  8
0
  5
3071
 10
-241.747
 20
-107.921
 30
2.72422e-14
  70
    32
  0
VERTEX
  8
0
  5
3072
 10
-241.781
 20
-107.893
 30
2.72337e-14
  70
    32
  0
VERTEX
  8
0
  5
3073
 10
-241.815
 20
-107.864
 30
2.72252e-14
  70
    32
  0
VERTEX
  8
0
  5
3074
 10
-241.849
 20
-107.834
 30
2.72167e-14
  70
    32
  0
VERTEX
  8
0
  5
3075
 10
-241.883
 20
-107.805
 30
2.72084e-14
  70
    32
  0
VERTEX
  8
0
  5
3076
 10
-241.917
 20
-107.775
 30
2.72001e-14
  70
    32
  0
VERTEX
  8
0
  5
3077
 10
-241.951
 20
-107.744
 30
2.71920e-14
  70
    32
  0
VERTEX
  8
0
  5
3078
 10
-241.985
 20
-107.713
 30
2.71839e-14
  70
    32
  0
VERTEX
  8
0
  5
3079
 10
-242.018
 20
-107.682
 30
2.71759e-14
  70
    32
  0
VERTEX
  8
0
  5
307A
 10
-242.052
 20
-107.650
 30
2.71681e-14
  70
    32
  0
VERTEX
  8
0
  5
307B
 10
-242.085
 20
-107.618
 30
2.71603e-14
  70
    32
  0
VERTEX
  8
0
  5
307C
 10
-242.119
 20
-107.586
 30
2.71527e-14
  70
    32
  0
VERTEX
  8
0
  5
307D
 10
-242.152
 20
-107.553
 30
2.71452e-14
  70
    32
  0
VERTEX
  8
0
  5
307E
 10
-242.185
 20
-107.520
 30
2.71379e-14
  70
    32
  0
VERTEX
  8
0
  5
307F
 10
-242.218
 20
-107.487
 30
2.71307e-14
  70
    32
  0
VERTEX
  8
0
  5
3080
 10
-242.250
 20
-107.453
 30
2.71236e-14
  70
    32
  0
VERTEX
  8
0
  5
3081
 10
-242.283
 20
-107.418
 30
2.71167e-14
  70
    32
  0
VERTEX
  8
0
  5
3082
 10
-242.315
 20
-107.384
 30
2.71099e-14
  70
    32
  0
VERTEX
  8
0
  5
3083
 10
-242.348
 20
-107.349
 30
2.71033e-14
  70
    32
  0
VERTEX
  8
0
  5
3084
 10
-242.380
 20
-107.313
 30
2.70968e-14
  70
    32
  0
VERTEX
  8
0
  5
3085
 10
-242.412
 20
-107.277
 30
2.70906e-14
  70
    32
  0
VERTEX
  8
0
  5
3086
 10
-242.444
 20
-107.241
 30
2.70844e-14
  70
    32
  0
VERTEX
  8
0
  5
3087
 10
-242.475
 20
-107.204
 30
2.70783e-14
  70
    32
  0
VERTEX
  8
0
  5
3088
 10
-242.507
 20
-107.167
 30
2.70721e-14
  70
    32
  0
VERTEX
  8
0
  5
3089
 10
-242.538
 20
-107.130
 30
2.70658e-14
  70
    32
  0
VERTEX
  8
0
  5
308A
 10
-242.570
 20
-107.092
 30
2.70596e-14
  70
    32
  0
VERTEX
  8
0
  5
308B
 10
-242.601
 20
-107.054
 30
2.70533e-14
  70
    32
  0
VERTEX
  8
0
  5
308C
 10
-242.631
 20
-107.015
 30
2.70471e-14
  70
    32
  0
VERTEX
  8
0
  5
308D
 10
-242.662
 20
-106.976
 30
2.70408e-14
  70
    32
  0
VERTEX
  8
0
  5
308E
 10
-242.692
 20
-106.937
 30
2.70345e-14
  70
    32
  0
VERTEX
  8
0
  5
308F
 10
-242.723
 20
-106.897
 30
2.70282e-14
  70
    32
  0
VERTEX
  8
0
  5
3090
 10
-242.753
 20
-106.857
 30
2.70219e-14
  70
    32
  0
VERTEX
  8
0
  5
3091
 10
-242.782
 20
-106.816
 30
2.70156e-14
  70
    32
  0
VERTEX
  8
0
  5
3092
 10
-242.812
 20
-106.775
 30
2.70093e-14
  70
    32
  0
VERTEX
  8
0
  5
3093
 10
-242.841
 20
-106.733
 30
2.70031e-14
  70
    32
  0
VERTEX
  8
0
  5
3094
 10
-242.870
 20
-106.691
 30
2.69968e-14
  70
    32
  0
VERTEX
  8
0
  5
3095
 10
-242.899
 20
-106.649
 30
2.69906e-14
  70
    32
  0
VERTEX
  8
0
  5
3096
 10
-242.928
 20
-106.606
 30
2.69844e-14
  70
    32
  0
VERTEX
  8
0
  5
3097
 10
-242.956
 20
-106.563
 30
2.69783e-14
  70
    32
  0
VERTEX
  8
0
  5
3098
 10
-242.984
 20
-106.519
 30
2.69721e-14
  70
    32
  0
VERTEX
  8
0
  5
3099
 10
-243.012
 20
-106.475
 30
2.69661e-14
  70
    32
  0
VERTEX
  8
0
  5
309A
 10
-243.039
 20
-106.431
 30
2.69600e-14
  70
    32
  0
VERTEX
  8
0
  5
309B
 10
-243.067
 20
-106.386
 30
2.69540e-14
  70
    32
  0
VERTEX
  8
0
  5
309C
 10
-243.094
 20
-106.341
 30
2.69480e-14
  70
    32
  0
VERTEX
  8
0
  5
309D
 10
-243.120
 20
-106.295
 30
2.69422e-14
  70
    32
  0
VERTEX
  8
0
  5
309E
 10
-243.147
 20
-106.249
 30
2.69363e-14
  70
    32
  0
VERTEX
  8
0
  5
309F
 10
-243.173
 20
-106.202
 30
2.69305e-14
  70
    32
  0
VERTEX
  8
0
  5
30A0
 10
-243.198
 20
-106.155
 30
2.69248e-14
  70
    32
  0
VERTEX
  8
0
  5
30A1
 10
-243.224
 20
-106.107
 30
2.69192e-14
  70
    32
  0
VERTEX
  8
0
  5
30A2
 10
-243.249
 20
-106.059
 30
2.69136e-14
  70
    32
  0
VERTEX
  8
0
  5
30A3
 10
-243.274
 20
-106.011
 30
2.69081e-14
  70
    32
  0
VERTEX
  8
0
  5
30A4
 10
-243.298
 20
-105.962
 30
2.69027e-14
  70
    32
  0
VERTEX
  8
0
  5
30A5
 10
-243.322
 20
-105.913
 30
2.68974e-14
  70
    32
  0
VERTEX
  8
0
  5
30A6
 10
-243.346
 20
-105.863
 30
2.68921e-14
  70
    32
  0
VERTEX
  8
0
  5
30A7
 10
-243.369
 20
-105.813
 30
2.68870e-14
  70
    32
  0
VERTEX
  8
0
  5
30A8
 10
-243.392
 20
-105.762
 30
2.68819e-14
  70
    32
  0
VERTEX
  8
0
  5
30A9
 10
-243.415
 20
-105.711
 30
2.68770e-14
  70
    32
  0
VERTEX
  8
0
  5
30AA
 10
-243.437
 20
-105.660
 30
2.68722e-14
  70
    32
  0
VERTEX
  8
0
  5
30AB
 10
-243.459
 20
-105.608
 30
2.68674e-14
  70
    32
  0
VERTEX
  8
0
  5
30AC
 10
-243.481
 20
-105.555
 30
2.68628e-14
  70
    32
  0
VERTEX
  8
0
  5
30AD
 10
-243.502
 20
-105.502
 30
2.68583e-14
  70
    32
  0
VERTEX
  8
0
  5
30AE
 10
-243.523
 20
-105.449
 30
2.68539e-14
  70
    32
  0
VERTEX
  8
0
  5
30AF
 10
-243.543
 20
-105.395
 30
2.68497e-14
  70
    32
  0
VERTEX
  8
0
  5
30B0
 10
-243.563
 20
-105.341
 30
2.68456e-14
  70
    32
  0
VERTEX
  8
0
  5
30B1
 10
-243.582
 20
-105.286
 30
2.68416e-14
  70
    32
  0
VERTEX
  8
0
  5
30B2
 10
-243.601
 20
-105.231
 30
2.68378e-14
  70
    32
  0
VERTEX
  8
0
  5
30B3
 10
-243.620
 20
-105.175
 30
2.68342e-14
  70
    32
  0
VERTEX
  8
0
  5
30B4
 10
-243.638
 20
-105.119
 30
2.68309e-14
  70
    32
  0
VERTEX
  8
0
  5
30B5
 10
-243.656
 20
-105.063
 30
2.68278e-14
  70
    32
  0
VERTEX
  8
0
  5
30B6
 10
-243.673
 20
-105.006
 30
2.68250e-14
  70
    32
  0
VERTEX
  8
0
  5
30B7
 10
-243.690
 20
-104.948
 30
2.68223e-14
  70
    32
  0
VERTEX
  8
0
  5
30B8
 10
-243.707
 20
-104.890
 30
2.68198e-14
  70
    32
  0
VERTEX
  8
0
  5
30B9
 10
-243.722
 20
-104.832
 30
2.68175e-14
  70
    32
  0
VERTEX
  8
0
  5
30BA
 10
-243.738
 20
-104.773
 30
2.68154e-14
  70
    32
  0
VERTEX
  8
0
  5
30BB
 10
-243.752
 20
-104.714
 30
2.68135e-14
  70
    32
  0
VERTEX
  8
0
  5
30BC
 10
-243.767
 20
-104.654
 30
2.68117e-14
  70
    32
  0
VERTEX
  8
0
  5
30BD
 10
-243.780
 20
-104.594
 30
2.68101e-14
  70
    32
  0
VERTEX
  8
0
  5
30BE
 10
-243.793
 20
-104.533
 30
2.68087e-14
  70
    32
  0
VERTEX
  8
0
  5
30BF
 10
-243.806
 20
-104.472
 30
2.68074e-14
  70
    32
  0
VERTEX
  8
0
  5
30C0
 10
-243.818
 20
-104.411
 30
2.68062e-14
  70
    32
  0
VERTEX
  8
0
  5
30C1
 10
-243.829
 20
-104.349
 30
2.68052e-14
  70
    32
  0
VERTEX
  8
0
  5
30C2
 10
-243.840
 20
-104.286
 30
2.68043e-14
  70
    32
  0
VERTEX
  8
0
  5
30C3
 10
-243.850
 20
-104.223
 30
2.68035e-14
  70
    32
  0
VERTEX
  8
0
  5
30C4
 10
-243.860
 20
-104.160
 30
2.68028e-14
  70
    32
  0
VERTEX
  8
0
  5
30C5
 10
-243.869
 20
-104.097
 30
2.68022e-14
  70
    32
  0
VERTEX
  8
0
  5
30C6
 10
-243.877
 20
-104.032
 30
2.68017e-14
  70
    32
  0
VERTEX
  8
0
  5
30C7
 10
-243.884
 20
-103.968
 30
2.68013e-14
  70
    32
  0
VERTEX
  8
0
  5
30C8
 10
-243.891
 20
-103.903
 30
2.68009e-14
  70
    32
  0
VERTEX
  8
0
  5
30C9
 10
-243.898
 20
-103.837
 30
2.68006e-14
  70
    32
  0
VERTEX
  8
0
  5
30CA
 10
-243.903
 20
-103.771
 30
2.68004e-14
  70
    32
  0
VERTEX
  8
0
  5
30CB
 10
-243.908
 20
-103.705
 30
2.68003e-14
  70
    32
  0
VERTEX
  8
0
  5
30CC
 10
-243.912
 20
-103.638
 30
2.68002e-14
  70
    32
  0
VERTEX
  8
0
  5
30CD
 10
-243.915
 20
-103.571
 30
2.68001e-14
  70
    32
  0
VERTEX
  8
0
  5
30CE
 10
-243.918
 20
-103.503
 30
2.68000e-14
  70
    32
  0
VERTEX
  8
0
  5
30CF
 10
-243.920
 20
-103.435
 30
2.68000e-14
  70
    32
  0
VERTEX
  8
0
  5
30D0
 10
-243.921
 20
-103.367
 30
2.68000e-14
  70
    32
  0
VERTEX
  8
0
  5
30D1
 10
-243.921
 20
-103.298
 30
2.68000e-14
  70
    32
  0
SEQEND
  8
0
  5
30D2
  0
LINE
  5
29C0
  8
0
  6
CONTINUOUS
 62
     3
 10
-256.3279641986914044
 20
-133.2980471356613066
 30
0.0
 11
-211.471357961591309
 21
-133.2980471356613066
 31
0.00000000000001
  0
LINE
  5
29C1
  8
0
  6
CONTINUOUS
 62
     3
 10
-211.471357961591309
 20
-73.298047135661264
 30
0.0000000000000568
 11
-256.3279655235072028
 21
-73.298047135661264
 31
0.0000000000000468
  0
LINE
  5
29C2
  8
0
  6
CONTINUOUS
 62
     3
 10
-471.9505939128251839
 20
-133.2980471356613066
 30
0.0
 11
-471.9505939128251839
 21
-73.298047135661264
 31
0.0
  0
POLYLINE
  8
0
  5
30D3
  62
3
  66
     1
 10
0.000000
 20
0.000000
 30
0.000000
  70
     8
  0
VERTEX
  8
0
  5
30D4
 10
-439.501
 20
-103.298
 30
-1.69000e-14
  70
    32
  0
VERTEX
  8
0
  5
30D5
 10
-439.501
 20
-103.229
 30
-1.69000e-14
  70
    32
  0
VERTEX
  8
0
  5
30D6
 10
-439.502
 20
-103.159
 30
-1.69000e-14
  70
    32
  0
VERTEX
  8
0
  5
30D7
 10
-439.504
 20
-103.089
 30
-1.69000e-14
  70
    32
  0
VERTEX
  8
0
  5
30D8
 10
-439.507
 20
-103.018
 30
-1.69000e-14
  70
    32
  0
VERTEX
  8
0
  5
30D9
 10
-439.511
 20
-102.947
 30
-1.69001e-14
  70
    32
  0
VERTEX
  8
0
  5
30DA
 10
-439.515
 20
-102.876
 30
-1.69002e-14
  70
    32
  0
VERTEX
  8
0
  5
30DB
 10
-439.521
 20
-102.804
 30
-1.69003e-14
  70
    32
  0
VERTEX
  8
0
  5
30DC
 10
-439.527
 20
-102.733
 30
-1.69006e-14
  70
    32
  0
VERTEX
  8
0
  5
30DD
 10
-439.534
 20
-102.660
 30
-1.69010e-14
  70
    32
  0
VERTEX
  8
0
  5
30DE
 10
-439.542
 20
-102.588
 30
-1.69016e-14
  70
    32
  0
VERTEX
  8
0
  5
30DF
 10
-439.551
 20
-102.515
 30
-1.69023e-14
  70
    32
  0
VERTEX
  8
0
  5
30E0
 10
-439.561
 20
-102.442
 30
-1.69032e-14
  70
    32
  0
VERTEX
  8
0
  5
30E1
 10
-439.572
 20
-102.368
 30
-1.69043e-14
  70
    32
  0
VERTEX
  8
0
  5
30E2
 10
-439.584
 20
-102.295
 30
-1.69057e-14
  70
    32
  0
VERTEX
  8
0
  5
30E3
 10
-439.597
 20
-102.221
 30
-1.69073e-14
  70
    32
  0
VERTEX
  8
0
  5
30E4
 10
-439.611
 20
-102.146
 30
-1.69092e-14
  70
    32
  0
VERTEX
  8
0
  5
30E5
 10
-439.626
 20
-102.072
 30
-1.69114e-14
  70
    32
  0
VERTEX
  8
0
  5
30E6
 10
-439.642
 20
-101.997
 30
-1.69139e-14
  70
    32
  0
VERTEX
  8
0
  5
30E7
 10
-439.660
 20
-101.922
 30
-1.69168e-14
  70
    32
  0
VERTEX
  8
0
  5
30E8
 10
-439.678
 20
-101.847
 30
-1.69200e-14
  70
    32
  0
VERTEX
  8
0
  5
30E9
 10
-439.697
 20
-101.772
 30
-1.69236e-14
  70
    32
  0
VERTEX
  8
0
  5
30EA
 10
-439.718
 20
-101.696
 30
-1.69277e-14
  70
    32
  0
VERTEX
  8
0
  5
30EB
 10
-439.739
 20
-101.621
 30
-1.69321e-14
  70
    32
  0
VERTEX
  8
0
  5
30EC
 10
-439.762
 20
-101.545
 30
-1.69371e-14
  70
    32
  0
VERTEX
  8
0
  5
30ED
 10
-439.786
 20
-101.469
 30
-1.69425e-14
  70
    32
  0
VERTEX
  8
0
  5
30EE
 10
-439.811
 20
-101.392
 30
-1.69484e-14
  70
    32
  0
VERTEX
  8
0
  5
30EF
 10
-439.837
 20
-101.316
 30
-1.69548e-14
  70
    32
  0
VERTEX
  8
0
  5
30F0
 10
-439.864
 20
-101.239
 30
-1.69618e-14
  70
    32
  0
VERTEX
  8
0
  5
30F1
 10
-439.893
 20
-101.163
 30
-1.69694e-14
  70
    32
  0
VERTEX
  8
0
  5
30F2
 10
-439.923
 20
-101.086
 30
-1.69775e-14
  70
    32
  0
VERTEX
  8
0
  5
30F3
 10
-439.954
 20
-101.009
 30
-1.69863e-14
  70
    32
  0
VERTEX
  8
0
  5
30F4
 10
-439.987
 20
-100.932
 30
-1.69957e-14
  70
    32
  0
VERTEX
  8
0
  5
30F5
 10
-440.021
 20
-100.855
 30
-1.70057e-14
  70
    32
  0
VERTEX
  8
0
  5
30F6
 10
-440.056
 20
-100.778
 30
-1.70163e-14
  70
    32
  0
VERTEX
  8
0
  5
30F7
 10
-440.092
 20
-100.700
 30
-1.70270e-14
  70
    32
  0
VERTEX
  8
0
  5
30F8
 10
-440.130
 20
-100.623
 30
-1.70378e-14
  70
    32
  0
VERTEX
  8
0
  5
30F9
 10
-440.169
 20
-100.546
 30
-1.70486e-14
  70
    32
  0
VERTEX
  8
0
  5
30FA
 10
-440.209
 20
-100.469
 30
-1.70596e-14
  70
    32
  0
VERTEX
  8
0
  5
30FB
 10
-440.251
 20
-100.392
 30
-1.70706e-14
  70
    32
  0
VERTEX
  8
0
  5
30FC
 10
-440.294
 20
-100.315
 30
-1.70817e-14
  70
    32
  0
VERTEX
  8
0
  5
30FD
 10
-440.339
 20
-100.238
 30
-1.70929e-14
  70
    32
  0
VERTEX
  8
0
  5
30FE
 10
-440.385
 20
-100.161
 30
-1.71042e-14
  70
    32
  0
VERTEX
  8
0
  5
30FF
 10
-440.433
 20
-100.085
 30
-1.71156e-14
  70
    32
  0
VERTEX
  8
0
  5
3100
 10
-440.482
 20
-100.009
 30
-1.71270e-14
  70
    32
  0
VERTEX
  8
0
  5
3101
 10
-440.532
 20
-99.9328
 30
-1.71386e-14
  70
    32
  0
VERTEX
  8
0
  5
3102
 10
-440.584
 20
-99.8570
 30
-1.71502e-14
  70
    32
  0
VERTEX
  8
0
  5
3103
 10
-440.638
 20
-99.7816
 30
-1.71620e-14
  70
    32
  0
VERTEX
  8
0
  5
3104
 10
-440.693
 20
-99.7065
 30
-1.71738e-14
  70
    32
  0
VERTEX
  8
0
  5
3105
 10
-440.750
 20
-99.6317
 30
-1.71857e-14
  70
    32
  0
VERTEX
  8
0
  5
3106
 10
-440.809
 20
-99.5573
 30
-1.71977e-14
  70
    32
  0
VERTEX
  8
0
  5
3107
 10
-440.869
 20
-99.4833
 30
-1.72098e-14
  70
    32
  0
VERTEX
  8
0
  5
3108
 10
-440.930
 20
-99.4097
 30
-1.72220e-14
  70
    32
  0
VERTEX
  8
0
  5
3109
 10
-440.994
 20
-99.3366
 30
-1.72343e-14
  70
    32
  0
VERTEX
  8
0
  5
310A
 10
-441.059
 20
-99.2639
 30
-1.72467e-14
  70
    32
  0
VERTEX
  8
0
  5
310B
 10
-441.126
 20
-99.1917
 30
-1.72592e-14
  70
    32
  0
VERTEX
  8
0
  5
310C
 10
-441.194
 20
-99.1201
 30
-1.72718e-14
  70
    32
  0
VERTEX
  8
0
  5
310D
 10
-441.264
 20
-99.0490
 30
-1.72845e-14
  70
    32
  0
VERTEX
  8
0
  5
310E
 10
-441.336
 20
-98.9785
 30
-1.72973e-14
  70
    32
  0
VERTEX
  8
0
  5
310F
 10
-441.410
 20
-98.9085
 30
-1.73102e-14
  70
    32
  0
VERTEX
  8
0
  5
3110
 10
-441.486
 20
-98.8393
 30
-1.73238e-14
  70
    32
  0
VERTEX
  8
0
  5
3111
 10
-441.563
 20
-98.7707
 30
-1.73388e-14
  70
    32
  0
VERTEX
  8
0
  5
3112
 10
-441.642
 20
-98.7029
 30
-1.73553e-14
  70
    32
  0
VERTEX
  8
0
  5
3113
 10
-441.723
 20
-98.6359
 30
-1.73731e-14
  70
    32
  0
VERTEX
  8
0
  5
3114
 10
-441.806
 20
-98.5699
 30
-1.73921e-14
  70
    32
  0
VERTEX
  8
0
  5
3115
 10
-441.891
 20
-98.5047
 30
-1.74122e-14
  70
    32
  0
VERTEX
  8
0
  5
3116
 10
-441.978
 20
-98.4405
 30
-1.74334e-14
  70
    32
  0
VERTEX
  8
0
  5
3117
 10
-442.066
 20
-98.3774
 30
-1.74554e-14
  70
    32
  0
VERTEX
  8
0
  5
3118
 10
-442.157
 20
-98.3154
 30
-1.74783e-14
  70
    32
  0
VERTEX
  8
0
  5
3119
 10
-442.249
 20
-98.2546
 30
-1.75019e-14
  70
    32
  0
VERTEX
  8
0
  5
311A
 10
-442.343
 20
-98.1950
 30
-1.75262e-14
  70
    32
  0
VERTEX
  8
0
  5
311B
 10
-442.440
 20
-98.1366
 30
-1.75510e-14
  70
    32
  0
VERTEX
  8
0
  5
311C
 10
-442.538
 20
-98.0796
 30
-1.75763e-14
  70
    32
  0
VERTEX
  8
0
  5
311D
 10
-442.638
 20
-98.0240
 30
-1.76019e-14
  70
    32
  0
VERTEX
  8
0
  5
311E
 10
-442.741
 20
-97.9699
 30
-1.76278e-14
  70
    32
  0
VERTEX
  8
0
  5
311F
 10
-442.845
 20
-97.9172
 30
-1.76538e-14
  70
    32
  0
VERTEX
  8
0
  5
3120
 10
-442.952
 20
-97.8661
 30
-1.76799e-14
  70
    32
  0
VERTEX
  8
0
  5
3121
 10
-443.060
 20
-97.8166
 30
-1.77060e-14
  70
    32
  0
VERTEX
  8
0
  5
3122
 10
-443.171
 20
-97.7688
 30
-1.77320e-14
  70
    32
  0
VERTEX
  8
0
  5
3123
 10
-443.283
 20
-97.7227
 30
-1.77578e-14
  70
    32
  0
VERTEX
  8
0
  5
3124
 10
-443.398
 20
-97.6785
 30
-1.77832e-14
  70
    32
  0
VERTEX
  8
0
  5
3125
 10
-443.512
 20
-97.6372
 30
-1.78085e-14
  70
    32
  0
VERTEX
  8
0
  5
3126
 10
-443.625
 20
-97.5990
 30
-1.78334e-14
  70
    32
  0
VERTEX
  8
0
  5
3127
 10
-443.735
 20
-97.5638
 30
-1.78581e-14
  70
    32
  0
VERTEX
  8
0
  5
3128
 10
-443.845
 20
-97.5315
 30
-1.78824e-14
  70
    32
  0
VERTEX
  8
0
  5
3129
 10
-443.952
 20
-97.5018
 30
-1.79063e-14
  70
    32
  0
VERTEX
  8
0
  5
312A
 10
-444.057
 20
-97.4748
 30
-1.79299e-14
  70
    32
  0
VERTEX
  8
0
  5
312B
 10
-444.160
 20
-97.4503
 30
-1.79530e-14
  70
    32
  0
VERTEX
  8
0
  5
312C
 10
-444.261
 20
-97.4282
 30
-1.79757e-14
  70
    32
  0
VERTEX
  8
0
  5
312D
 10
-444.360
 20
-97.4083
 30
-1.79979e-14
  70
    32
  0
VERTEX
  8
0
  5
312E
 10
-444.456
 20
-97.3906
 30
-1.80195e-14
  70
    32
  0
VERTEX
  8
0
  5
312F
 10
-444.549
 20
-97.3749
 30
-1.80406e-14
  70
    32
  0
VERTEX
  8
0
  5
3130
 10
-444.640
 20
-97.3610
 30
-1.80611e-14
  70
    32
  0
VERTEX
  8
0
  5
3131
 10
-444.728
 20
-97.3490
 30
-1.80810e-14
  70
    32
  0
VERTEX
  8
0
  5
3132
 10
-444.813
 20
-97.3386
 30
-1.81002e-14
  70
    32
  0
VERTEX
  8
0
  5
3133
 10
-444.894
 20
-97.3297
 30
-1.81187e-14
  70
    32
  0
VERTEX
  8
0
  5
3134
 10
-444.973
 20
-97.3222
 30
-1.81365e-14
  70
    32
  0
VERTEX
  8
0
  5
3135
 10
-445.048
 20
-97.3160
 30
-1.81535e-14
  70
    32
  0
VERTEX
  8
0
  5
3136
 10
-445.119
 20
-97.3109
 30
-1.81698e-14
  70
    32
  0
VERTEX
  8
0
  5
3137
 10
-445.187
 20
-97.3069
 30
-1.81852e-14
  70
    32
  0
VERTEX
  8
0
  5
3138
 10
-445.251
 20
-97.3039
 30
-1.81998e-14
  70
    32
  0
VERTEX
  8
0
  5
3139
 10
-445.312
 20
-97.3016
 30
-1.82134e-14
  70
    32
  0
VERTEX
  8
0
  5
313A
 10
-445.368
 20
-97.3000
 30
-1.82262e-14
  70
    32
  0
VERTEX
  8
0
  5
313B
 10
-445.420
 20
-97.2990
 30
-1.82380e-14
  70
    32
  0
VERTEX
  8
0
  5
313C
 10
-445.468
 20
-97.2984
 30
-1.82488e-14
  70
    32
  0
VERTEX
  8
0
  5
313D
 10
-445.512
 20
-97.2981
 30
-1.82585e-14
  70
    32
  0
VERTEX
  8
0
  5
313E
 10
-445.551
 20
-97.2981
 30
-1.82673e-14
  70
    32
  0
VERTEX
  8
0
  5
313F
 10
-445.586
 20
-97.2980
 30
-1.82752e-14
  70
    32
  0
VERTEX
  8
0
  5
3140
 10
-445.621
 20
-97.2980
 30
-1.82830e-14
  70
    32
  0
VERTEX
  8
0
  5
3141
 10
-445.657
 20
-97.2980
 30
-1.82909e-14
  70
    32
  0
VERTEX
  8
0
  5
3142
 10
-445.692
 20
-97.2980
 30
-1.82988e-14
  70
    32
  0
VERTEX
  8
0
  5
3143
 10
-445.728
 20
-97.2980
 30
-1.83066e-14
  70
    32
  0
VERTEX
  8
0
  5
3144
 10
-445.763
 20
-97.2980
 30
-1.83145e-14
  70
    32
  0
VERTEX
  8
0
  5
3145
 10
-445.798
 20
-97.2980
 30
-1.83224e-14
  70
    32
  0
VERTEX
  8
0
  5
3146
 10
-445.834
 20
-97.2980
 30
-1.83304e-14
  70
    32
  0
VERTEX
  8
0
  5
3147
 10
-445.870
 20
-97.2980
 30
-1.83383e-14
  70
    32
  0
VERTEX
  8
0
  5
3148
 10
-445.905
 20
-97.2980
 30
-1.83462e-14
  70
    32
  0
VERTEX
  8
0
  5
3149
 10
-445.941
 20
-97.2980
 30
-1.83542e-14
  70
    32
  0
VERTEX
  8
0
  5
314A
 10
-445.976
 20
-97.2980
 30
-1.83621e-14
  70
    32
  0
VERTEX
  8
0
  5
314B
 10
-446.012
 20
-97.2980
 30
-1.83701e-14
  70
    32
  0
VERTEX
  8
0
  5
314C
 10
-446.048
 20
-97.2980
 30
-1.83781e-14
  70
    32
  0
VERTEX
  8
0
  5
314D
 10
-446.083
 20
-97.2980
 30
-1.83861e-14
  70
    32
  0
VERTEX
  8
0
  5
314E
 10
-446.119
 20
-97.2980
 30
-1.83941e-14
  70
    32
  0
VERTEX
  8
0
  5
314F
 10
-446.155
 20
-97.2980
 30
-1.84021e-14
  70
    32
  0
VERTEX
  8
0
  5
3150
 10
-446.191
 20
-97.2980
 30
-1.84101e-14
  70
    32
  0
VERTEX
  8
0
  5
3151
 10
-446.227
 20
-97.2980
 30
-1.84181e-14
  70
    32
  0
VERTEX
  8
0
  5
3152
 10
-446.263
 20
-97.2980
 30
-1.84261e-14
  70
    32
  0
VERTEX
  8
0
  5
3153
 10
-446.299
 20
-97.2980
 30
-1.84342e-14
  70
    32
  0
VERTEX
  8
0
  5
3154
 10
-446.335
 20
-97.2980
 30
-1.84422e-14
  70
    32
  0
VERTEX
  8
0
  5
3155
 10
-446.371
 20
-97.2980
 30
-1.84503e-14
  70
    32
  0
VERTEX
  8
0
  5
3156
 10
-446.407
 20
-97.2980
 30
-1.84584e-14
  70
    32
  0
VERTEX
  8
0
  5
3157
 10
-446.443
 20
-97.2980
 30
-1.84664e-14
  70
    32
  0
VERTEX
  8
0
  5
3158
 10
-446.479
 20
-97.2980
 30
-1.84745e-14
  70
    32
  0
VERTEX
  8
0
  5
3159
 10
-446.515
 20
-97.2980
 30
-1.84826e-14
  70
    32
  0
VERTEX
  8
0
  5
315A
 10
-446.551
 20
-97.2980
 30
-1.84908e-14
  70
    32
  0
VERTEX
  8
0
  5
315B
 10
-446.587
 20
-97.2980
 30
-1.84989e-14
  70
    32
  0
VERTEX
  8
0
  5
315C
 10
-446.624
 20
-97.2980
 30
-1.85070e-14
  70
    32
  0
VERTEX
  8
0
  5
315D
 10
-446.660
 20
-97.2980
 30
-1.85151e-14
  70
    32
  0
VERTEX
  8
0
  5
315E
 10
-446.696
 20
-97.2980
 30
-1.85233e-14
  70
    32
  0
VERTEX
  8
0
  5
315F
 10
-446.733
 20
-97.2980
 30
-1.85314e-14
  70
    32
  0
VERTEX
  8
0
  5
3160
 10
-446.769
 20
-97.2980
 30
-1.85396e-14
  70
    32
  0
VERTEX
  8
0
  5
3161
 10
-446.805
 20
-97.2980
 30
-1.85478e-14
  70
    32
  0
VERTEX
  8
0
  5
3162
 10
-446.842
 20
-97.2980
 30
-1.85560e-14
  70
    32
  0
VERTEX
  8
0
  5
3163
 10
-446.878
 20
-97.2980
 30
-1.85642e-14
  70
    32
  0
VERTEX
  8
0
  5
3164
 10
-446.915
 20
-97.2980
 30
-1.85724e-14
  70
    32
  0
VERTEX
  8
0
  5
3165
 10
-446.951
 20
-97.2980
 30
-1.85806e-14
  70
    32
  0
VERTEX
  8
0
  5
3166
 10
-446.988
 20
-97.2980
 30
-1.85888e-14
  70
    32
  0
VERTEX
  8
0
  5
3167
 10
-447.025
 20
-97.2980
 30
-1.85970e-14
  70
    32
  0
VERTEX
  8
0
  5
3168
 10
-447.061
 20
-97.2980
 30
-1.86053e-14
  70
    32
  0
VERTEX
  8
0
  5
3169
 10
-447.098
 20
-97.2980
 30
-1.86135e-14
  70
    32
  0
VERTEX
  8
0
  5
316A
 10
-447.135
 20
-97.2980
 30
-1.86218e-14
  70
    32
  0
VERTEX
  8
0
  5
316B
 10
-447.172
 20
-97.2980
 30
-1.86301e-14
  70
    32
  0
VERTEX
  8
0
  5
316C
 10
-447.208
 20
-97.2980
 30
-1.86383e-14
  70
    32
  0
VERTEX
  8
0
  5
316D
 10
-447.245
 20
-97.2980
 30
-1.86466e-14
  70
    32
  0
VERTEX
  8
0
  5
316E
 10
-447.282
 20
-97.2980
 30
-1.86549e-14
  70
    32
  0
VERTEX
  8
0
  5
316F
 10
-447.319
 20
-97.2980
 30
-1.86632e-14
  70
    32
  0
VERTEX
  8
0
  5
3170
 10
-447.356
 20
-97.2980
 30
-1.86715e-14
  70
    32
  0
VERTEX
  8
0
  5
3171
 10
-447.393
 20
-97.2980
 30
-1.86799e-14
  70
    32
  0
VERTEX
  8
0
  5
3172
 10
-447.430
 20
-97.2980
 30
-1.86882e-14
  70
    32
  0
VERTEX
  8
0
  5
3173
 10
-447.467
 20
-97.2980
 30
-1.86965e-14
  70
    32
  0
VERTEX
  8
0
  5
3174
 10
-447.504
 20
-97.2980
 30
-1.87049e-14
  70
    32
  0
VERTEX
  8
0
  5
3175
 10
-447.541
 20
-97.2980
 30
-1.87132e-14
  70
    32
  0
VERTEX
  8
0
  5
3176
 10
-447.579
 20
-97.2980
 30
-1.87216e-14
  70
    32
  0
VERTEX
  8
0
  5
3177
 10
-447.616
 20
-97.2980
 30
-1.87300e-14
  70
    32
  0
VERTEX
  8
0
  5
3178
 10
-447.653
 20
-97.2980
 30
-1.87383e-14
  70
    32
  0
VERTEX
  8
0
  5
3179
 10
-447.690
 20
-97.2980
 30
-1.87467e-14
  70
    32
  0
VERTEX
  8
0
  5
317A
 10
-447.728
 20
-97.2980
 30
-1.87551e-14
  70
    32
  0
VERTEX
  8
0
  5
317B
 10
-447.765
 20
-97.2980
 30
-1.87635e-14
  70
    32
  0
VERTEX
  8
0
  5
317C
 10
-447.802
 20
-97.2980
 30
-1.87720e-14
  70
    32
  0
VERTEX
  8
0
  5
317D
 10
-447.840
 20
-97.2980
 30
-1.87804e-14
  70
    32
  0
VERTEX
  8
0
  5
317E
 10
-447.877
 20
-97.2980
 30
-1.87888e-14
  70
    32
  0
VERTEX
  8
0
  5
317F
 10
-447.915
 20
-97.2980
 30
-1.87973e-14
  70
    32
  0
VERTEX
  8
0
  5
3180
 10
-447.952
 20
-97.2980
 30
-1.88057e-14
  70
    32
  0
VERTEX
  8
0
  5
3181
 10
-447.990
 20
-97.2980
 30
-1.88142e-14
  70
    32
  0
VERTEX
  8
0
  5
3182
 10
-448.027
 20
-97.2980
 30
-1.88226e-14
  70
    32
  0
VERTEX
  8
0
  5
3183
 10
-448.065
 20
-97.2980
 30
-1.88311e-14
  70
    32
  0
VERTEX
  8
0
  5
3184
 10
-448.103
 20
-97.2980
 30
-1.88396e-14
  70
    32
  0
VERTEX
  8
0
  5
3185
 10
-448.141
 20
-97.2980
 30
-1.88481e-14
  70
    32
  0
VERTEX
  8
0
  5
3186
 10
-448.178
 20
-97.2980
 30
-1.88566e-14
  70
    32
  0
VERTEX
  8
0
  5
3187
 10
-448.216
 20
-97.2980
 30
-1.88651e-14
  70
    32
  0
VERTEX
  8
0
  5
3188
 10
-448.254
 20
-97.2980
 30
-1.88736e-14
  70
    32
  0
VERTEX
  8
0
  5
3189
 10
-448.292
 20
-97.2980
 30
-1.88822e-14
  70
    32
  0
VERTEX
  8
0
  5
318A
 10
-448.330
 20
-97.2980
 30
-1.88907e-14
  70
    32
  0
VERTEX
  8
0
  5
318B
 10
-448.368
 20
-97.2980
 30
-1.88992e-14
  70
    32
  0
VERTEX
  8
0
  5
318C
 10
-448.406
 20
-97.2980
 30
-1.89078e-14
  70
    32
  0
VERTEX
  8
0
  5
318D
 10
-448.444
 20
-97.2980
 30
-1.89163e-14
  70
    32
  0
VERTEX
  8
0
  5
318E
 10
-448.482
 20
-97.2980
 30
-1.89249e-14
  70
    32
  0
VERTEX
  8
0
  5
318F
 10
-448.520
 20
-97.2980
 30
-1.89335e-14
  70
    32
  0
VERTEX
  8
0
  5
3190
 10
-448.558
 20
-97.2980
 30
-1.89421e-14
  70
    32
  0
VERTEX
  8
0
  5
3191
 10
-448.596
 20
-97.2980
 30
-1.89507e-14
  70
    32
  0
VERTEX
  8
0
  5
3192
 10
-448.634
 20
-97.2980
 30
-1.89593e-14
  70
    32
  0
VERTEX
  8
0
  5
3193
 10
-448.673
 20
-97.2980
 30
-1.89679e-14
  70
    32
  0
VERTEX
  8
0
  5
3194
 10
-448.711
 20
-97.2980
 30
-1.89765e-14
  70
    32
  0
VERTEX
  8
0
  5
3195
 10
-448.749
 20
-97.2980
 30
-1.89851e-14
  70
    32
  0
VERTEX
  8
0
  5
3196
 10
-448.787
 20
-97.2980
 30
-1.89937e-14
  70
    32
  0
VERTEX
  8
0
  5
3197
 10
-448.826
 20
-97.2980
 30
-1.90024e-14
  70
    32
  0
VERTEX
  8
0
  5
3198
 10
-448.864
 20
-97.2980
 30
-1.90110e-14
  70
    32
  0
VERTEX
  8
0
  5
3199
 10
-448.903
 20
-97.2980
 30
-1.90197e-14
  70
    32
  0
VERTEX
  8
0
  5
319A
 10
-448.941
 20
-97.2980
 30
-1.90283e-14
  70
    32
  0
VERTEX
  8
0
  5
319B
 10
-448.980
 20
-97.2980
 30
-1.90370e-14
  70
    32
  0
VERTEX
  8
0
  5
319C
 10
-449.018
 20
-97.2980
 30
-1.90457e-14
  70
    32
  0
VERTEX
  8
0
  5
319D
 10
-449.057
 20
-97.2980
 30
-1.90544e-14
  70
    32
  0
VERTEX
  8
0
  5
319E
 10
-449.096
 20
-97.2980
 30
-1.90631e-14
  70
    32
  0
VERTEX
  8
0
  5
319F
 10
-449.134
 20
-97.2980
 30
-1.90718e-14
  70
    32
  0
VERTEX
  8
0
  5
31A0
 10
-449.173
 20
-97.2980
 30
-1.90805e-14
  70
    32
  0
VERTEX
  8
0
  5
31A1
 10
-449.212
 20
-97.2980
 30
-1.90892e-14
  70
    32
  0
VERTEX
  8
0
  5
31A2
 10
-449.251
 20
-97.2980
 30
-1.90979e-14
  70
    32
  0
VERTEX
  8
0
  5
31A3
 10
-449.290
 20
-97.2980
 30
-1.91066e-14
  70
    32
  0
VERTEX
  8
0
  5
31A4
 10
-449.328
 20
-97.2980
 30
-1.91154e-14
  70
    32
  0
VERTEX
  8
0
  5
31A5
 10
-449.367
 20
-97.2980
 30
-1.91241e-14
  70
    32
  0
VERTEX
  8
0
  5
31A6
 10
-449.406
 20
-97.2980
 30
-1.91329e-14
  70
    32
  0
VERTEX
  8
0
  5
31A7
 10
-449.445
 20
-97.2980
 30
-1.91416e-14
  70
    32
  0
VERTEX
  8
0
  5
31A8
 10
-449.484
 20
-97.2980
 30
-1.91504e-14
  70
    32
  0
VERTEX
  8
0
  5
31A9
 10
-449.524
 20
-97.2980
 30
-1.91592e-14
  70
    32
  0
VERTEX
  8
0
  5
31AA
 10
-449.563
 20
-97.2980
 30
-1.91680e-14
  70
    32
  0
VERTEX
  8
0
  5
31AB
 10
-449.602
 20
-97.2980
 30
-1.91768e-14
  70
    32
  0
VERTEX
  8
0
  5
31AC
 10
-449.641
 20
-97.2980
 30
-1.91856e-14
  70
    32
  0
VERTEX
  8
0
  5
31AD
 10
-449.680
 20
-97.2980
 30
-1.91944e-14
  70
    32
  0
VERTEX
  8
0
  5
31AE
 10
-449.720
 20
-97.2980
 30
-1.92032e-14
  70
    32
  0
VERTEX
  8
0
  5
31AF
 10
-449.759
 20
-97.2980
 30
-1.92120e-14
  70
    32
  0
VERTEX
  8
0
  5
31B0
 10
-449.798
 20
-97.2980
 30
-1.92208e-14
  70
    32
  0
VERTEX
  8
0
  5
31B1
 10
-449.838
 20
-97.2980
 30
-1.92297e-14
  70
    32
  0
VERTEX
  8
0
  5
31B2
 10
-449.877
 20
-97.2980
 30
-1.92385e-14
  70
    32
  0
VERTEX
  8
0
  5
31B3
 10
-449.917
 20
-97.2980
 30
-1.92473e-14
  70
    32
  0
VERTEX
  8
0
  5
31B4
 10
-449.956
 20
-97.2980
 30
-1.92562e-14
  70
    32
  0
VERTEX
  8
0
  5
31B5
 10
-449.996
 20
-97.2980
 30
-1.92651e-14
  70
    32
  0
VERTEX
  8
0
  5
31B6
 10
-450.035
 20
-97.2980
 30
-1.92739e-14
  70
    32
  0
VERTEX
  8
0
  5
31B7
 10
-450.075
 20
-97.2980
 30
-1.92828e-14
  70
    32
  0
VERTEX
  8
0
  5
31B8
 10
-450.115
 20
-97.2980
 30
-1.92917e-14
  70
    32
  0
VERTEX
  8
0
  5
31B9
 10
-450.154
 20
-97.2980
 30
-1.93006e-14
  70
    32
  0
VERTEX
  8
0
  5
31BA
 10
-450.194
 20
-97.2980
 30
-1.93095e-14
  70
    32
  0
VERTEX
  8
0
  5
31BB
 10
-450.234
 20
-97.2980
 30
-1.93184e-14
  70
    32
  0
VERTEX
  8
0
  5
31BC
 10
-450.274
 20
-97.2980
 30
-1.93273e-14
  70
    32
  0
VERTEX
  8
0
  5
31BD
 10
-450.314
 20
-97.2980
 30
-1.93362e-14
  70
    32
  0
VERTEX
  8
0
  5
31BE
 10
-450.354
 20
-97.2980
 30
-1.93451e-14
  70
    32
  0
VERTEX
  8
0
  5
31BF
 10
-450.394
 20
-97.2980
 30
-1.93541e-14
  70
    32
  0
VERTEX
  8
0
  5
31C0
 10
-450.434
 20
-97.2980
 30
-1.93630e-14
  70
    32
  0
VERTEX
  8
0
  5
31C1
 10
-450.474
 20
-97.2980
 30
-1.93720e-14
  70
    32
  0
VERTEX
  8
0
  5
31C2
 10
-450.514
 20
-97.2980
 30
-1.93809e-14
  70
    32
  0
VERTEX
  8
0
  5
31C3
 10
-450.554
 20
-97.2980
 30
-1.93899e-14
  70
    32
  0
VERTEX
  8
0
  5
31C4
 10
-450.594
 20
-97.2980
 30
-1.93988e-14
  70
    32
  0
VERTEX
  8
0
  5
31C5
 10
-450.634
 20
-97.2980
 30
-1.94078e-14
  70
    32
  0
VERTEX
  8
0
  5
31C6
 10
-450.674
 20
-97.2980
 30
-1.94168e-14
  70
    32
  0
VERTEX
  8
0
  5
31C7
 10
-450.715
 20
-97.2980
 30
-1.94258e-14
  70
    32
  0
VERTEX
  8
0
  5
31C8
 10
-450.755
 20
-97.2980
 30
-1.94348e-14
  70
    32
  0
VERTEX
  8
0
  5
31C9
 10
-450.795
 20
-97.2980
 30
-1.94438e-14
  70
    32
  0
VERTEX
  8
0
  5
31CA
 10
-450.836
 20
-97.2980
 30
-1.94528e-14
  70
    32
  0
VERTEX
  8
0
  5
31CB
 10
-450.876
 20
-97.2980
 30
-1.94618e-14
  70
    32
  0
VERTEX
  8
0
  5
31CC
 10
-450.917
 20
-97.2980
 30
-1.94708e-14
  70
    32
  0
VERTEX
  8
0
  5
31CD
 10
-450.957
 20
-97.2980
 30
-1.94798e-14
  70
    32
  0
VERTEX
  8
0
  5
31CE
 10
-450.998
 20
-97.2980
 30
-1.94888e-14
  70
    32
  0
VERTEX
  8
0
  5
31CF
 10
-451.038
 20
-97.2980
 30
-1.94979e-14
  70
    32
  0
VERTEX
  8
0
  5
31D0
 10
-451.079
 20
-97.2980
 30
-1.95069e-14
  70
    32
  0
VERTEX
  8
0
  5
31D1
 10
-451.120
 20
-97.2980
 30
-1.95160e-14
  70
    32
  0
VERTEX
  8
0
  5
31D2
 10
-451.161
 20
-97.2980
 30
-1.95250e-14
  70
    32
  0
VERTEX
  8
0
  5
31D3
 10
-451.201
 20
-97.2980
 30
-1.95341e-14
  70
    32
  0
VERTEX
  8
0
  5
31D4
 10
-451.242
 20
-97.2980
 30
-1.95432e-14
  70
    32
  0
VERTEX
  8
0
  5
31D5
 10
-451.283
 20
-97.2980
 30
-1.95522e-14
  70
    32
  0
VERTEX
  8
0
  5
31D6
 10
-451.324
 20
-97.2980
 30
-1.95613e-14
  70
    32
  0
VERTEX
  8
0
  5
31D7
 10
-451.365
 20
-97.2980
 30
-1.95704e-14
  70
    32
  0
VERTEX
  8
0
  5
31D8
 10
-451.406
 20
-97.2980
 30
-1.95795e-14
  70
    32
  0
VERTEX
  8
0
  5
31D9
 10
-451.447
 20
-97.2980
 30
-1.95886e-14
  70
    32
  0
VERTEX
  8
0
  5
31DA
 10
-451.488
 20
-97.2980
 30
-1.95977e-14
  70
    32
  0
VERTEX
  8
0
  5
31DB
 10
-451.529
 20
-97.2980
 30
-1.96068e-14
  70
    32
  0
VERTEX
  8
0
  5
31DC
 10
-451.570
 20
-97.2980
 30
-1.96159e-14
  70
    32
  0
VERTEX
  8
0
  5
31DD
 10
-451.611
 20
-97.2980
 30
-1.96251e-14
  70
    32
  0
VERTEX
  8
0
  5
31DE
 10
-451.653
 20
-97.2980
 30
-1.96342e-14
  70
    32
  0
VERTEX
  8
0
  5
31DF
 10
-451.694
 20
-97.2980
 30
-1.96433e-14
  70
    32
  0
VERTEX
  8
0
  5
31E0
 10
-451.735
 20
-97.2980
 30
-1.96525e-14
  70
    32
  0
VERTEX
  8
0
  5
31E1
 10
-451.777
 20
-97.2980
 30
-1.96616e-14
  70
    32
  0
VERTEX
  8
0
  5
31E2
 10
-451.818
 20
-97.2980
 30
-1.96708e-14
  70
    32
  0
VERTEX
  8
0
  5
31E3
 10
-451.860
 20
-97.2980
 30
-1.96799e-14
  70
    32
  0
VERTEX
  8
0
  5
31E4
 10
-451.901
 20
-97.2980
 30
-1.96891e-14
  70
    32
  0
VERTEX
  8
0
  5
31E5
 10
-451.943
 20
-97.2980
 30
-1.96983e-14
  70
    32
  0
VERTEX
  8
0
  5
31E6
 10
-451.984
 20
-97.2980
 30
-1.97074e-14
  70
    32
  0
VERTEX
  8
0
  5
31E7
 10
-452.026
 20
-97.2980
 30
-1.97166e-14
  70
    32
  0
VERTEX
  8
0
  5
31E8
 10
-452.067
 20
-97.2980
 30
-1.97258e-14
  70
    32
  0
VERTEX
  8
0
  5
31E9
 10
-452.109
 20
-97.2980
 30
-1.97350e-14
  70
    32
  0
VERTEX
  8
0
  5
31EA
 10
-452.151
 20
-97.2980
 30
-1.97442e-14
  70
    32
  0
VERTEX
  8
0
  5
31EB
 10
-452.193
 20
-97.2980
 30
-1.97534e-14
  70
    32
  0
VERTEX
  8
0
  5
31EC
 10
-452.235
 20
-97.2980
 30
-1.97626e-14
  70
    32
  0
VERTEX
  8
0
  5
31ED
 10
-452.276
 20
-97.2980
 30
-1.97718e-14
  70
    32
  0
VERTEX
  8
0
  5
31EE
 10
-452.318
 20
-97.2980
 30
-1.97811e-14
  70
    32
  0
VERTEX
  8
0
  5
31EF
 10
-452.360
 20
-97.2980
 30
-1.97903e-14
  70
    32
  0
VERTEX
  8
0
  5
31F0
 10
-452.402
 20
-97.2980
 30
-1.97995e-14
  70
    32
  0
VERTEX
  8
0
  5
31F1
 10
-452.444
 20
-97.2980
 30
-1.98088e-14
  70
    32
  0
VERTEX
  8
0
  5
31F2
 10
-452.486
 20
-97.2980
 30
-1.98180e-14
  70
    32
  0
VERTEX
  8
0
  5
31F3
 10
-452.529
 20
-97.2980
 30
-1.98273e-14
  70
    32
  0
VERTEX
  8
0
  5
31F4
 10
-452.571
 20
-97.2980
 30
-1.98365e-14
  70
    32
  0
VERTEX
  8
0
  5
31F5
 10
-452.613
 20
-97.2980
 30
-1.98458e-14
  70
    32
  0
VERTEX
  8
0
  5
31F6
 10
-452.655
 20
-97.2980
 30
-1.98550e-14
  70
    32
  0
VERTEX
  8
0
  5
31F7
 10
-452.698
 20
-97.2980
 30
-1.98643e-14
  70
    32
  0
VERTEX
  8
0
  5
31F8
 10
-452.740
 20
-97.2980
 30
-1.98736e-14
  70
    32
  0
VERTEX
  8
0
  5
31F9
 10
-452.782
 20
-97.2980
 30
-1.98829e-14
  70
    32
  0
VERTEX
  8
0
  5
31FA
 10
-452.825
 20
-97.2980
 30
-1.98922e-14
  70
    32
  0
VERTEX
  8
0
  5
31FB
 10
-452.867
 20
-97.2980
 30
-1.99014e-14
  70
    32
  0
VERTEX
  8
0
  5
31FC
 10
-452.910
 20
-97.2980
 30
-1.99107e-14
  70
    32
  0
VERTEX
  8
0
  5
31FD
 10
-452.952
 20
-97.2980
 30
-1.99200e-14
  70
    32
  0
VERTEX
  8
0
  5
31FE
 10
-452.995
 20
-97.2980
 30
-1.99294e-14
  70
    32
  0
VERTEX
  8
0
  5
31FF
 10
-453.038
 20
-97.2980
 30
-1.99387e-14
  70
    32
  0
VERTEX
  8
0
  5
3200
 10
-453.080
 20
-97.2980
 30
-1.99480e-14
  70
    32
  0
VERTEX
  8
0
  5
3201
 10
-453.123
 20
-97.2980
 30
-1.99573e-14
  70
    32
  0
VERTEX
  8
0
  5
3202
 10
-453.166
 20
-97.2980
 30
-1.99666e-14
  70
    32
  0
VERTEX
  8
0
  5
3203
 10
-453.209
 20
-97.2980
 30
-1.99760e-14
  70
    32
  0
VERTEX
  8
0
  5
3204
 10
-453.252
 20
-97.2980
 30
-1.99853e-14
  70
    32
  0
VERTEX
  8
0
  5
3205
 10
-453.295
 20
-97.2980
 30
-1.99947e-14
  70
    32
  0
VERTEX
  8
0
  5
3206
 10
-453.338
 20
-97.2980
 30
-2.00040e-14
  70
    32
  0
VERTEX
  8
0
  5
3207
 10
-453.381
 20
-97.2980
 30
-2.00134e-14
  70
    32
  0
VERTEX
  8
0
  5
3208
 10
-453.424
 20
-97.2980
 30
-2.00227e-14
  70
    32
  0
VERTEX
  8
0
  5
3209
 10
-453.467
 20
-97.2980
 30
-2.00321e-14
  70
    32
  0
VERTEX
  8
0
  5
320A
 10
-453.510
 20
-97.2980
 30
-2.00415e-14
  70
    32
  0
VERTEX
  8
0
  5
320B
 10
-453.553
 20
-97.2980
 30
-2.00509e-14
  70
    32
  0
VERTEX
  8
0
  5
320C
 10
-453.597
 20
-97.2980
 30
-2.00603e-14
  70
    32
  0
VERTEX
  8
0
  5
320D
 10
-453.640
 20
-97.2980
 30
-2.00697e-14
  70
    32
  0
VERTEX
  8
0
  5
320E
 10
-453.684
 20
-97.2980
 30
-2.00792e-14
  70
    32
  0
VERTEX
  8
0
  5
320F
 10
-453.727
 20
-97.2980
 30
-2.00887e-14
  70
    32
  0
VERTEX
  8
0
  5
3210
 10
-453.771
 20
-97.2980
 30
-2.00983e-14
  70
    32
  0
VERTEX
  8
0
  5
3211
 10
-453.815
 20
-97.2980
 30
-2.01078e-14
  70
    32
  0
VERTEX
  8
0
  5
3212
 10
-453.859
 20
-97.2980
 30
-2.01174e-14
  70
    32
  0
VERTEX
  8
0
  5
3213
 10
-453.903
 20
-97.2980
 30
-2.01270e-14
  70
    32
  0
VERTEX
  8
0
  5
3214
 10
-453.947
 20
-97.2980
 30
-2.01367e-14
  70
    32
  0
VERTEX
  8
0
  5
3215
 10
-453.991
 20
-97.2980
 30
-2.01463e-14
  70
    32
  0
VERTEX
  8
0
  5
3216
 10
-454.036
 20
-97.2980
 30
-2.01560e-14
  70
    32
  0
VERTEX
  8
0
  5
3217
 10
-454.080
 20
-97.2980
 30
-2.01657e-14
  70
    32
  0
VERTEX
  8
0
  5
3218
 10
-454.125
 20
-97.2980
 30
-2.01754e-14
  70
    32
  0
VERTEX
  8
0
  5
3219
 10
-454.169
 20
-97.2980
 30
-2.01852e-14
  70
    32
  0
VERTEX
  8
0
  5
321A
 10
-454.214
 20
-97.2980
 30
-2.01950e-14
  70
    32
  0
VERTEX
  8
0
  5
321B
 10
-454.259
 20
-97.2980
 30
-2.02048e-14
  70
    32
  0
VERTEX
  8
0
  5
321C
 10
-454.304
 20
-97.2980
 30
-2.02146e-14
  70
    32
  0
VERTEX
  8
0
  5
321D
 10
-454.349
 20
-97.2980
 30
-2.02244e-14
  70
    32
  0
VERTEX
  8
0
  5
321E
 10
-454.394
 20
-97.2980
 30
-2.02343e-14
  70
    32
  0
VERTEX
  8
0
  5
321F
 10
-454.439
 20
-97.2980
 30
-2.02442e-14
  70
    32
  0
VERTEX
  8
0
  5
3220
 10
-454.485
 20
-97.2980
 30
-2.02541e-14
  70
    32
  0
VERTEX
  8
0
  5
3221
 10
-454.530
 20
-97.2980
 30
-2.02640e-14
  70
    32
  0
VERTEX
  8
0
  5
3222
 10
-454.576
 20
-97.2980
 30
-2.02740e-14
  70
    32
  0
VERTEX
  8
0
  5
3223
 10
-454.621
 20
-97.2980
 30
-2.02839e-14
  70
    32
  0
VERTEX
  8
0
  5
3224
 10
-454.667
 20
-97.2980
 30
-2.02939e-14
  70
    32
  0
VERTEX
  8
0
  5
3225
 10
-454.713
 20
-97.2980
 30
-2.03039e-14
  70
    32
  0
VERTEX
  8
0
  5
3226
 10
-454.759
 20
-97.2980
 30
-2.03140e-14
  70
    32
  0
VERTEX
  8
0
  5
3227
 10
-454.805
 20
-97.2980
 30
-2.03240e-14
  70
    32
  0
VERTEX
  8
0
  5
3228
 10
-454.851
 20
-97.2980
 30
-2.03341e-14
  70
    32
  0
VERTEX
  8
0
  5
3229
 10
-454.898
 20
-97.2980
 30
-2.03442e-14
  70
    32
  0
VERTEX
  8
0
  5
322A
 10
-454.944
 20
-97.2980
 30
-2.03543e-14
  70
    32
  0
VERTEX
  8
0
  5
322B
 10
-454.991
 20
-97.2980
 30
-2.03644e-14
  70
    32
  0
VERTEX
  8
0
  5
322C
 10
-455.037
 20
-97.2980
 30
-2.03746e-14
  70
    32
  0
VERTEX
  8
0
  5
322D
 10
-455.084
 20
-97.2980
 30
-2.03847e-14
  70
    32
  0
VERTEX
  8
0
  5
322E
 10
-455.131
 20
-97.2980
 30
-2.03949e-14
  70
    32
  0
VERTEX
  8
0
  5
322F
 10
-455.178
 20
-97.2980
 30
-2.04051e-14
  70
    32
  0
VERTEX
  8
0
  5
3230
 10
-455.225
 20
-97.2980
 30
-2.04153e-14
  70
    32
  0
VERTEX
  8
0
  5
3231
 10
-455.272
 20
-97.2980
 30
-2.04256e-14
  70
    32
  0
VERTEX
  8
0
  5
3232
 10
-455.320
 20
-97.2980
 30
-2.04358e-14
  70
    32
  0
VERTEX
  8
0
  5
3233
 10
-455.367
 20
-97.2980
 30
-2.04461e-14
  70
    32
  0
VERTEX
  8
0
  5
3234
 10
-455.415
 20
-97.2980
 30
-2.04564e-14
  70
    32
  0
VERTEX
  8
0
  5
3235
 10
-455.462
 20
-97.2980
 30
-2.04667e-14
  70
    32
  0
VERTEX
  8
0
  5
3236
 10
-455.510
 20
-97.2980
 30
-2.04770e-14
  70
    32
  0
VERTEX
  8
0
  5
3237
 10
-455.558
 20
-97.2980
 30
-2.04873e-14
  70
    32
  0
VERTEX
  8
0
  5
3238
 10
-455.606
 20
-97.2980
 30
-2.04976e-14
  70
    32
  0
VERTEX
  8
0
  5
3239
 10
-455.654
 20
-97.2980
 30
-2.05080e-14
  70
    32
  0
VERTEX
  8
0
  5
323A
 10
-455.702
 20
-97.2980
 30
-2.05184e-14
  70
    32
  0
VERTEX
  8
0
  5
323B
 10
-455.751
 20
-97.2980
 30
-2.05288e-14
  70
    32
  0
VERTEX
  8
0
  5
323C
 10
-455.799
 20
-97.2980
 30
-2.05392e-14
  70
    32
  0
VERTEX
  8
0
  5
323D
 10
-455.848
 20
-97.2980
 30
-2.05496e-14
  70
    32
  0
VERTEX
  8
0
  5
323E
 10
-455.896
 20
-97.2980
 30
-2.05600e-14
  70
    32
  0
VERTEX
  8
0
  5
323F
 10
-455.945
 20
-97.2980
 30
-2.05704e-14
  70
    32
  0
VERTEX
  8
0
  5
3240
 10
-455.994
 20
-97.2980
 30
-2.05809e-14
  70
    32
  0
VERTEX
  8
0
  5
3241
 10
-456.043
 20
-97.2980
 30
-2.05914e-14
  70
    32
  0
VERTEX
  8
0
  5
3242
 10
-456.092
 20
-97.2980
 30
-2.06018e-14
  70
    32
  0
VERTEX
  8
0
  5
3243
 10
-456.141
 20
-97.2980
 30
-2.06123e-14
  70
    32
  0
VERTEX
  8
0
  5
3244
 10
-456.191
 20
-97.2980
 30
-2.06228e-14
  70
    32
  0
VERTEX
  8
0
  5
3245
 10
-456.240
 20
-97.2980
 30
-2.06334e-14
  70
    32
  0
VERTEX
  8
0
  5
3246
 10
-456.290
 20
-97.2980
 30
-2.06439e-14
  70
    32
  0
VERTEX
  8
0
  5
3247
 10
-456.340
 20
-97.2980
 30
-2.06544e-14
  70
    32
  0
VERTEX
  8
0
  5
3248
 10
-456.390
 20
-97.2980
 30
-2.06650e-14
  70
    32
  0
VERTEX
  8
0
  5
3249
 10
-456.440
 20
-97.2980
 30
-2.06755e-14
  70
    32
  0
VERTEX
  8
0
  5
324A
 10
-456.490
 20
-97.2980
 30
-2.06861e-14
  70
    32
  0
VERTEX
  8
0
  5
324B
 10
-456.540
 20
-97.2980
 30
-2.06967e-14
  70
    32
  0
VERTEX
  8
0
  5
324C
 10
-456.590
 20
-97.2980
 30
-2.07073e-14
  70
    32
  0
VERTEX
  8
0
  5
324D
 10
-456.641
 20
-97.2980
 30
-2.07179e-14
  70
    32
  0
VERTEX
  8
0
  5
324E
 10
-456.691
 20
-97.2980
 30
-2.07285e-14
  70
    32
  0
VERTEX
  8
0
  5
324F
 10
-456.742
 20
-97.2980
 30
-2.07391e-14
  70
    32
  0
VERTEX
  8
0
  5
3250
 10
-456.793
 20
-97.2980
 30
-2.07497e-14
  70
    32
  0
VERTEX
  8
0
  5
3251
 10
-456.844
 20
-97.2980
 30
-2.07603e-14
  70
    32
  0
VERTEX
  8
0
  5
3252
 10
-456.895
 20
-97.2980
 30
-2.07710e-14
  70
    32
  0
VERTEX
  8
0
  5
3253
 10
-456.946
 20
-97.2980
 30
-2.07816e-14
  70
    32
  0
VERTEX
  8
0
  5
3254
 10
-456.998
 20
-97.2980
 30
-2.07923e-14
  70
    32
  0
VERTEX
  8
0
  5
3255
 10
-457.049
 20
-97.2980
 30
-2.08030e-14
  70
    32
  0
VERTEX
  8
0
  5
3256
 10
-457.101
 20
-97.2980
 30
-2.08136e-14
  70
    32
  0
VERTEX
  8
0
  5
3257
 10
-457.152
 20
-97.2980
 30
-2.08243e-14
  70
    32
  0
VERTEX
  8
0
  5
3258
 10
-457.204
 20
-97.2980
 30
-2.08350e-14
  70
    32
  0
VERTEX
  8
0
  5
3259
 10
-457.256
 20
-97.2980
 30
-2.08457e-14
  70
    32
  0
VERTEX
  8
0
  5
325A
 10
-457.308
 20
-97.2980
 30
-2.08564e-14
  70
    32
  0
VERTEX
  8
0
  5
325B
 10
-457.361
 20
-97.2980
 30
-2.08671e-14
  70
    32
  0
VERTEX
  8
0
  5
325C
 10
-457.413
 20
-97.2980
 30
-2.08778e-14
  70
    32
  0
VERTEX
  8
0
  5
325D
 10
-457.465
 20
-97.2980
 30
-2.08885e-14
  70
    32
  0
VERTEX
  8
0
  5
325E
 10
-457.518
 20
-97.2980
 30
-2.08992e-14
  70
    32
  0
VERTEX
  8
0
  5
325F
 10
-457.571
 20
-97.2980
 30
-2.09099e-14
  70
    32
  0
VERTEX
  8
0
  5
3260
 10
-457.622
 20
-97.2980
 30
-2.09205e-14
  70
    32
  0
VERTEX
  8
0
  5
3261
 10
-457.671
 20
-97.2980
 30
-2.09308e-14
  70
    32
  0
VERTEX
  8
0
  5
3262
 10
-457.719
 20
-97.2980
 30
-2.09410e-14
  70
    32
  0
VERTEX
  8
0
  5
3263
 10
-457.765
 20
-97.2980
 30
-2.09510e-14
  70
    32
  0
VERTEX
  8
0
  5
3264
 10
-457.810
 20
-97.2980
 30
-2.09608e-14
  70
    32
  0
VERTEX
  8
0
  5
3265
 10
-457.853
 20
-97.2980
 30
-2.09704e-14
  70
    32
  0
VERTEX
  8
0
  5
3266
 10
-457.895
 20
-97.2980
 30
-2.09798e-14
  70
    32
  0
VERTEX
  8
0
  5
3267
 10
-457.935
 20
-97.2979
 30
-2.09891e-14
  70
    32
  0
VERTEX
  8
0
  5
3268
 10
-457.973
 20
-97.2979
 30
-2.09982e-14
  70
    32
  0
VERTEX
  8
0
  5
3269
 10
-458.010
 20
-97.2979
 30
-2.10071e-14
  70
    32
  0
VERTEX
  8
0
  5
326A
 10
-458.046
 20
-97.2979
 30
-2.10158e-14
  70
    32
  0
VERTEX
  8
0
  5
326B
 10
-458.081
 20
-97.2978
 30
-2.10243e-14
  70
    32
  0
VERTEX
  8
0
  5
326C
 10
-458.114
 20
-97.2978
 30
-2.10327e-14
  70
    32
  0
VERTEX
  8
0
  5
326D
 10
-458.146
 20
-97.2978
 30
-2.10409e-14
  70
    32
  0
VERTEX
  8
0
  5
326E
 10
-458.177
 20
-97.2978
 30
-2.10489e-14
  70
    32
  0
VERTEX
  8
0
  5
326F
 10
-458.206
 20
-97.2978
 30
-2.10568e-14
  70
    32
  0
VERTEX
  8
0
  5
3270
 10
-458.234
 20
-97.2978
 30
-2.10645e-14
  70
    32
  0
VERTEX
  8
0
  5
3271
 10
-458.262
 20
-97.2978
 30
-2.10720e-14
  70
    32
  0
VERTEX
  8
0
  5
3272
 10
-458.288
 20
-97.2978
 30
-2.10793e-14
  70
    32
  0
VERTEX
  8
0
  5
3273
 10
-458.313
 20
-97.2978
 30
-2.10865e-14
  70
    32
  0
VERTEX
  8
0
  5
3274
 10
-458.337
 20
-97.2978
 30
-2.10935e-14
  70
    32
  0
VERTEX
  8
0
  5
3275
 10
-458.360
 20
-97.2978
 30
-2.11004e-14
  70
    32
  0
VERTEX
  8
0
  5
3276
 10
-458.382
 20
-97.2979
 30
-2.11071e-14
  70
    32
  0
VERTEX
  8
0
  5
3277
 10
-458.404
 20
-97.2979
 30
-2.11137e-14
  70
    32
  0
VERTEX
  8
0
  5
3278
 10
-458.424
 20
-97.2980
 30
-2.11200e-14
  70
    32
  0
VERTEX
  8
0
  5
3279
 10
-458.444
 20
-97.2980
 30
-2.11263e-14
  70
    32
  0
VERTEX
  8
0
  5
327A
 10
-458.462
 20
-97.2981
 30
-2.11324e-14
  70
    32
  0
VERTEX
  8
0
  5
327B
 10
-458.480
 20
-97.2982
 30
-2.11383e-14
  70
    32
  0
VERTEX
  8
0
  5
327C
 10
-458.498
 20
-97.2982
 30
-2.11441e-14
  70
    32
  0
VERTEX
  8
0
  5
327D
 10
-458.514
 20
-97.2983
 30
-2.11497e-14
  70
    32
  0
VERTEX
  8
0
  5
327E
 10
-458.530
 20
-97.2985
 30
-2.11552e-14
  70
    32
  0
VERTEX
  8
0
  5
327F
 10
-458.545
 20
-97.2986
 30
-2.11605e-14
  70
    32
  0
VERTEX
  8
0
  5
3280
 10
-458.560
 20
-97.2987
 30
-2.11657e-14
  70
    32
  0
VERTEX
  8
0
  5
3281
 10
-458.574
 20
-97.2989
 30
-2.11707e-14
  70
    32
  0
VERTEX
  8
0
  5
3282
 10
-458.588
 20
-97.2990
 30
-2.11756e-14
  70
    32
  0
VERTEX
  8
0
  5
3283
 10
-458.601
 20
-97.2992
 30
-2.11804e-14
  70
    32
  0
VERTEX
  8
0
  5
3284
 10
-458.614
 20
-97.2994
 30
-2.11850e-14
  70
    32
  0
VERTEX
  8
0
  5
3285
 10
-458.626
 20
-97.2996
 30
-2.11894e-14
  70
    32
  0
VERTEX
  8
0
  5
3286
 10
-458.638
 20
-97.2998
 30
-2.11938e-14
  70
    32
  0
VERTEX
  8
0
  5
3287
 10
-458.650
 20
-97.3001
 30
-2.11980e-14
  70
    32
  0
VERTEX
  8
0
  5
3288
 10
-458.661
 20
-97.3003
 30
-2.12020e-14
  70
    32
  0
VERTEX
  8
0
  5
3289
 10
-458.672
 20
-97.3006
 30
-2.12060e-14
  70
    32
  0
VERTEX
  8
0
  5
328A
 10
-458.683
 20
-97.3009
 30
-2.12098e-14
  70
    32
  0
VERTEX
  8
0
  5
328B
 10
-458.694
 20
-97.3012
 30
-2.12134e-14
  70
    32
  0
VERTEX
  8
0
  5
328C
 10
-458.705
 20
-97.3015
 30
-2.12170e-14
  70
    32
  0
VERTEX
  8
0
  5
328D
 10
-458.715
 20
-97.3019
 30
-2.12204e-14
  70
    32
  0
VERTEX
  8
0
  5
328E
 10
-458.725
 20
-97.3022
 30
-2.12237e-14
  70
    32
  0
VERTEX
  8
0
  5
328F
 10
-458.736
 20
-97.3026
 30
-2.12268e-14
  70
    32
  0
VERTEX
  8
0
  5
3290
 10
-458.746
 20
-97.3030
 30
-2.12299e-14
  70
    32
  0
VERTEX
  8
0
  5
3291
 10
-458.756
 20
-97.3035
 30
-2.12328e-14
  70
    32
  0
VERTEX
  8
0
  5
3292
 10
-458.767
 20
-97.3039
 30
-2.12356e-14
  70
    32
  0
VERTEX
  8
0
  5
3293
 10
-458.777
 20
-97.3044
 30
-2.12383e-14
  70
    32
  0
VERTEX
  8
0
  5
3294
 10
-458.788
 20
-97.3049
 30
-2.12408e-14
  70
    32
  0
VERTEX
  8
0
  5
3295
 10
-458.799
 20
-97.3054
 30
-2.12433e-14
  70
    32
  0
VERTEX
  8
0
  5
3296
 10
-458.809
 20
-97.3060
 30
-2.12456e-14
  70
    32
  0
VERTEX
  8
0
  5
3297
 10
-458.820
 20
-97.3066
 30
-2.12480e-14
  70
    32
  0
VERTEX
  8
0
  5
3298
 10
-458.831
 20
-97.3072
 30
-2.12504e-14
  70
    32
  0
VERTEX
  8
0
  5
3299
 10
-458.842
 20
-97.3078
 30
-2.12527e-14
  70
    32
  0
VERTEX
  8
0
  5
329A
 10
-458.853
 20
-97.3084
 30
-2.12551e-14
  70
    32
  0
VERTEX
  8
0
  5
329B
 10
-458.864
 20
-97.3091
 30
-2.12574e-14
  70
    32
  0
VERTEX
  8
0
  5
329C
 10
-458.875
 20
-97.3097
 30
-2.12597e-14
  70
    32
  0
VERTEX
  8
0
  5
329D
 10
-458.886
 20
-97.3104
 30
-2.12621e-14
  70
    32
  0
VERTEX
  8
0
  5
329E
 10
-458.897
 20
-97.3111
 30
-2.12644e-14
  70
    32
  0
VERTEX
  8
0
  5
329F
 10
-458.908
 20
-97.3119
 30
-2.12667e-14
  70
    32
  0
VERTEX
  8
0
  5
32A0
 10
-458.919
 20
-97.3126
 30
-2.12690e-14
  70
    32
  0
VERTEX
  8
0
  5
32A1
 10
-458.930
 20
-97.3134
 30
-2.12713e-14
  70
    32
  0
VERTEX
  8
0
  5
32A2
 10
-458.941
 20
-97.3142
 30
-2.12736e-14
  70
    32
  0
VERTEX
  8
0
  5
32A3
 10
-458.952
 20
-97.3150
 30
-2.12758e-14
  70
    32
  0
VERTEX
  8
0
  5
32A4
 10
-458.963
 20
-97.3158
 30
-2.12781e-14
  70
    32
  0
VERTEX
  8
0
  5
32A5
 10
-458.974
 20
-97.3167
 30
-2.12804e-14
  70
    32
  0
VERTEX
  8
0
  5
32A6
 10
-458.985
 20
-97.3176
 30
-2.12826e-14
  70
    32
  0
VERTEX
  8
0
  5
32A7
 10
-458.996
 20
-97.3185
 30
-2.12849e-14
  70
    32
  0
VERTEX
  8
0
  5
32A8
 10
-459.007
 20
-97.3194
 30
-2.12871e-14
  70
    32
  0
VERTEX
  8
0
  5
32A9
 10
-459.018
 20
-97.3203
 30
-2.12893e-14
  70
    32
  0
VERTEX
  8
0
  5
32AA
 10
-459.029
 20
-97.3213
 30
-2.12916e-14
  70
    32
  0
VERTEX
  8
0
  5
32AB
 10
-459.040
 20
-97.3223
 30
-2.12938e-14
  70
    32
  0
VERTEX
  8
0
  5
32AC
 10
-459.051
 20
-97.3233
 30
-2.12960e-14
  70
    32
  0
VERTEX
  8
0
  5
32AD
 10
-459.062
 20
-97.3243
 30
-2.12982e-14
  70
    32
  0
VERTEX
  8
0
  5
32AE
 10
-459.074
 20
-97.3253
 30
-2.13004e-14
  70
    32
  0
VERTEX
  8
0
  5
32AF
 10
-459.085
 20
-97.3264
 30
-2.13026e-14
  70
    32
  0
VERTEX
  8
0
  5
32B0
 10
-459.096
 20
-97.3275
 30
-2.13048e-14
  70
    32
  0
VERTEX
  8
0
  5
32B1
 10
-459.107
 20
-97.3286
 30
-2.13069e-14
  70
    32
  0
VERTEX
  8
0
  5
32B2
 10
-459.118
 20
-97.3297
 30
-2.13091e-14
  70
    32
  0
VERTEX
  8
0
  5
32B3
 10
-459.129
 20
-97.3309
 30
-2.13113e-14
  70
    32
  0
VERTEX
  8
0
  5
32B4
 10
-459.140
 20
-97.3320
 30
-2.13135e-14
  70
    32
  0
VERTEX
  8
0
  5
32B5
 10
-459.152
 20
-97.3332
 30
-2.13156e-14
  70
    32
  0
VERTEX
  8
0
  5
32B6
 10
-459.163
 20
-97.3345
 30
-2.13178e-14
  70
    32
  0
VERTEX
  8
0
  5
32B7
 10
-459.174
 20
-97.3357
 30
-2.13199e-14
  70
    32
  0
VERTEX
  8
0
  5
32B8
 10
-459.185
 20
-97.3370
 30
-2.13220e-14
  70
    32
  0
VERTEX
  8
0
  5
32B9
 10
-459.196
 20
-97.3383
 30
-2.13242e-14
  70
    32
  0
VERTEX
  8
0
  5
32BA
 10
-459.208
 20
-97.3396
 30
-2.13263e-14
  70
    32
  0
VERTEX
  8
0
  5
32BB
 10
-459.219
 20
-97.3409
 30
-2.13284e-14
  70
    32
  0
VERTEX
  8
0
  5
32BC
 10
-459.230
 20
-97.3422
 30
-2.13305e-14
  70
    32
  0
VERTEX
  8
0
  5
32BD
 10
-459.241
 20
-97.3436
 30
-2.13327e-14
  70
    32
  0
VERTEX
  8
0
  5
32BE
 10
-459.252
 20
-97.3450
 30
-2.13348e-14
  70
    32
  0
VERTEX
  8
0
  5
32BF
 10
-459.264
 20
-97.3464
 30
-2.13369e-14
  70
    32
  0
VERTEX
  8
0
  5
32C0
 10
-459.275
 20
-97.3479
 30
-2.13390e-14
  70
    32
  0
VERTEX
  8
0
  5
32C1
 10
-459.286
 20
-97.3493
 30
-2.13411e-14
  70
    32
  0
VERTEX
  8
0
  5
32C2
 10
-459.297
 20
-97.3508
 30
-2.13431e-14
  70
    32
  0
VERTEX
  8
0
  5
32C3
 10
-459.309
 20
-97.3523
 30
-2.13452e-14
  70
    32
  0
VERTEX
  8
0
  5
32C4
 10
-459.320
 20
-97.3539
 30
-2.13473e-14
  70
    32
  0
VERTEX
  8
0
  5
32C5
 10
-459.331
 20
-97.3554
 30
-2.13494e-14
  70
    32
  0
VERTEX
  8
0
  5
32C6
 10
-459.343
 20
-97.3570
 30
-2.13515e-14
  70
    32
  0
VERTEX
  8
0
  5
32C7
 10
-459.354
 20
-97.3586
 30
-2.13535e-14
  70
    32
  0
VERTEX
  8
0
  5
32C8
 10
-459.365
 20
-97.3602
 30
-2.13556e-14
  70
    32
  0
VERTEX
  8
0
  5
32C9
 10
-459.377
 20
-97.3619
 30
-2.13577e-14
  70
    32
  0
VERTEX
  8
0
  5
32CA
 10
-459.388
 20
-97.3635
 30
-2.13597e-14
  70
    32
  0
VERTEX
  8
0
  5
32CB
 10
-459.399
 20
-97.3652
 30
-2.13618e-14
  70
    32
  0
VERTEX
  8
0
  5
32CC
 10
-459.411
 20
-97.3669
 30
-2.13638e-14
  70
    32
  0
VERTEX
  8
0
  5
32CD
 10
-459.422
 20
-97.3687
 30
-2.13659e-14
  70
    32
  0
VERTEX
  8
0
  5
32CE
 10
-459.433
 20
-97.3704
 30
-2.13679e-14
  70
    32
  0
VERTEX
  8
0
  5
32CF
 10
-459.445
 20
-97.3722
 30
-2.13699e-14
  70
    32
  0
VERTEX
  8
0
  5
32D0
 10
-459.456
 20
-97.3740
 30
-2.13720e-14
  70
    32
  0
VERTEX
  8
0
  5
32D1
 10
-459.467
 20
-97.3759
 30
-2.13740e-14
  70
    32
  0
VERTEX
  8
0
  5
32D2
 10
-459.479
 20
-97.3777
 30
-2.13760e-14
  70
    32
  0
VERTEX
  8
0
  5
32D3
 10
-459.490
 20
-97.3796
 30
-2.13781e-14
  70
    32
  0
VERTEX
  8
0
  5
32D4
 10
-459.502
 20
-97.3815
 30
-2.13801e-14
  70
    32
  0
VERTEX
  8
0
  5
32D5
 10
-459.513
 20
-97.3835
 30
-2.13821e-14
  70
    32
  0
VERTEX
  8
0
  5
32D6
 10
-459.524
 20
-97.3854
 30
-2.13841e-14
  70
    32
  0
VERTEX
  8
0
  5
32D7
 10
-459.536
 20
-97.3874
 30
-2.13861e-14
  70
    32
  0
VERTEX
  8
0
  5
32D8
 10
-459.547
 20
-97.3894
 30
-2.13881e-14
  70
    32
  0
VERTEX
  8
0
  5
32D9
 10
-459.559
 20
-97.3914
 30
-2.13901e-14
  70
    32
  0
VERTEX
  8
0
  5
32DA
 10
-459.570
 20
-97.3935
 30
-2.13922e-14
  70
    32
  0
VERTEX
  8
0
  5
32DB
 10
-459.582
 20
-97.3955
 30
-2.13942e-14
  70
    32
  0
VERTEX
  8
0
  5
32DC
 10
-459.593
 20
-97.3976
 30
-2.13962e-14
  70
    32
  0
VERTEX
  8
0
  5
32DD
 10
-459.605
 20
-97.3998
 30
-2.13982e-14
  70
    32
  0
VERTEX
  8
0
  5
32DE
 10
-459.616
 20
-97.4019
 30
-2.14002e-14
  70
    32
  0
VERTEX
  8
0
  5
32DF
 10
-459.628
 20
-97.4041
 30
-2.14022e-14
  70
    32
  0
VERTEX
  8
0
  5
32E0
 10
-459.639
 20
-97.4063
 30
-2.14042e-14
  70
    32
  0
VERTEX
  8
0
  5
32E1
 10
-459.650
 20
-97.4085
 30
-2.14062e-14
  70
    32
  0
VERTEX
  8
0
  5
32E2
 10
-459.662
 20
-97.4108
 30
-2.14081e-14
  70
    32
  0
VERTEX
  8
0
  5
32E3
 10
-459.673
 20
-97.4130
 30
-2.14101e-14
  70
    32
  0
VERTEX
  8
0
  5
32E4
 10
-459.685
 20
-97.4153
 30
-2.14121e-14
  70
    32
  0
VERTEX
  8
0
  5
32E5
 10
-459.697
 20
-97.4176
 30
-2.14141e-14
  70
    32
  0
VERTEX
  8
0
  5
32E6
 10
-459.708
 20
-97.4200
 30
-2.14161e-14
  70
    32
  0
VERTEX
  8
0
  5
32E7
 10
-459.720
 20
-97.4224
 30
-2.14181e-14
  70
    32
  0
VERTEX
  8
0
  5
32E8
 10
-459.731
 20
-97.4248
 30
-2.14201e-14
  70
    32
  0
VERTEX
  8
0
  5
32E9
 10
-459.743
 20
-97.4272
 30
-2.14221e-14
  70
    32
  0
VERTEX
  8
0
  5
32EA
 10
-459.754
 20
-97.4296
 30
-2.14240e-14
  70
    32
  0
VERTEX
  8
0
  5
32EB
 10
-459.766
 20
-97.4321
 30
-2.14260e-14
  70
    32
  0
VERTEX
  8
0
  5
32EC
 10
-459.777
 20
-97.4346
 30
-2.14280e-14
  70
    32
  0
VERTEX
  8
0
  5
32ED
 10
-459.789
 20
-97.4371
 30
-2.14300e-14
  70
    32
  0
VERTEX
  8
0
  5
32EE
 10
-459.800
 20
-97.4397
 30
-2.14320e-14
  70
    32
  0
VERTEX
  8
0
  5
32EF
 10
-459.812
 20
-97.4423
 30
-2.14340e-14
  70
    32
  0
VERTEX
  8
0
  5
32F0
 10
-459.824
 20
-97.4449
 30
-2.14359e-14
  70
    32
  0
VERTEX
  8
0
  5
32F1
 10
-459.835
 20
-97.4475
 30
-2.14379e-14
  70
    32
  0
VERTEX
  8
0
  5
32F2
 10
-459.847
 20
-97.4501
 30
-2.14399e-14
  70
    32
  0
VERTEX
  8
0
  5
32F3
 10
-459.858
 20
-97.4528
 30
-2.14419e-14
  70
    32
  0
VERTEX
  8
0
  5
32F4
 10
-459.870
 20
-97.4555
 30
-2.14439e-14
  70
    32
  0
VERTEX
  8
0
  5
32F5
 10
-459.882
 20
-97.4583
 30
-2.14458e-14
  70
    32
  0
VERTEX
  8
0
  5
32F6
 10
-459.893
 20
-97.4610
 30
-2.14478e-14
  70
    32
  0
VERTEX
  8
0
  5
32F7
 10
-459.905
 20
-97.4638
 30
-2.14498e-14
  70
    32
  0
VERTEX
  8
0
  5
32F8
 10
-459.917
 20
-97.4666
 30
-2.14518e-14
  70
    32
  0
VERTEX
  8
0
  5
32F9
 10
-459.928
 20
-97.4695
 30
-2.14538e-14
  70
    32
  0
VERTEX
  8
0
  5
32FA
 10
-459.940
 20
-97.4723
 30
-2.14558e-14
  70
    32
  0
VERTEX
  8
0
  5
32FB
 10
-459.952
 20
-97.4752
 30
-2.14577e-14
  70
    32
  0
VERTEX
  8
0
  5
32FC
 10
-459.963
 20
-97.4781
 30
-2.14597e-14
  70
    32
  0
VERTEX
  8
0
  5
32FD
 10
-459.975
 20
-97.4811
 30
-2.14617e-14
  70
    32
  0
VERTEX
  8
0
  5
32FE
 10
-459.986
 20
-97.4840
 30
-2.14637e-14
  70
    32
  0
VERTEX
  8
0
  5
32FF
 10
-459.998
 20
-97.4870
 30
-2.14657e-14
  70
    32
  0
VERTEX
  8
0
  5
3300
 10
-460.010
 20
-97.4901
 30
-2.14677e-14
  70
    32
  0
VERTEX
  8
0
  5
3301
 10
-460.022
 20
-97.4931
 30
-2.14697e-14
  70
    32
  0
VERTEX
  8
0
  5
3302
 10
-460.033
 20
-97.4962
 30
-2.14717e-14
  70
    32
  0
VERTEX
  8
0
  5
3303
 10
-460.045
 20
-97.4993
 30
-2.14737e-14
  70
    32
  0
VERTEX
  8
0
  5
3304
 10
-460.057
 20
-97.5024
 30
-2.14757e-14
  70
    32
  0
VERTEX
  8
0
  5
3305
 10
-460.068
 20
-97.5056
 30
-2.14777e-14
  70
    32
  0
VERTEX
  8
0
  5
3306
 10
-460.080
 20
-97.5088
 30
-2.14797e-14
  70
    32
  0
VERTEX
  8
0
  5
3307
 10
-460.092
 20
-97.5120
 30
-2.14817e-14
  70
    32
  0
VERTEX
  8
0
  5
3308
 10
-460.104
 20
-97.5152
 30
-2.14837e-14
  70
    32
  0
VERTEX
  8
0
  5
3309
 10
-460.115
 20
-97.5185
 30
-2.14857e-14
  70
    32
  0
VERTEX
  8
0
  5
330A
 10
-460.127
 20
-97.5218
 30
-2.14877e-14
  70
    32
  0
VERTEX
  8
0
  5
330B
 10
-460.139
 20
-97.5251
 30
-2.14897e-14
  70
    32
  0
VERTEX
  8
0
  5
330C
 10
-460.150
 20
-97.5285
 30
-2.14917e-14
  70
    32
  0
VERTEX
  8
0
  5
330D
 10
-460.162
 20
-97.5318
 30
-2.14937e-14
  70
    32
  0
VERTEX
  8
0
  5
330E
 10
-460.174
 20
-97.5353
 30
-2.14957e-14
  70
    32
  0
VERTEX
  8
0
  5
330F
 10
-460.186
 20
-97.5387
 30
-2.14978e-14
  70
    32
  0
VERTEX
  8
0
  5
3310
 10
-460.197
 20
-97.5421
 30
-2.14998e-14
  70
    32
  0
VERTEX
  8
0
  5
3311
 10
-460.209
 20
-97.5456
 30
-2.15018e-14
  70
    32
  0
VERTEX
  8
0
  5
3312
 10
-460.221
 20
-97.5492
 30
-2.15038e-14
  70
    32
  0
VERTEX
  8
0
  5
3313
 10
-460.233
 20
-97.5527
 30
-2.15059e-14
  70
    32
  0
VERTEX
  8
0
  5
3314
 10
-460.245
 20
-97.5563
 30
-2.15079e-14
  70
    32
  0
VERTEX
  8
0
  5
3315
 10
-460.256
 20
-97.5599
 30
-2.15099e-14
  70
    32
  0
VERTEX
  8
0
  5
3316
 10
-460.268
 20
-97.5635
 30
-2.15120e-14
  70
    32
  0
VERTEX
  8
0
  5
3317
 10
-460.280
 20
-97.5672
 30
-2.15140e-14
  70
    32
  0
VERTEX
  8
0
  5
3318
 10
-460.292
 20
-97.5709
 30
-2.15161e-14
  70
    32
  0
VERTEX
  8
0
  5
3319
 10
-460.304
 20
-97.5746
 30
-2.15181e-14
  70
    32
  0
VERTEX
  8
0
  5
331A
 10
-460.315
 20
-97.5783
 30
-2.15202e-14
  70
    32
  0
VERTEX
  8
0
  5
331B
 10
-460.327
 20
-97.5821
 30
-2.15223e-14
  70
    32
  0
VERTEX
  8
0
  5
331C
 10
-460.339
 20
-97.5859
 30
-2.15243e-14
  70
    32
  0
VERTEX
  8
0
  5
331D
 10
-460.351
 20
-97.5897
 30
-2.15264e-14
  70
    32
  0
VERTEX
  8
0
  5
331E
 10
-460.363
 20
-97.5936
 30
-2.15285e-14
  70
    32
  0
VERTEX
  8
0
  5
331F
 10
-460.375
 20
-97.5975
 30
-2.15305e-14
  70
    32
  0
VERTEX
  8
0
  5
3320
 10
-460.386
 20
-97.6014
 30
-2.15326e-14
  70
    32
  0
VERTEX
  8
0
  5
3321
 10
-460.398
 20
-97.6053
 30
-2.15347e-14
  70
    32
  0
VERTEX
  8
0
  5
3322
 10
-460.410
 20
-97.6093
 30
-2.15368e-14
  70
    32
  0
VERTEX
  8
0
  5
3323
 10
-460.422
 20
-97.6133
 30
-2.15389e-14
  70
    32
  0
VERTEX
  8
0
  5
3324
 10
-460.434
 20
-97.6174
 30
-2.15410e-14
  70
    32
  0
VERTEX
  8
0
  5
3325
 10
-460.446
 20
-97.6214
 30
-2.15431e-14
  70
    32
  0
VERTEX
  8
0
  5
3326
 10
-460.458
 20
-97.6255
 30
-2.15452e-14
  70
    32
  0
VERTEX
  8
0
  5
3327
 10
-460.469
 20
-97.6296
 30
-2.15473e-14
  70
    32
  0
VERTEX
  8
0
  5
3328
 10
-460.481
 20
-97.6338
 30
-2.15495e-14
  70
    32
  0
VERTEX
  8
0
  5
3329
 10
-460.493
 20
-97.6380
 30
-2.15516e-14
  70
    32
  0
VERTEX
  8
0
  5
332A
 10
-460.505
 20
-97.6422
 30
-2.15537e-14
  70
    32
  0
VERTEX
  8
0
  5
332B
 10
-460.517
 20
-97.6464
 30
-2.15558e-14
  70
    32
  0
VERTEX
  8
0
  5
332C
 10
-460.529
 20
-97.6507
 30
-2.15580e-14
  70
    32
  0
VERTEX
  8
0
  5
332D
 10
-460.541
 20
-97.6550
 30
-2.15601e-14
  70
    32
  0
VERTEX
  8
0
  5
332E
 10
-460.553
 20
-97.6593
 30
-2.15623e-14
  70
    32
  0
VERTEX
  8
0
  5
332F
 10
-460.565
 20
-97.6637
 30
-2.15644e-14
  70
    32
  0
VERTEX
  8
0
  5
3330
 10
-460.576
 20
-97.6681
 30
-2.15666e-14
  70
    32
  0
VERTEX
  8
0
  5
3331
 10
-460.588
 20
-97.6725
 30
-2.15688e-14
  70
    32
  0
VERTEX
  8
0
  5
3332
 10
-460.600
 20
-97.6770
 30
-2.15710e-14
  70
    32
  0
VERTEX
  8
0
  5
3333
 10
-460.612
 20
-97.6814
 30
-2.15731e-14
  70
    32
  0
VERTEX
  8
0
  5
3334
 10
-460.624
 20
-97.6860
 30
-2.15753e-14
  70
    32
  0
VERTEX
  8
0
  5
3335
 10
-460.636
 20
-97.6905
 30
-2.15775e-14
  70
    32
  0
VERTEX
  8
0
  5
3336
 10
-460.648
 20
-97.6951
 30
-2.15797e-14
  70
    32
  0
VERTEX
  8
0
  5
3337
 10
-460.660
 20
-97.6997
 30
-2.15819e-14
  70
    32
  0
VERTEX
  8
0
  5
3338
 10
-460.672
 20
-97.7043
 30
-2.15842e-14
  70
    32
  0
VERTEX
  8
0
  5
3339
 10
-460.684
 20
-97.7090
 30
-2.15864e-14
  70
    32
  0
VERTEX
  8
0
  5
333A
 10
-460.696
 20
-97.7137
 30
-2.15886e-14
  70
    32
  0
VERTEX
  8
0
  5
333B
 10
-460.708
 20
-97.7184
 30
-2.15908e-14
  70
    32
  0
VERTEX
  8
0
  5
333C
 10
-460.720
 20
-97.7232
 30
-2.15931e-14
  70
    32
  0
VERTEX
  8
0
  5
333D
 10
-460.732
 20
-97.7279
 30
-2.15953e-14
  70
    32
  0
VERTEX
  8
0
  5
333E
 10
-460.743
 20
-97.7328
 30
-2.15976e-14
  70
    32
  0
VERTEX
  8
0
  5
333F
 10
-460.755
 20
-97.7376
 30
-2.15999e-14
  70
    32
  0
VERTEX
  8
0
  5
3340
 10
-460.767
 20
-97.7425
 30
-2.16021e-14
  70
    32
  0
VERTEX
  8
0
  5
3341
 10
-460.779
 20
-97.7474
 30
-2.16044e-14
  70
    32
  0
VERTEX
  8
0
  5
3342
 10
-460.791
 20
-97.7524
 30
-2.16067e-14
  70
    32
  0
VERTEX
  8
0
  5
3343
 10
-460.803
 20
-97.7573
 30
-2.16090e-14
  70
    32
  0
VERTEX
  8
0
  5
3344
 10
-460.815
 20
-97.7623
 30
-2.16113e-14
  70
    32
  0
VERTEX
  8
0
  5
3345
 10
-460.827
 20
-97.7674
 30
-2.16136e-14
  70
    32
  0
VERTEX
  8
0
  5
3346
 10
-460.839
 20
-97.7724
 30
-2.16159e-14
  70
    32
  0
VERTEX
  8
0
  5
3347
 10
-460.851
 20
-97.7775
 30
-2.16182e-14
  70
    32
  0
VERTEX
  8
0
  5
3348
 10
-460.863
 20
-97.7827
 30
-2.16206e-14
  70
    32
  0
VERTEX
  8
0
  5
3349
 10
-460.875
 20
-97.7878
 30
-2.16229e-14
  70
    32
  0
VERTEX
  8
0
  5
334A
 10
-460.887
 20
-97.7930
 30
-2.16253e-14
  70
    32
  0
VERTEX
  8
0
  5
334B
 10
-460.899
 20
-97.7983
 30
-2.16276e-14
  70
    32
  0
VERTEX
  8
0
  5
334C
 10
-460.911
 20
-97.8035
 30
-2.16300e-14
  70
    32
  0
VERTEX
  8
0
  5
334D
 10
-460.923
 20
-97.8088
 30
-2.16324e-14
  70
    32
  0
VERTEX
  8
0
  5
334E
 10
-460.935
 20
-97.8141
 30
-2.16348e-14
  70
    32
  0
VERTEX
  8
0
  5
334F
 10
-460.947
 20
-97.8195
 30
-2.16371e-14
  70
    32
  0
VERTEX
  8
0
  5
3350
 10
-460.959
 20
-97.8249
 30
-2.16396e-14
  70
    32
  0
VERTEX
  8
0
  5
3351
 10
-460.971
 20
-97.8303
 30
-2.16420e-14
  70
    32
  0
VERTEX
  8
0
  5
3352
 10
-460.983
 20
-97.8358
 30
-2.16444e-14
  70
    32
  0
VERTEX
  8
0
  5
3353
 10
-460.995
 20
-97.8413
 30
-2.16468e-14
  70
    32
  0
VERTEX
  8
0
  5
3354
 10
-461.007
 20
-97.8468
 30
-2.16493e-14
  70
    32
  0
VERTEX
  8
0
  5
3355
 10
-461.019
 20
-97.8523
 30
-2.16517e-14
  70
    32
  0
VERTEX
  8
0
  5
3356
 10
-461.031
 20
-97.8579
 30
-2.16542e-14
  70
    32
  0
VERTEX
  8
0
  5
3357
 10
-461.043
 20
-97.8635
 30
-2.16566e-14
  70
    32
  0
VERTEX
  8
0
  5
3358
 10
-461.055
 20
-97.8692
 30
-2.16591e-14
  70
    32
  0
VERTEX
  8
0
  5
3359
 10
-461.067
 20
-97.8749
 30
-2.16616e-14
  70
    32
  0
VERTEX
  8
0
  5
335A
 10
-461.080
 20
-97.8806
 30
-2.16641e-14
  70
    32
  0
VERTEX
  8
0
  5
335B
 10
-461.092
 20
-97.8863
 30
-2.16666e-14
  70
    32
  0
VERTEX
  8
0
  5
335C
 10
-461.104
 20
-97.8921
 30
-2.16691e-14
  70
    32
  0
VERTEX
  8
0
  5
335D
 10
-461.116
 20
-97.8979
 30
-2.16717e-14
  70
    32
  0
VERTEX
  8
0
  5
335E
 10
-461.128
 20
-97.9038
 30
-2.16742e-14
  70
    32
  0
VERTEX
  8
0
  5
335F
 10
-461.140
 20
-97.9096
 30
-2.16768e-14
  70
    32
  0
VERTEX
  8
0
  5
3360
 10
-461.152
 20
-97.9155
 30
-2.16793e-14
  70
    32
  0
VERTEX
  8
0
  5
3361
 10
-461.164
 20
-97.9215
 30
-2.16819e-14
  70
    32
  0
VERTEX
  8
0
  5
3362
 10
-461.176
 20
-97.9275
 30
-2.16845e-14
  70
    32
  0
VERTEX
  8
0
  5
3363
 10
-461.188
 20
-97.9335
 30
-2.16872e-14
  70
    32
  0
VERTEX
  8
0
  5
3364
 10
-461.200
 20
-97.9395
 30
-2.16898e-14
  70
    32
  0
VERTEX
  8
0
  5
3365
 10
-461.212
 20
-97.9456
 30
-2.16924e-14
  70
    32
  0
VERTEX
  8
0
  5
3366
 10
-461.224
 20
-97.9517
 30
-2.16951e-14
  70
    32
  0
VERTEX
  8
0
  5
3367
 10
-461.236
 20
-97.9579
 30
-2.16978e-14
  70
    32
  0
VERTEX
  8
0
  5
3368
 10
-461.248
 20
-97.9640
 30
-2.17004e-14
  70
    32
  0
VERTEX
  8
0
  5
3369
 10
-461.260
 20
-97.9702
 30
-2.17031e-14
  70
    32
  0
VERTEX
  8
0
  5
336A
 10
-461.272
 20
-97.9765
 30
-2.17058e-14
  70
    32
  0
VERTEX
  8
0
  5
336B
 10
-461.284
 20
-97.9828
 30
-2.17086e-14
  70
    32
  0
VERTEX
  8
0
  5
336C
 10
-461.296
 20
-97.9891
 30
-2.17113e-14
  70
    32
  0
VERTEX
  8
0
  5
336D
 10
-461.308
 20
-97.9954
 30
-2.17140e-14
  70
    32
  0
VERTEX
  8
0
  5
336E
 10
-461.320
 20
-98.0018
 30
-2.17168e-14
  70
    32
  0
VERTEX
  8
0
  5
336F
 10
-461.332
 20
-98.0082
 30
-2.17195e-14
  70
    32
  0
VERTEX
  8
0
  5
3370
 10
-461.345
 20
-98.0147
 30
-2.17223e-14
  70
    32
  0
VERTEX
  8
0
  5
3371
 10
-461.357
 20
-98.0212
 30
-2.17251e-14
  70
    32
  0
VERTEX
  8
0
  5
3372
 10
-461.369
 20
-98.0277
 30
-2.17279e-14
  70
    32
  0
VERTEX
  8
0
  5
3373
 10
-461.381
 20
-98.0342
 30
-2.17307e-14
  70
    32
  0
VERTEX
  8
0
  5
3374
 10
-461.393
 20
-98.0408
 30
-2.17335e-14
  70
    32
  0
VERTEX
  8
0
  5
3375
 10
-461.405
 20
-98.0475
 30
-2.17363e-14
  70
    32
  0
VERTEX
  8
0
  5
3376
 10
-461.417
 20
-98.0541
 30
-2.17391e-14
  70
    32
  0
VERTEX
  8
0
  5
3377
 10
-461.429
 20
-98.0608
 30
-2.17419e-14
  70
    32
  0
VERTEX
  8
0
  5
3378
 10
-461.441
 20
-98.0675
 30
-2.17448e-14
  70
    32
  0
VERTEX
  8
0
  5
3379
 10
-461.453
 20
-98.0743
 30
-2.17476e-14
  70
    32
  0
VERTEX
  8
0
  5
337A
 10
-461.465
 20
-98.0811
 30
-2.17505e-14
  70
    32
  0
VERTEX
  8
0
  5
337B
 10
-461.477
 20
-98.0879
 30
-2.17534e-14
  70
    32
  0
VERTEX
  8
0
  5
337C
 10
-461.489
 20
-98.0948
 30
-2.17562e-14
  70
    32
  0
VERTEX
  8
0
  5
337D
 10
-461.501
 20
-98.1017
 30
-2.17591e-14
  70
    32
  0
VERTEX
  8
0
  5
337E
 10
-461.513
 20
-98.1087
 30
-2.17620e-14
  70
    32
  0
VERTEX
  8
0
  5
337F
 10
-461.525
 20
-98.1156
 30
-2.17649e-14
  70
    32
  0
VERTEX
  8
0
  5
3380
 10
-461.537
 20
-98.1227
 30
-2.17678e-14
  70
    32
  0
VERTEX
  8
0
  5
3381
 10
-461.549
 20
-98.1297
 30
-2.17707e-14
  70
    32
  0
VERTEX
  8
0
  5
3382
 10
-461.561
 20
-98.1368
 30
-2.17736e-14
  70
    32
  0
VERTEX
  8
0
  5
3383
 10
-461.573
 20
-98.1439
 30
-2.17766e-14
  70
    32
  0
VERTEX
  8
0
  5
3384
 10
-461.585
 20
-98.1511
 30
-2.17795e-14
  70
    32
  0
VERTEX
  8
0
  5
3385
 10
-461.597
 20
-98.1583
 30
-2.17824e-14
  70
    32
  0
VERTEX
  8
0
  5
3386
 10
-461.609
 20
-98.1655
 30
-2.17854e-14
  70
    32
  0
VERTEX
  8
0
  5
3387
 10
-461.621
 20
-98.1728
 30
-2.17883e-14
  70
    32
  0
VERTEX
  8
0
  5
3388
 10
-461.633
 20
-98.1801
 30
-2.17913e-14
  70
    32
  0
VERTEX
  8
0
  5
3389
 10
-461.645
 20
-98.1874
 30
-2.17942e-14
  70
    32
  0
VERTEX
  8
0
  5
338A
 10
-461.657
 20
-98.1948
 30
-2.17972e-14
  70
    32
  0
VERTEX
  8
0
  5
338B
 10
-461.669
 20
-98.2022
 30
-2.18001e-14
  70
    32
  0
VERTEX
  8
0
  5
338C
 10
-461.681
 20
-98.2096
 30
-2.18031e-14
  70
    32
  0
VERTEX
  8
0
  5
338D
 10
-461.693
 20
-98.2171
 30
-2.18061e-14
  70
    32
  0
VERTEX
  8
0
  5
338E
 10
-461.705
 20
-98.2246
 30
-2.18091e-14
  70
    32
  0
VERTEX
  8
0
  5
338F
 10
-461.717
 20
-98.2322
 30
-2.18120e-14
  70
    32
  0
VERTEX
  8
0
  5
3390
 10
-461.729
 20
-98.2398
 30
-2.18150e-14
  70
    32
  0
VERTEX
  8
0
  5
3391
 10
-461.741
 20
-98.2474
 30
-2.18180e-14
  70
    32
  0
VERTEX
  8
0
  5
3392
 10
-461.753
 20
-98.2551
 30
-2.18210e-14
  70
    32
  0
VERTEX
  8
0
  5
3393
 10
-461.765
 20
-98.2628
 30
-2.18240e-14
  70
    32
  0
VERTEX
  8
0
  5
3394
 10
-461.777
 20
-98.2706
 30
-2.18270e-14
  70
    32
  0
VERTEX
  8
0
  5
3395
 10
-461.789
 20
-98.2783
 30
-2.18300e-14
  70
    32
  0
VERTEX
  8
0
  5
3396
 10
-461.801
 20
-98.2862
 30
-2.18330e-14
  70
    32
  0
VERTEX
  8
0
  5
3397
 10
-461.812
 20
-98.2940
 30
-2.18360e-14
  70
    32
  0
VERTEX
  8
0
  5
3398
 10
-461.824
 20
-98.3019
 30
-2.18390e-14
  70
    32
  0
VERTEX
  8
0
  5
3399
 10
-461.836
 20
-98.3099
 30
-2.18420e-14
  70
    32
  0
VERTEX
  8
0
  5
339A
 10
-461.848
 20
-98.3178
 30
-2.18450e-14
  70
    32
  0
VERTEX
  8
0
  5
339B
 10
-461.860
 20
-98.3259
 30
-2.18480e-14
  70
    32
  0
VERTEX
  8
0
  5
339C
 10
-461.872
 20
-98.3339
 30
-2.18510e-14
  70
    32
  0
VERTEX
  8
0
  5
339D
 10
-461.884
 20
-98.3420
 30
-2.18540e-14
  70
    32
  0
VERTEX
  8
0
  5
339E
 10
-461.896
 20
-98.3501
 30
-2.18570e-14
  70
    32
  0
VERTEX
  8
0
  5
339F
 10
-461.908
 20
-98.3583
 30
-2.18600e-14
  70
    32
  0
VERTEX
  8
0
  5
33A0
 10
-461.920
 20
-98.3665
 30
-2.18630e-14
  70
    32
  0
VERTEX
  8
0
  5
33A1
 10
-461.931
 20
-98.3747
 30
-2.18661e-14
  70
    32
  0
VERTEX
  8
0
  5
33A2
 10
-461.943
 20
-98.3830
 30
-2.18691e-14
  70
    32
  0
VERTEX
  8
0
  5
33A3
 10
-461.955
 20
-98.3913
 30
-2.18721e-14
  70
    32
  0
VERTEX
  8
0
  5
33A4
 10
-461.967
 20
-98.3997
 30
-2.18751e-14
  70
    32
  0
VERTEX
  8
0
  5
33A5
 10
-461.979
 20
-98.4081
 30
-2.18781e-14
  70
    32
  0
VERTEX
  8
0
  5
33A6
 10
-461.991
 20
-98.4165
 30
-2.18811e-14
  70
    32
  0
VERTEX
  8
0
  5
33A7
 10
-462.003
 20
-98.4250
 30
-2.18841e-14
  70
    32
  0
VERTEX
  8
0
  5
33A8
 10
-462.014
 20
-98.4335
 30
-2.18871e-14
  70
    32
  0
VERTEX
  8
0
  5
33A9
 10
-462.026
 20
-98.4421
 30
-2.18901e-14
  70
    32
  0
VERTEX
  8
0
  5
33AA
 10
-462.038
 20
-98.4507
 30
-2.18931e-14
  70
    32
  0
VERTEX
  8
0
  5
33AB
 10
-462.050
 20
-98.4593
 30
-2.18961e-14
  70
    32
  0
VERTEX
  8
0
  5
33AC
 10
-462.062
 20
-98.4680
 30
-2.18991e-14
  70
    32
  0
VERTEX
  8
0
  5
33AD
 10
-462.073
 20
-98.4767
 30
-2.19021e-14
  70
    32
  0
VERTEX
  8
0
  5
33AE
 10
-462.085
 20
-98.4854
 30
-2.19050e-14
  70
    32
  0
VERTEX
  8
0
  5
33AF
 10
-462.097
 20
-98.4942
 30
-2.19080e-14
  70
    32
  0
VERTEX
  8
0
  5
33B0
 10
-462.109
 20
-98.5031
 30
-2.19110e-14
  70
    32
  0
VERTEX
  8
0
  5
33B1
 10
-462.121
 20
-98.5119
 30
-2.19140e-14
  70
    32
  0
VERTEX
  8
0
  5
33B2
 10
-462.132
 20
-98.5209
 30
-2.19170e-14
  70
    32
  0
VERTEX
  8
0
  5
33B3
 10
-462.144
 20
-98.5298
 30
-2.19199e-14
  70
    32
  0
VERTEX
  8
0
  5
33B4
 10
-462.156
 20
-98.5388
 30
-2.19229e-14
  70
    32
  0
VERTEX
  8
0
  5
33B5
 10
-462.167
 20
-98.5478
 30
-2.19258e-14
  70
    32
  0
VERTEX
  8
0
  5
33B6
 10
-462.179
 20
-98.5569
 30
-2.19288e-14
  70
    32
  0
VERTEX
  8
0
  5
33B7
 10
-462.191
 20
-98.5660
 30
-2.19317e-14
  70
    32
  0
VERTEX
  8
0
  5
33B8
 10
-462.203
 20
-98.5752
 30
-2.19347e-14
  70
    32
  0
VERTEX
  8
0
  5
33B9
 10
-462.214
 20
-98.5844
 30
-2.19376e-14
  70
    32
  0
VERTEX
  8
0
  5
33BA
 10
-462.226
 20
-98.5936
 30
-2.19406e-14
  70
    32
  0
VERTEX
  8
0
  5
33BB
 10
-462.238
 20
-98.6029
 30
-2.19435e-14
  70
    32
  0
VERTEX
  8
0
  5
33BC
 10
-462.249
 20
-98.6122
 30
-2.19464e-14
  70
    32
  0
VERTEX
  8
0
  5
33BD
 10
-462.261
 20
-98.6216
 30
-2.19493e-14
  70
    32
  0
VERTEX
  8
0
  5
33BE
 10
-462.273
 20
-98.6310
 30
-2.19522e-14
  70
    32
  0
VERTEX
  8
0
  5
33BF
 10
-462.284
 20
-98.6404
 30
-2.19551e-14
  70
    32
  0
VERTEX
  8
0
  5
33C0
 10
-462.296
 20
-98.6499
 30
-2.19580e-14
  70
    32
  0
VERTEX
  8
0
  5
33C1
 10
-462.308
 20
-98.6594
 30
-2.19609e-14
  70
    32
  0
VERTEX
  8
0
  5
33C2
 10
-462.319
 20
-98.6690
 30
-2.19638e-14
  70
    32
  0
VERTEX
  8
0
  5
33C3
 10
-462.331
 20
-98.6786
 30
-2.19667e-14
  70
    32
  0
VERTEX
  8
0
  5
33C4
 10
-462.342
 20
-98.6883
 30
-2.19695e-14
  70
    32
  0
VERTEX
  8
0
  5
33C5
 10
-462.354
 20
-98.6980
 30
-2.19724e-14
  70
    32
  0
VERTEX
  8
0
  5
33C6
 10
-462.366
 20
-98.7077
 30
-2.19752e-14
  70
    32
  0
VERTEX
  8
0
  5
33C7
 10
-462.377
 20
-98.7175
 30
-2.19781e-14
  70
    32
  0
VERTEX
  8
0
  5
33C8
 10
-462.389
 20
-98.7273
 30
-2.19809e-14
  70
    32
  0
VERTEX
  8
0
  5
33C9
 10
-462.400
 20
-98.7371
 30
-2.19837e-14
  70
    32
  0
VERTEX
  8
0
  5
33CA
 10
-462.412
 20
-98.7471
 30
-2.19865e-14
  70
    32
  0
VERTEX
  8
0
  5
33CB
 10
-462.423
 20
-98.7570
 30
-2.19893e-14
  70
    32
  0
VERTEX
  8
0
  5
33CC
 10
-462.435
 20
-98.7670
 30
-2.19921e-14
  70
    32
  0
VERTEX
  8
0
  5
33CD
 10
-462.446
 20
-98.7770
 30
-2.19949e-14
  70
    32
  0
VERTEX
  8
0
  5
33CE
 10
-462.458
 20
-98.7871
 30
-2.19977e-14
  70
    32
  0
VERTEX
  8
0
  5
33CF
 10
-462.469
 20
-98.7972
 30
-2.20005e-14
  70
    32
  0
VERTEX
  8
0
  5
33D0
 10
-462.481
 20
-98.8074
 30
-2.20032e-14
  70
    32
  0
VERTEX
  8
0
  5
33D1
 10
-462.492
 20
-98.8176
 30
-2.20060e-14
  70
    32
  0
VERTEX
  8
0
  5
33D2
 10
-462.504
 20
-98.8278
 30
-2.20087e-14
  70
    32
  0
VERTEX
  8
0
  5
33D3
 10
-462.515
 20
-98.8381
 30
-2.20114e-14
  70
    32
  0
VERTEX
  8
0
  5
33D4
 10
-462.526
 20
-98.8484
 30
-2.20141e-14
  70
    32
  0
VERTEX
  8
0
  5
33D5
 10
-462.538
 20
-98.8588
 30
-2.20168e-14
  70
    32
  0
VERTEX
  8
0
  5
33D6
 10
-462.549
 20
-98.8692
 30
-2.20195e-14
  70
    32
  0
VERTEX
  8
0
  5
33D7
 10
-462.561
 20
-98.8797
 30
-2.20222e-14
  70
    32
  0
VERTEX
  8
0
  5
33D8
 10
-462.572
 20
-98.8902
 30
-2.20249e-14
  70
    32
  0
VERTEX
  8
0
  5
33D9
 10
-462.583
 20
-98.9007
 30
-2.20275e-14
  70
    32
  0
VERTEX
  8
0
  5
33DA
 10
-462.595
 20
-98.9113
 30
-2.20302e-14
  70
    32
  0
VERTEX
  8
0
  5
33DB
 10
-462.606
 20
-98.9220
 30
-2.20328e-14
  70
    32
  0
VERTEX
  8
0
  5
33DC
 10
-462.617
 20
-98.9326
 30
-2.20354e-14
  70
    32
  0
VERTEX
  8
0
  5
33DD
 10
-462.629
 20
-98.9434
 30
-2.20380e-14
  70
    32
  0
VERTEX
  8
0
  5
33DE
 10
-462.640
 20
-98.9541
 30
-2.20406e-14
  70
    32
  0
VERTEX
  8
0
  5
33DF
 10
-462.651
 20
-98.9649
 30
-2.20432e-14
  70
    32
  0
VERTEX
  8
0
  5
33E0
 10
-462.663
 20
-98.9758
 30
-2.20457e-14
  70
    32
  0
VERTEX
  8
0
  5
33E1
 10
-462.674
 20
-98.9867
 30
-2.20483e-14
  70
    32
  0
VERTEX
  8
0
  5
33E2
 10
-462.685
 20
-98.9976
 30
-2.20508e-14
  70
    32
  0
VERTEX
  8
0
  5
33E3
 10
-462.696
 20
-99.0086
 30
-2.20533e-14
  70
    32
  0
VERTEX
  8
0
  5
33E4
 10
-462.708
 20
-99.0196
 30
-2.20558e-14
  70
    32
  0
VERTEX
  8
0
  5
33E5
 10
-462.719
 20
-99.0307
 30
-2.20583e-14
  70
    32
  0
VERTEX
  8
0
  5
33E6
 10
-462.730
 20
-99.0418
 30
-2.20608e-14
  70
    32
  0
VERTEX
  8
0
  5
33E7
 10
-462.741
 20
-99.0530
 30
-2.20633e-14
  70
    32
  0
VERTEX
  8
0
  5
33E8
 10
-462.752
 20
-99.0642
 30
-2.20657e-14
  70
    32
  0
VERTEX
  8
0
  5
33E9
 10
-462.763
 20
-99.0755
 30
-2.20681e-14
  70
    32
  0
VERTEX
  8
0
  5
33EA
 10
-462.775
 20
-99.0868
 30
-2.20705e-14
  70
    32
  0
VERTEX
  8
0
  5
33EB
 10
-462.786
 20
-99.0981
 30
-2.20729e-14
  70
    32
  0
VERTEX
  8
0
  5
33EC
 10
-462.797
 20
-99.1095
 30
-2.20753e-14
  70
    32
  0
VERTEX
  8
0
  5
33ED
 10
-462.808
 20
-99.1210
 30
-2.20777e-14
  70
    32
  0
VERTEX
  8
0
  5
33EE
 10
-462.819
 20
-99.1324
 30
-2.20800e-14
  70
    32
  0
VERTEX
  8
0
  5
33EF
 10
-462.830
 20
-99.1440
 30
-2.20824e-14
  70
    32
  0
VERTEX
  8
0
  5
33F0
 10
-462.841
 20
-99.1555
 30
-2.20847e-14
  70
    32
  0
VERTEX
  8
0
  5
33F1
 10
-462.852
 20
-99.1672
 30
-2.20870e-14
  70
    32
  0
VERTEX
  8
0
  5
33F2
 10
-462.863
 20
-99.1788
 30
-2.20892e-14
  70
    32
  0
VERTEX
  8
0
  5
33F3
 10
-462.874
 20
-99.1905
 30
-2.20915e-14
  70
    32
  0
VERTEX
  8
0
  5
33F4
 10
-462.885
 20
-99.2023
 30
-2.20937e-14
  70
    32
  0
VERTEX
  8
0
  5
33F5
 10
-462.896
 20
-99.2141
 30
-2.20960e-14
  70
    32
  0
VERTEX
  8
0
  5
33F6
 10
-462.907
 20
-99.2259
 30
-2.20982e-14
  70
    32
  0
VERTEX
  8
0
  5
33F7
 10
-462.918
 20
-99.2378
 30
-2.21003e-14
  70
    32
  0
VERTEX
  8
0
  5
33F8
 10
-462.929
 20
-99.2498
 30
-2.21025e-14
  70
    32
  0
VERTEX
  8
0
  5
33F9
 10
-462.940
 20
-99.2618
 30
-2.21047e-14
  70
    32
  0
VERTEX
  8
0
  5
33FA
 10
-462.951
 20
-99.2738
 30
-2.21068e-14
  70
    32
  0
VERTEX
  8
0
  5
33FB
 10
-462.962
 20
-99.2859
 30
-2.21089e-14
  70
    32
  0
VERTEX
  8
0
  5
33FC
 10
-462.973
 20
-99.2980
 30
-2.21110e-14
  70
    32
  0
VERTEX
  8
0
  5
33FD
 10
-462.984
 20
-99.3102
 30
-2.21131e-14
  70
    32
  0
VERTEX
  8
0
  5
33FE
 10
-462.994
 20
-99.3224
 30
-2.21151e-14
  70
    32
  0
VERTEX
  8
0
  5
33FF
 10
-463.005
 20
-99.3347
 30
-2.21172e-14
  70
    32
  0
VERTEX
  8
0
  5
3400
 10
-463.016
 20
-99.3470
 30
-2.21193e-14
  70
    32
  0
VERTEX
  8
0
  5
3401
 10
-463.027
 20
-99.3593
 30
-2.21214e-14
  70
    32
  0
VERTEX
  8
0
  5
3402
 10
-463.038
 20
-99.3717
 30
-2.21235e-14
  70
    32
  0
VERTEX
  8
0
  5
3403
 10
-463.048
 20
-99.3842
 30
-2.21256e-14
  70
    32
  0
VERTEX
  8
0
  5
3404
 10
-463.059
 20
-99.3967
 30
-2.21277e-14
  70
    32
  0
VERTEX
  8
0
  5
3405
 10
-463.070
 20
-99.4092
 30
-2.21298e-14
  70
    32
  0
VERTEX
  8
0
  5
3406
 10
-463.081
 20
-99.4218
 30
-2.21319e-14
  70
    32
  0
VERTEX
  8
0
  5
3407
 10
-463.091
 20
-99.4345
 30
-2.21340e-14
  70
    32
  0
VERTEX
  8
0
  5
3408
 10
-463.102
 20
-99.4472
 30
-2.21361e-14
  70
    32
  0
VERTEX
  8
0
  5
3409
 10
-463.112
 20
-99.4599
 30
-2.21382e-14
  70
    32
  0
VERTEX
  8
0
  5
340A
 10
-463.123
 20
-99.4727
 30
-2.21403e-14
  70
    32
  0
VERTEX
  8
0
  5
340B
 10
-463.134
 20
-99.4855
 30
-2.21424e-14
  70
    32
  0
VERTEX
  8
0
  5
340C
 10
-463.144
 20
-99.4984
 30
-2.21445e-14
  70
    32
  0
VERTEX
  8
0
  5
340D
 10
-463.155
 20
-99.5113
 30
-2.21467e-14
  70
    32
  0
VERTEX
  8
0
  5
340E
 10
-463.165
 20
-99.5243
 30
-2.21488e-14
  70
    32
  0
VERTEX
  8
0
  5
340F
 10
-463.176
 20
-99.5373
 30
-2.21509e-14
  70
    32
  0
VERTEX
  8
0
  5
3410
 10
-463.186
 20
-99.5504
 30
-2.21530e-14
  70
    32
  0
VERTEX
  8
0
  5
3411
 10
-463.197
 20
-99.5635
 30
-2.21551e-14
  70
    32
  0
VERTEX
  8
0
  5
3412
 10
-463.207
 20
-99.5767
 30
-2.21573e-14
  70
    32
  0
VERTEX
  8
0
  5
3413
 10
-463.218
 20
-99.5899
 30
-2.21594e-14
  70
    32
  0
VERTEX
  8
0
  5
3414
 10
-463.228
 20
-99.6031
 30
-2.21615e-14
  70
    32
  0
VERTEX
  8
0
  5
3415
 10
-463.239
 20
-99.6165
 30
-2.21637e-14
  70
    32
  0
VERTEX
  8
0
  5
3416
 10
-463.249
 20
-99.6298
 30
-2.21658e-14
  70
    32
  0
VERTEX
  8
0
  5
3417
 10
-463.259
 20
-99.6432
 30
-2.21679e-14
  70
    32
  0
VERTEX
  8
0
  5
3418
 10
-463.270
 20
-99.6567
 30
-2.21700e-14
  70
    32
  0
VERTEX
  8
0
  5
3419
 10
-463.280
 20
-99.6702
 30
-2.21722e-14
  70
    32
  0
VERTEX
  8
0
  5
341A
 10
-463.290
 20
-99.6837
 30
-2.21743e-14
  70
    32
  0
VERTEX
  8
0
  5
341B
 10
-463.301
 20
-99.6973
 30
-2.21764e-14
  70
    32
  0
VERTEX
  8
0
  5
341C
 10
-463.311
 20
-99.7110
 30
-2.21786e-14
  70
    32
  0
VERTEX
  8
0
  5
341D
 10
-463.321
 20
-99.7247
 30
-2.21807e-14
  70
    32
  0
VERTEX
  8
0
  5
341E
 10
-463.331
 20
-99.7384
 30
-2.21828e-14
  70
    32
  0
VERTEX
  8
0
  5
341F
 10
-463.341
 20
-99.7522
 30
-2.21849e-14
  70
    32
  0
VERTEX
  8
0
  5
3420
 10
-463.351
 20
-99.7661
 30
-2.21871e-14
  70
    32
  0
VERTEX
  8
0
  5
3421
 10
-463.362
 20
-99.7800
 30
-2.21892e-14
  70
    32
  0
VERTEX
  8
0
  5
3422
 10
-463.372
 20
-99.7939
 30
-2.21913e-14
  70
    32
  0
VERTEX
  8
0
  5
3423
 10
-463.382
 20
-99.8079
 30
-2.21934e-14
  70
    32
  0
VERTEX
  8
0
  5
3424
 10
-463.392
 20
-99.8220
 30
-2.21956e-14
  70
    32
  0
VERTEX
  8
0
  5
3425
 10
-463.402
 20
-99.8361
 30
-2.21977e-14
  70
    32
  0
VERTEX
  8
0
  5
3426
 10
-463.412
 20
-99.8502
 30
-2.21998e-14
  70
    32
  0
VERTEX
  8
0
  5
3427
 10
-463.422
 20
-99.8644
 30
-2.22019e-14
  70
    32
  0
VERTEX
  8
0
  5
3428
 10
-463.432
 20
-99.8787
 30
-2.22040e-14
  70
    32
  0
VERTEX
  8
0
  5
3429
 10
-463.442
 20
-99.8930
 30
-2.22061e-14
  70
    32
  0
VERTEX
  8
0
  5
342A
 10
-463.451
 20
-99.9073
 30
-2.22082e-14
  70
    32
  0
VERTEX
  8
0
  5
342B
 10
-463.461
 20
-99.9217
 30
-2.22103e-14
  70
    32
  0
VERTEX
  8
0
  5
342C
 10
-463.471
 20
-99.9361
 30
-2.22124e-14
  70
    32
  0
VERTEX
  8
0
  5
342D
 10
-463.481
 20
-99.9506
 30
-2.22145e-14
  70
    32
  0
VERTEX
  8
0
  5
342E
 10
-463.491
 20
-99.9652
 30
-2.22166e-14
  70
    32
  0
VERTEX
  8
0
  5
342F
 10
-463.500
 20
-99.9798
 30
-2.22187e-14
  70
    32
  0
VERTEX
  8
0
  5
3430
 10
-463.510
 20
-99.9944
 30
-2.22208e-14
  70
    32
  0
VERTEX
  8
0
  5
3431
 10
-463.520
 20
-100.009
 30
-2.22229e-14
  70
    32
  0
VERTEX
  8
0
  5
3432
 10
-463.529
 20
-100.024
 30
-2.22249e-14
  70
    32
  0
VERTEX
  8
0
  5
3433
 10
-463.539
 20
-100.039
 30
-2.22270e-14
  70
    32
  0
VERTEX
  8
0
  5
3434
 10
-463.549
 20
-100.054
 30
-2.22291e-14
  70
    32
  0
VERTEX
  8
0
  5
3435
 10
-463.558
 20
-100.068
 30
-2.22311e-14
  70
    32
  0
VERTEX
  8
0
  5
3436
 10
-463.568
 20
-100.083
 30
-2.22332e-14
  70
    32
  0
VERTEX
  8
0
  5
3437
 10
-463.577
 20
-100.098
 30
-2.22352e-14
  70
    32
  0
VERTEX
  8
0
  5
3438
 10
-463.587
 20
-100.113
 30
-2.22373e-14
  70
    32
  0
VERTEX
  8
0
  5
3439
 10
-463.596
 20
-100.129
 30
-2.22393e-14
  70
    32
  0
VERTEX
  8
0
  5
343A
 10
-463.605
 20
-100.144
 30
-2.22414e-14
  70
    32
  0
VERTEX
  8
0
  5
343B
 10
-463.615
 20
-100.159
 30
-2.22434e-14
  70
    32
  0
VERTEX
  8
0
  5
343C
 10
-463.624
 20
-100.174
 30
-2.22454e-14
  70
    32
  0
VERTEX
  8
0
  5
343D
 10
-463.634
 20
-100.189
 30
-2.22474e-14
  70
    32
  0
VERTEX
  8
0
  5
343E
 10
-463.643
 20
-100.205
 30
-2.22495e-14
  70
    32
  0
VERTEX
  8
0
  5
343F
 10
-463.652
 20
-100.220
 30
-2.22515e-14
  70
    32
  0
VERTEX
  8
0
  5
3440
 10
-463.661
 20
-100.236
 30
-2.22535e-14
  70
    32
  0
VERTEX
  8
0
  5
3441
 10
-463.670
 20
-100.251
 30
-2.22555e-14
  70
    32
  0
VERTEX
  8
0
  5
3442
 10
-463.680
 20
-100.267
 30
-2.22575e-14
  70
    32
  0
VERTEX
  8
0
  5
3443
 10
-463.689
 20
-100.282
 30
-2.22594e-14
  70
    32
  0
VERTEX
  8
0
  5
3444
 10
-463.698
 20
-100.298
 30
-2.22614e-14
  70
    32
  0
VERTEX
  8
0
  5
3445
 10
-463.707
 20
-100.314
 30
-2.22634e-14
  70
    32
  0
VERTEX
  8
0
  5
3446
 10
-463.716
 20
-100.330
 30
-2.22653e-14
  70
    32
  0
VERTEX
  8
0
  5
3447
 10
-463.725
 20
-100.345
 30
-2.22673e-14
  70
    32
  0
VERTEX
  8
0
  5
3448
 10
-463.734
 20
-100.361
 30
-2.22692e-14
  70
    32
  0
VERTEX
  8
0
  5
3449
 10
-463.743
 20
-100.377
 30
-2.22712e-14
  70
    32
  0
VERTEX
  8
0
  5
344A
 10
-463.751
 20
-100.393
 30
-2.22731e-14
  70
    32
  0
VERTEX
  8
0
  5
344B
 10
-463.760
 20
-100.409
 30
-2.22750e-14
  70
    32
  0
VERTEX
  8
0
  5
344C
 10
-463.769
 20
-100.425
 30
-2.22769e-14
  70
    32
  0
VERTEX
  8
0
  5
344D
 10
-463.778
 20
-100.442
 30
-2.22788e-14
  70
    32
  0
VERTEX
  8
0
  5
344E
 10
-463.787
 20
-100.458
 30
-2.22807e-14
  70
    32
  0
VERTEX
  8
0
  5
344F
 10
-463.795
 20
-100.474
 30
-2.22826e-14
  70
    32
  0
VERTEX
  8
0
  5
3450
 10
-463.804
 20
-100.490
 30
-2.22845e-14
  70
    32
  0
VERTEX
  8
0
  5
3451
 10
-463.813
 20
-100.507
 30
-2.22864e-14
  70
    32
  0
VERTEX
  8
0
  5
3452
 10
-463.821
 20
-100.523
 30
-2.22882e-14
  70
    32
  0
VERTEX
  8
0
  5
3453
 10
-463.830
 20
-100.540
 30
-2.22901e-14
  70
    32
  0
VERTEX
  8
0
  5
3454
 10
-463.838
 20
-100.556
 30
-2.22919e-14
  70
    32
  0
VERTEX
  8
0
  5
3455
 10
-463.847
 20
-100.573
 30
-2.22937e-14
  70
    32
  0
VERTEX
  8
0
  5
3456
 10
-463.855
 20
-100.589
 30
-2.22956e-14
  70
    32
  0
VERTEX
  8
0
  5
3457
 10
-463.863
 20
-100.606
 30
-2.22974e-14
  70
    32
  0
VERTEX
  8
0
  5
3458
 10
-463.872
 20
-100.623
 30
-2.22992e-14
  70
    32
  0
VERTEX
  8
0
  5
3459
 10
-463.880
 20
-100.640
 30
-2.23010e-14
  70
    32
  0
VERTEX
  8
0
  5
345A
 10
-463.888
 20
-100.656
 30
-2.23027e-14
  70
    32
  0
VERTEX
  8
0
  5
345B
 10
-463.897
 20
-100.673
 30
-2.23045e-14
  70
    32
  0
VERTEX
  8
0
  5
345C
 10
-463.905
 20
-100.690
 30
-2.23063e-14
  70
    32
  0
VERTEX
  8
0
  5
345D
 10
-463.913
 20
-100.707
 30
-2.23080e-14
  70
    32
  0
VERTEX
  8
0
  5
345E
 10
-463.921
 20
-100.724
 30
-2.23097e-14
  70
    32
  0
VERTEX
  8
0
  5
345F
 10
-463.929
 20
-100.741
 30
-2.23115e-14
  70
    32
  0
VERTEX
  8
0
  5
3460
 10
-463.937
 20
-100.759
 30
-2.23132e-14
  70
    32
  0
VERTEX
  8
0
  5
3461
 10
-463.945
 20
-100.776
 30
-2.23149e-14
  70
    32
  0
VERTEX
  8
0
  5
3462
 10
-463.953
 20
-100.793
 30
-2.23166e-14
  70
    32
  0
VERTEX
  8
0
  5
3463
 10
-463.961
 20
-100.810
 30
-2.23183e-14
  70
    32
  0
VERTEX
  8
0
  5
3464
 10
-463.969
 20
-100.828
 30
-2.23199e-14
  70
    32
  0
VERTEX
  8
0
  5
3465
 10
-463.977
 20
-100.845
 30
-2.23216e-14
  70
    32
  0
VERTEX
  8
0
  5
3466
 10
-463.985
 20
-100.863
 30
-2.23232e-14
  70
    32
  0
VERTEX
  8
0
  5
3467
 10
-463.992
 20
-100.880
 30
-2.23248e-14
  70
    32
  0
VERTEX
  8
0
  5
3468
 10
-464.000
 20
-100.898
 30
-2.23265e-14
  70
    32
  0
VERTEX
  8
0
  5
3469
 10
-464.008
 20
-100.916
 30
-2.23281e-14
  70
    32
  0
VERTEX
  8
0
  5
346A
 10
-464.015
 20
-100.933
 30
-2.23296e-14
  70
    32
  0
VERTEX
  8
0
  5
346B
 10
-464.023
 20
-100.951
 30
-2.23312e-14
  70
    32
  0
VERTEX
  8
0
  5
346C
 10
-464.030
 20
-100.969
 30
-2.23328e-14
  70
    32
  0
VERTEX
  8
0
  5
346D
 10
-464.038
 20
-100.987
 30
-2.23343e-14
  70
    32
  0
VERTEX
  8
0
  5
346E
 10
-464.045
 20
-101.005
 30
-2.23359e-14
  70
    32
  0
VERTEX
  8
0
  5
346F
 10
-464.053
 20
-101.023
 30
-2.23374e-14
  70
    32
  0
VERTEX
  8
0
  5
3470
 10
-464.060
 20
-101.041
 30
-2.23389e-14
  70
    32
  0
VERTEX
  8
0
  5
3471
 10
-464.067
 20
-101.059
 30
-2.23404e-14
  70
    32
  0
VERTEX
  8
0
  5
3472
 10
-464.075
 20
-101.077
 30
-2.23419e-14
  70
    32
  0
VERTEX
  8
0
  5
3473
 10
-464.082
 20
-101.095
 30
-2.23433e-14
  70
    32
  0
VERTEX
  8
0
  5
3474
 10
-464.089
 20
-101.114
 30
-2.23448e-14
  70
    32
  0
VERTEX
  8
0
  5
3475
 10
-464.096
 20
-101.132
 30
-2.23462e-14
  70
    32
  0
VERTEX
  8
0
  5
3476
 10
-464.103
 20
-101.150
 30
-2.23476e-14
  70
    32
  0
VERTEX
  8
0
  5
3477
 10
-464.110
 20
-101.169
 30
-2.23490e-14
  70
    32
  0
VERTEX
  8
0
  5
3478
 10
-464.117
 20
-101.187
 30
-2.23504e-14
  70
    32
  0
VERTEX
  8
0
  5
3479
 10
-464.124
 20
-101.206
 30
-2.23518e-14
  70
    32
  0
VERTEX
  8
0
  5
347A
 10
-464.131
 20
-101.225
 30
-2.23531e-14
  70
    32
  0
VERTEX
  8
0
  5
347B
 10
-464.138
 20
-101.243
 30
-2.23545e-14
  70
    32
  0
VERTEX
  8
0
  5
347C
 10
-464.145
 20
-101.262
 30
-2.23558e-14
  70
    32
  0
VERTEX
  8
0
  5
347D
 10
-464.151
 20
-101.281
 30
-2.23571e-14
  70
    32
  0
VERTEX
  8
0
  5
347E
 10
-464.158
 20
-101.300
 30
-2.23585e-14
  70
    32
  0
VERTEX
  8
0
  5
347F
 10
-464.165
 20
-101.319
 30
-2.23599e-14
  70
    32
  0
VERTEX
  8
0
  5
3480
 10
-464.171
 20
-101.338
 30
-2.23613e-14
  70
    32
  0
VERTEX
  8
0
  5
3481
 10
-464.178
 20
-101.357
 30
-2.23627e-14
  70
    32
  0
VERTEX
  8
0
  5
3482
 10
-464.184
 20
-101.376
 30
-2.23642e-14
  70
    32
  0
VERTEX
  8
0
  5
3483
 10
-464.191
 20
-101.395
 30
-2.23657e-14
  70
    32
  0
VERTEX
  8
0
  5
3484
 10
-464.197
 20
-101.414
 30
-2.23673e-14
  70
    32
  0
VERTEX
  8
0
  5
3485
 10
-464.203
 20
-101.433
 30
-2.23688e-14
  70
    32
  0
VERTEX
  8
0
  5
3486
 10
-464.210
 20
-101.452
 30
-2.23704e-14
  70
    32
  0
VERTEX
  8
0
  5
3487
 10
-464.216
 20
-101.472
 30
-2.23720e-14
  70
    32
  0
VERTEX
  8
0
  5
3488
 10
-464.222
 20
-101.491
 30
-2.23737e-14
  70
    32
  0
VERTEX
  8
0
  5
3489
 10
-464.228
 20
-101.511
 30
-2.23753e-14
  70
    32
  0
VERTEX
  8
0
  5
348A
 10
-464.234
 20
-101.530
 30
-2.23770e-14
  70
    32
  0
VERTEX
  8
0
  5
348B
 10
-464.240
 20
-101.550
 30
-2.23787e-14
  70
    32
  0
VERTEX
  8
0
  5
348C
 10
-464.246
 20
-101.569
 30
-2.23804e-14
  70
    32
  0
VERTEX
  8
0
  5
348D
 10
-464.252
 20
-101.589
 30
-2.23821e-14
  70
    32
  0
VERTEX
  8
0
  5
348E
 10
-464.258
 20
-101.609
 30
-2.23839e-14
  70
    32
  0
VERTEX
  8
0
  5
348F
 10
-464.264
 20
-101.629
 30
-2.23856e-14
  70
    32
  0
VERTEX
  8
0
  5
3490
 10
-464.270
 20
-101.649
 30
-2.23874e-14
  70
    32
  0
VERTEX
  8
0
  5
3491
 10
-464.275
 20
-101.668
 30
-2.23892e-14
  70
    32
  0
VERTEX
  8
0
  5
3492
 10
-464.281
 20
-101.688
 30
-2.23910e-14
  70
    32
  0
VERTEX
  8
0
  5
3493
 10
-464.287
 20
-101.709
 30
-2.23929e-14
  70
    32
  0
VERTEX
  8
0
  5
3494
 10
-464.292
 20
-101.729
 30
-2.23947e-14
  70
    32
  0
VERTEX
  8
0
  5
3495
 10
-464.298
 20
-101.749
 30
-2.23966e-14
  70
    32
  0
VERTEX
  8
0
  5
3496
 10
-464.303
 20
-101.769
 30
-2.23984e-14
  70
    32
  0
VERTEX
  8
0
  5
3497
 10
-464.308
 20
-101.789
 30
-2.24003e-14
  70
    32
  0
VERTEX
  8
0
  5
3498
 10
-464.313
 20
-101.810
 30
-2.24022e-14
  70
    32
  0
VERTEX
  8
0
  5
3499
 10
-464.319
 20
-101.830
 30
-2.24040e-14
  70
    32
  0
VERTEX
  8
0
  5
349A
 10
-464.324
 20
-101.850
 30
-2.24059e-14
  70
    32
  0
VERTEX
  8
0
  5
349B
 10
-464.329
 20
-101.871
 30
-2.24078e-14
  70
    32
  0
VERTEX
  8
0
  5
349C
 10
-464.334
 20
-101.891
 30
-2.24097e-14
  70
    32
  0
VERTEX
  8
0
  5
349D
 10
-464.339
 20
-101.912
 30
-2.24116e-14
  70
    32
  0
VERTEX
  8
0
  5
349E
 10
-464.344
 20
-101.933
 30
-2.24135e-14
  70
    32
  0
VERTEX
  8
0
  5
349F
 10
-464.349
 20
-101.953
 30
-2.24155e-14
  70
    32
  0
VERTEX
  8
0
  5
34A0
 10
-464.353
 20
-101.974
 30
-2.24174e-14
  70
    32
  0
VERTEX
  8
0
  5
34A1
 10
-464.358
 20
-101.995
 30
-2.24193e-14
  70
    32
  0
VERTEX
  8
0
  5
34A2
 10
-464.363
 20
-102.016
 30
-2.24212e-14
  70
    32
  0
VERTEX
  8
0
  5
34A3
 10
-464.367
 20
-102.037
 30
-2.24231e-14
  70
    32
  0
VERTEX
  8
0
  5
34A4
 10
-464.372
 20
-102.058
 30
-2.24250e-14
  70
    32
  0
VERTEX
  8
0
  5
34A5
 10
-464.376
 20
-102.079
 30
-2.24269e-14
  70
    32
  0
VERTEX
  8
0
  5
34A6
 10
-464.380
 20
-102.100
 30
-2.24288e-14
  70
    32
  0
VERTEX
  8
0
  5
34A7
 10
-464.385
 20
-102.121
 30
-2.24307e-14
  70
    32
  0
VERTEX
  8
0
  5
34A8
 10
-464.389
 20
-102.142
 30
-2.24326e-14
  70
    32
  0
VERTEX
  8
0
  5
34A9
 10
-464.393
 20
-102.163
 30
-2.24345e-14
  70
    32
  0
VERTEX
  8
0
  5
34AA
 10
-464.397
 20
-102.185
 30
-2.24363e-14
  70
    32
  0
VERTEX
  8
0
  5
34AB
 10
-464.401
 20
-102.206
 30
-2.24382e-14
  70
    32
  0
VERTEX
  8
0
  5
34AC
 10
-464.405
 20
-102.228
 30
-2.24400e-14
  70
    32
  0
VERTEX
  8
0
  5
34AD
 10
-464.409
 20
-102.249
 30
-2.24419e-14
  70
    32
  0
VERTEX
  8
0
  5
34AE
 10
-464.413
 20
-102.271
 30
-2.24437e-14
  70
    32
  0
VERTEX
  8
0
  5
34AF
 10
-464.416
 20
-102.292
 30
-2.24455e-14
  70
    32
  0
VERTEX
  8
0
  5
34B0
 10
-464.420
 20
-102.314
 30
-2.24473e-14
  70
    32
  0
VERTEX
  8
0
  5
34B1
 10
-464.424
 20
-102.336
 30
-2.24491e-14
  70
    32
  0
VERTEX
  8
0
  5
34B2
 10
-464.427
 20
-102.357
 30
-2.24509e-14
  70
    32
  0
VERTEX
  8
0
  5
34B3
 10
-464.431
 20
-102.379
 30
-2.24527e-14
  70
    32
  0
VERTEX
  8
0
  5
34B4
 10
-464.434
 20
-102.401
 30
-2.24544e-14
  70
    32
  0
VERTEX
  8
0
  5
34B5
 10
-464.437
 20
-102.423
 30
-2.24561e-14
  70
    32
  0
VERTEX
  8
0
  5
34B6
 10
-464.440
 20
-102.445
 30
-2.24578e-14
  70
    32
  0
VERTEX
  8
0
  5
34B7
 10
-464.444
 20
-102.467
 30
-2.24595e-14
  70
    32
  0
VERTEX
  8
0
  5
34B8
 10
-464.447
 20
-102.489
 30
-2.24612e-14
  70
    32
  0
VERTEX
  8
0
  5
34B9
 10
-464.450
 20
-102.511
 30
-2.24628e-14
  70
    32
  0
VERTEX
  8
0
  5
34BA
 10
-464.452
 20
-102.534
 30
-2.24644e-14
  70
    32
  0
VERTEX
  8
0
  5
34BB
 10
-464.455
 20
-102.556
 30
-2.24660e-14
  70
    32
  0
VERTEX
  8
0
  5
34BC
 10
-464.458
 20
-102.578
 30
-2.24676e-14
  70
    32
  0
VERTEX
  8
0
  5
34BD
 10
-464.461
 20
-102.601
 30
-2.24691e-14
  70
    32
  0
VERTEX
  8
0
  5
34BE
 10
-464.463
 20
-102.623
 30
-2.24707e-14
  70
    32
  0
VERTEX
  8
0
  5
34BF
 10
-464.466
 20
-102.645
 30
-2.24721e-14
  70
    32
  0
VERTEX
  8
0
  5
34C0
 10
-464.468
 20
-102.668
 30
-2.24736e-14
  70
    32
  0
VERTEX
  8
0
  5
34C1
 10
-464.470
 20
-102.691
 30
-2.24750e-14
  70
    32
  0
VERTEX
  8
0
  5
34C2
 10
-464.473
 20
-102.713
 30
-2.24764e-14
  70
    32
  0
VERTEX
  8
0
  5
34C3
 10
-464.475
 20
-102.736
 30
-2.24778e-14
  70
    32
  0
VERTEX
  8
0
  5
34C4
 10
-464.477
 20
-102.759
 30
-2.24792e-14
  70
    32
  0
VERTEX
  8
0
  5
34C5
 10
-464.479
 20
-102.782
 30
-2.24805e-14
  70
    32
  0
VERTEX
  8
0
  5
34C6
 10
-464.481
 20
-102.804
 30
-2.24817e-14
  70
    32
  0
VERTEX
  8
0
  5
34C7
 10
-464.483
 20
-102.827
 30
-2.24830e-14
  70
    32
  0
VERTEX
  8
0
  5
34C8
 10
-464.484
 20
-102.850
 30
-2.24842e-14
  70
    32
  0
VERTEX
  8
0
  5
34C9
 10
-464.486
 20
-102.873
 30
-2.24853e-14
  70
    32
  0
VERTEX
  8
0
  5
34CA
 10
-464.488
 20
-102.897
 30
-2.24865e-14
  70
    32
  0
VERTEX
  8
0
  5
34CB
 10
-464.489
 20
-102.920
 30
-2.24876e-14
  70
    32
  0
VERTEX
  8
0
  5
34CC
 10
-464.490
 20
-102.943
 30
-2.24886e-14
  70
    32
  0
VERTEX
  8
0
  5
34CD
 10
-464.492
 20
-102.966
 30
-2.24896e-14
  70
    32
  0
VERTEX
  8
0
  5
34CE
 10
-464.493
 20
-102.990
 30
-2.24906e-14
  70
    32
  0
VERTEX
  8
0
  5
34CF
 10
-464.494
 20
-103.013
 30
-2.24915e-14
  70
    32
  0
VERTEX
  8
0
  5
34D0
 10
-464.495
 20
-103.036
 30
-2.24924e-14
  70
    32
  0
VERTEX
  8
0
  5
34D1
 10
-464.496
 20
-103.060
 30
-2.24932e-14
  70
    32
  0
VERTEX
  8
0
  5
34D2
 10
-464.497
 20
-103.083
 30
-2.24940e-14
  70
    32
  0
VERTEX
  8
0
  5
34D3
 10
-464.498
 20
-103.107
 30
-2.24948e-14
  70
    32
  0
VERTEX
  8
0
  5
34D4
 10
-464.498
 20
-103.131
 30
-2.24955e-14
  70
    32
  0
VERTEX
  8
0
  5
34D5
 10
-464.499
 20
-103.154
 30
-2.24962e-14
  70
    32
  0
VERTEX
  8
0
  5
34D6
 10
-464.500
 20
-103.178
 30
-2.24968e-14
  70
    32
  0
VERTEX
  8
0
  5
34D7
 10
-464.500
 20
-103.202
 30
-2.24973e-14
  70
    32
  0
VERTEX
  8
0
  5
34D8
 10
-464.500
 20
-103.226
 30
-2.24978e-14
  70
    32
  0
VERTEX
  8
0
  5
34D9
 10
-464.500
 20
-103.250
 30
-2.24983e-14
  70
    32
  0
VERTEX
  8
0
  5
34DA
 10
-464.501
 20
-103.274
 30
-2.24987e-14
  70
    32
  0
VERTEX
  8
0
  5
34DB
 10
-464.501
 20
-103.298
 30
-2.24990e-14
  70
    32
  0
VERTEX
  8
0
  5
34DC
 10
-464.501
 20
-103.322
 30
-2.24993e-14
  70
    32
  0
VERTEX
  8
0
  5
34DD
 10
-464.500
 20
-103.346
 30
-2.24996e-14
  70
    32
  0
VERTEX
  8
0
  5
34DE
 10
-464.500
 20
-103.370
 30
-2.24998e-14
  70
    32
  0
VERTEX
  8
0
  5
34DF
 10
-464.500
 20
-103.395
 30
-2.24999e-14
  70
    32
  0
VERTEX
  8
0
  5
34E0
 10
-464.499
 20
-103.419
 30
-2.25000e-14
  70
    32
  0
VERTEX
  8
0
  5
34E1
 10
-464.499
 20
-103.443
 30
-2.25000e-14
  70
    32
  0
VERTEX
  8
0
  5
34E2
 10
-464.498
 20
-103.468
 30
-2.24999e-14
  70
    32
  0
VERTEX
  8
0
  5
34E3
 10
-464.497
 20
-103.492
 30
-2.24998e-14
  70
    32
  0
VERTEX
  8
0
  5
34E4
 10
-464.497
 20
-103.517
 30
-2.24996e-14
  70
    32
  0
VERTEX
  8
0
  5
34E5
 10
-464.496
 20
-103.541
 30
-2.24993e-14
  70
    32
  0
VERTEX
  8
0
  5
34E6
 10
-464.495
 20
-103.566
 30
-2.24990e-14
  70
    32
  0
VERTEX
  8
0
  5
34E7
 10
-464.494
 20
-103.591
 30
-2.24985e-14
  70
    32
  0
VERTEX
  8
0
  5
34E8
 10
-464.492
 20
-103.615
 30
-2.24981e-14
  70
    32
  0
VERTEX
  8
0
  5
34E9
 10
-464.491
 20
-103.640
 30
-2.24975e-14
  70
    32
  0
VERTEX
  8
0
  5
34EA
 10
-464.489
 20
-103.665
 30
-2.24969e-14
  70
    32
  0
VERTEX
  8
0
  5
34EB
 10
-464.488
 20
-103.690
 30
-2.24962e-14
  70
    32
  0
VERTEX
  8
0
  5
34EC
 10
-464.486
 20
-103.715
 30
-2.24954e-14
  70
    32
  0
VERTEX
  8
0
  5
34ED
 10
-464.484
 20
-103.740
 30
-2.24946e-14
  70
    32
  0
VERTEX
  8
0
  5
34EE
 10
-464.483
 20
-103.765
 30
-2.24937e-14
  70
    32
  0
VERTEX
  8
0
  5
34EF
 10
-464.481
 20
-103.790
 30
-2.24928e-14
  70
    32
  0
VERTEX
  8
0
  5
34F0
 10
-464.479
 20
-103.815
 30
-2.24918e-14
  70
    32
  0
VERTEX
  8
0
  5
34F1
 10
-464.476
 20
-103.840
 30
-2.24907e-14
  70
    32
  0
VERTEX
  8
0
  5
34F2
 10
-464.474
 20
-103.865
 30
-2.24896e-14
  70
    32
  0
VERTEX
  8
0
  5
34F3
 10
-464.472
 20
-103.890
 30
-2.24884e-14
  70
    32
  0
VERTEX
  8
0
  5
34F4
 10
-464.469
 20
-103.915
 30
-2.24872e-14
  70
    32
  0
VERTEX
  8
0
  5
34F5
 10
-464.466
 20
-103.941
 30
-2.24859e-14
  70
    32
  0
VERTEX
  8
0
  5
34F6
 10
-464.464
 20
-103.966
 30
-2.24846e-14
  70
    32
  0
VERTEX
  8
0
  5
34F7
 10
-464.461
 20
-103.991
 30
-2.24832e-14
  70
    32
  0
VERTEX
  8
0
  5
34F8
 10
-464.458
 20
-104.017
 30
-2.24818e-14
  70
    32
  0
VERTEX
  8
0
  5
34F9
 10
-464.455
 20
-104.042
 30
-2.24803e-14
  70
    32
  0
VERTEX
  8
0
  5
34FA
 10
-464.452
 20
-104.068
 30
-2.24788e-14
  70
    32
  0
VERTEX
  8
0
  5
34FB
 10
-464.448
 20
-104.093
 30
-2.24772e-14
  70
    32
  0
VERTEX
  8
0
  5
34FC
 10
-464.445
 20
-104.119
 30
-2.24756e-14
  70
    32
  0
VERTEX
  8
0
  5
34FD
 10
-464.441
 20
-104.145
 30
-2.24740e-14
  70
    32
  0
VERTEX
  8
0
  5
34FE
 10
-464.438
 20
-104.170
 30
-2.24723e-14
  70
    32
  0
VERTEX
  8
0
  5
34FF
 10
-464.434
 20
-104.196
 30
-2.24705e-14
  70
    32
  0
VERTEX
  8
0
  5
3500
 10
-464.430
 20
-104.222
 30
-2.24687e-14
  70
    32
  0
VERTEX
  8
0
  5
3501
 10
-464.426
 20
-104.247
 30
-2.24669e-14
  70
    32
  0
VERTEX
  8
0
  5
3502
 10
-464.422
 20
-104.273
 30
-2.24651e-14
  70
    32
  0
VERTEX
  8
0
  5
3503
 10
-464.417
 20
-104.299
 30
-2.24632e-14
  70
    32
  0
VERTEX
  8
0
  5
3504
 10
-464.413
 20
-104.325
 30
-2.24613e-14
  70
    32
  0
VERTEX
  8
0
  5
3505
 10
-464.408
 20
-104.351
 30
-2.24593e-14
  70
    32
  0
VERTEX
  8
0
  5
3506
 10
-464.404
 20
-104.377
 30
-2.24574e-14
  70
    32
  0
VERTEX
  8
0
  5
3507
 10
-464.399
 20
-104.403
 30
-2.24554e-14
  70
    32
  0
VERTEX
  8
0
  5
3508
 10
-464.394
 20
-104.429
 30
-2.24533e-14
  70
    32
  0
VERTEX
  8
0
  5
3509
 10
-464.389
 20
-104.455
 30
-2.24512e-14
  70
    32
  0
VERTEX
  8
0
  5
350A
 10
-464.384
 20
-104.481
 30
-2.24492e-14
  70
    32
  0
VERTEX
  8
0
  5
350B
 10
-464.378
 20
-104.507
 30
-2.24470e-14
  70
    32
  0
VERTEX
  8
0
  5
350C
 10
-464.373
 20
-104.533
 30
-2.24449e-14
  70
    32
  0
VERTEX
  8
0
  5
350D
 10
-464.367
 20
-104.559
 30
-2.24427e-14
  70
    32
  0
VERTEX
  8
0
  5
350E
 10
-464.362
 20
-104.586
 30
-2.24406e-14
  70
    32
  0
VERTEX
  8
0
  5
350F
 10
-464.356
 20
-104.612
 30
-2.24383e-14
  70
    32
  0
VERTEX
  8
0
  5
3510
 10
-464.350
 20
-104.638
 30
-2.24361e-14
  70
    32
  0
VERTEX
  8
0
  5
3511
 10
-464.344
 20
-104.664
 30
-2.24339e-14
  70
    32
  0
VERTEX
  8
0
  5
3512
 10
-464.338
 20
-104.691
 30
-2.24316e-14
  70
    32
  0
VERTEX
  8
0
  5
3513
 10
-464.331
 20
-104.717
 30
-2.24294e-14
  70
    32
  0
VERTEX
  8
0
  5
3514
 10
-464.325
 20
-104.744
 30
-2.24271e-14
  70
    32
  0
VERTEX
  8
0
  5
3515
 10
-464.318
 20
-104.770
 30
-2.24248e-14
  70
    32
  0
VERTEX
  8
0
  5
3516
 10
-464.311
 20
-104.797
 30
-2.24225e-14
  70
    32
  0
VERTEX
  8
0
  5
3517
 10
-464.304
 20
-104.823
 30
-2.24202e-14
  70
    32
  0
VERTEX
  8
0
  5
3518
 10
-464.297
 20
-104.850
 30
-2.24178e-14
  70
    32
  0
VERTEX
  8
0
  5
3519
 10
-464.290
 20
-104.876
 30
-2.24155e-14
  70
    32
  0
VERTEX
  8
0
  5
351A
 10
-464.283
 20
-104.903
 30
-2.24132e-14
  70
    32
  0
VERTEX
  8
0
  5
351B
 10
-464.275
 20
-104.929
 30
-2.24108e-14
  70
    32
  0
VERTEX
  8
0
  5
351C
 10
-464.268
 20
-104.956
 30
-2.24085e-14
  70
    32
  0
VERTEX
  8
0
  5
351D
 10
-464.260
 20
-104.983
 30
-2.24062e-14
  70
    32
  0
VERTEX
  8
0
  5
351E
 10
-464.252
 20
-105.009
 30
-2.24038e-14
  70
    32
  0
VERTEX
  8
0
  5
351F
 10
-464.244
 20
-105.036
 30
-2.24015e-14
  70
    32
  0
VERTEX
  8
0
  5
3520
 10
-464.236
 20
-105.063
 30
-2.23991e-14
  70
    32
  0
VERTEX
  8
0
  5
3521
 10
-464.228
 20
-105.089
 30
-2.23968e-14
  70
    32
  0
VERTEX
  8
0
  5
3522
 10
-464.219
 20
-105.116
 30
-2.23945e-14
  70
    32
  0
VERTEX
  8
0
  5
3523
 10
-464.210
 20
-105.143
 30
-2.23921e-14
  70
    32
  0
VERTEX
  8
0
  5
3524
 10
-464.202
 20
-105.170
 30
-2.23898e-14
  70
    32
  0
VERTEX
  8
0
  5
3525
 10
-464.193
 20
-105.197
 30
-2.23875e-14
  70
    32
  0
VERTEX
  8
0
  5
3526
 10
-464.184
 20
-105.224
 30
-2.23852e-14
  70
    32
  0
VERTEX
  8
0
  5
3527
 10
-464.174
 20
-105.251
 30
-2.23829e-14
  70
    32
  0
VERTEX
  8
0
  5
3528
 10
-464.165
 20
-105.278
 30
-2.23806e-14
  70
    32
  0
VERTEX
  8
0
  5
3529
 10
-464.156
 20
-105.305
 30
-2.23783e-14
  70
    32
  0
VERTEX
  8
0
  5
352A
 10
-464.146
 20
-105.331
 30
-2.23761e-14
  70
    32
  0
VERTEX
  8
0
  5
352B
 10
-464.136
 20
-105.358
 30
-2.23739e-14
  70
    32
  0
VERTEX
  8
0
  5
352C
 10
-464.126
 20
-105.386
 30
-2.23716e-14
  70
    32
  0
VERTEX
  8
0
  5
352D
 10
-464.116
 20
-105.413
 30
-2.23694e-14
  70
    32
  0
VERTEX
  8
0
  5
352E
 10
-464.106
 20
-105.440
 30
-2.23673e-14
  70
    32
  0
VERTEX
  8
0
  5
352F
 10
-464.095
 20
-105.467
 30
-2.23651e-14
  70
    32
  0
VERTEX
  8
0
  5
3530
 10
-464.085
 20
-105.494
 30
-2.23630e-14
  70
    32
  0
VERTEX
  8
0
  5
3531
 10
-464.074
 20
-105.521
 30
-2.23608e-14
  70
    32
  0
VERTEX
  8
0
  5
3532
 10
-464.063
 20
-105.548
 30
-2.23588e-14
  70
    32
  0
VERTEX
  8
0
  5
3533
 10
-464.052
 20
-105.575
 30
-2.23567e-14
  70
    32
  0
VERTEX
  8
0
  5
3534
 10
-464.040
 20
-105.602
 30
-2.23547e-14
  70
    32
  0
VERTEX
  8
0
  5
3535
 10
-464.029
 20
-105.630
 30
-2.23527e-14
  70
    32
  0
VERTEX
  8
0
  5
3536
 10
-464.018
 20
-105.657
 30
-2.23507e-14
  70
    32
  0
VERTEX
  8
0
  5
3537
 10
-464.006
 20
-105.684
 30
-2.23487e-14
  70
    32
  0
VERTEX
  8
0
  5
3538
 10
-463.994
 20
-105.711
 30
-2.23468e-14
  70
    32
  0
VERTEX
  8
0
  5
3539
 10
-463.982
 20
-105.739
 30
-2.23449e-14
  70
    32
  0
VERTEX
  8
0
  5
353A
 10
-463.970
 20
-105.766
 30
-2.23430e-14
  70
    32
  0
VERTEX
  8
0
  5
353B
 10
-463.957
 20
-105.793
 30
-2.23411e-14
  70
    32
  0
VERTEX
  8
0
  5
353C
 10
-463.945
 20
-105.820
 30
-2.23390e-14
  70
    32
  0
VERTEX
  8
0
  5
353D
 10
-463.932
 20
-105.848
 30
-2.23369e-14
  70
    32
  0
VERTEX
  8
0
  5
353E
 10
-463.919
 20
-105.875
 30
-2.23348e-14
  70
    32
  0
VERTEX
  8
0
  5
353F
 10
-463.906
 20
-105.902
 30
-2.23326e-14
  70
    32
  0
VERTEX
  8
0
  5
3540
 10
-463.893
 20
-105.930
 30
-2.23303e-14
  70
    32
  0
VERTEX
  8
0
  5
3541
 10
-463.879
 20
-105.957
 30
-2.23279e-14
  70
    32
  0
VERTEX
  8
0
  5
3542
 10
-463.866
 20
-105.984
 30
-2.23255e-14
  70
    32
  0
VERTEX
  8
0
  5
3543
 10
-463.852
 20
-106.012
 30
-2.23231e-14
  70
    32
  0
VERTEX
  8
0
  5
3544
 10
-463.838
 20
-106.039
 30
-2.23205e-14
  70
    32
  0
VERTEX
  8
0
  5
3545
 10
-463.824
 20
-106.066
 30
-2.23179e-14
  70
    32
  0
VERTEX
  8
0
  5
3546
 10
-463.810
 20
-106.094
 30
-2.23152e-14
  70
    32
  0
VERTEX
  8
0
  5
3547
 10
-463.795
 20
-106.121
 30
-2.23125e-14
  70
    32
  0
VERTEX
  8
0
  5
3548
 10
-463.781
 20
-106.148
 30
-2.23097e-14
  70
    32
  0
VERTEX
  8
0
  5
3549
 10
-463.766
 20
-106.176
 30
-2.23069e-14
  70
    32
  0
VERTEX
  8
0
  5
354A
 10
-463.751
 20
-106.203
 30
-2.23039e-14
  70
    32
  0
VERTEX
  8
0
  5
354B
 10
-463.736
 20
-106.230
 30
-2.23009e-14
  70
    32
  0
VERTEX
  8
0
  5
354C
 10
-463.721
 20
-106.257
 30
-2.22979e-14
  70
    32
  0
VERTEX
  8
0
  5
354D
 10
-463.705
 20
-106.285
 30
-2.22947e-14
  70
    32
  0
VERTEX
  8
0
  5
354E
 10
-463.689
 20
-106.312
 30
-2.22915e-14
  70
    32
  0
VERTEX
  8
0
  5
354F
 10
-463.673
 20
-106.339
 30
-2.22883e-14
  70
    32
  0
VERTEX
  8
0
  5
3550
 10
-463.657
 20
-106.366
 30
-2.22850e-14
  70
    32
  0
VERTEX
  8
0
  5
3551
 10
-463.641
 20
-106.394
 30
-2.22816e-14
  70
    32
  0
VERTEX
  8
0
  5
3552
 10
-463.625
 20
-106.421
 30
-2.22781e-14
  70
    32
  0
VERTEX
  8
0
  5
3553
 10
-463.608
 20
-106.448
 30
-2.22746e-14
  70
    32
  0
VERTEX
  8
0
  5
3554
 10
-463.591
 20
-106.475
 30
-2.22710e-14
  70
    32
  0
VERTEX
  8
0
  5
3555
 10
-463.574
 20
-106.502
 30
-2.22673e-14
  70
    32
  0
VERTEX
  8
0
  5
3556
 10
-463.557
 20
-106.529
 30
-2.22636e-14
  70
    32
  0
VERTEX
  8
0
  5
3557
 10
-463.540
 20
-106.556
 30
-2.22598e-14
  70
    32
  0
VERTEX
  8
0
  5
3558
 10
-463.522
 20
-106.584
 30
-2.22559e-14
  70
    32
  0
VERTEX
  8
0
  5
3559
 10
-463.504
 20
-106.611
 30
-2.22520e-14
  70
    32
  0
VERTEX
  8
0
  5
355A
 10
-463.486
 20
-106.638
 30
-2.22480e-14
  70
    32
  0
VERTEX
  8
0
  5
355B
 10
-463.468
 20
-106.665
 30
-2.22439e-14
  70
    32
  0
VERTEX
  8
0
  5
355C
 10
-463.450
 20
-106.692
 30
-2.22398e-14
  70
    32
  0
VERTEX
  8
0
  5
355D
 10
-463.431
 20
-106.718
 30
-2.22356e-14
  70
    32
  0
VERTEX
  8
0
  5
355E
 10
-463.413
 20
-106.745
 30
-2.22313e-14
  70
    32
  0
VERTEX
  8
0
  5
355F
 10
-463.394
 20
-106.772
 30
-2.22269e-14
  70
    32
  0
VERTEX
  8
0
  5
3560
 10
-463.374
 20
-106.799
 30
-2.22225e-14
  70
    32
  0
VERTEX
  8
0
  5
3561
 10
-463.355
 20
-106.826
 30
-2.22180e-14
  70
    32
  0
VERTEX
  8
0
  5
3562
 10
-463.335
 20
-106.853
 30
-2.22134e-14
  70
    32
  0
VERTEX
  8
0
  5
3563
 10
-463.316
 20
-106.879
 30
-2.22088e-14
  70
    32
  0
VERTEX
  8
0
  5
3564
 10
-463.296
 20
-106.906
 30
-2.22041e-14
  70
    32
  0
VERTEX
  8
0
  5
3565
 10
-463.276
 20
-106.933
 30
-2.21993e-14
  70
    32
  0
VERTEX
  8
0
  5
3566
 10
-463.255
 20
-106.959
 30
-2.21945e-14
  70
    32
  0
VERTEX
  8
0
  5
3567
 10
-463.235
 20
-106.986
 30
-2.21896e-14
  70
    32
  0
VERTEX
  8
0
  5
3568
 10
-463.214
 20
-107.012
 30
-2.21846e-14
  70
    32
  0
VERTEX
  8
0
  5
3569
 10
-463.193
 20
-107.039
 30
-2.21795e-14
  70
    32
  0
VERTEX
  8
0
  5
356A
 10
-463.172
 20
-107.065
 30
-2.21744e-14
  70
    32
  0
VERTEX
  8
0
  5
356B
 10
-463.150
 20
-107.092
 30
-2.21692e-14
  70
    32
  0
VERTEX
  8
0
  5
356C
 10
-463.128
 20
-107.118
 30
-2.21639e-14
  70
    32
  0
VERTEX
  8
0
  5
356D
 10
-463.107
 20
-107.144
 30
-2.21586e-14
  70
    32
  0
VERTEX
  8
0
  5
356E
 10
-463.084
 20
-107.170
 30
-2.21531e-14
  70
    32
  0
VERTEX
  8
0
  5
356F
 10
-463.062
 20
-107.197
 30
-2.21476e-14
  70
    32
  0
VERTEX
  8
0
  5
3570
 10
-463.040
 20
-107.223
 30
-2.21421e-14
  70
    32
  0
VERTEX
  8
0
  5
3571
 10
-463.017
 20
-107.249
 30
-2.21364e-14
  70
    32
  0
VERTEX
  8
0
  5
3572
 10
-462.994
 20
-107.275
 30
-2.21307e-14
  70
    32
  0
VERTEX
  8
0
  5
3573
 10
-462.971
 20
-107.301
 30
-2.21249e-14
  70
    32
  0
VERTEX
  8
0
  5
3574
 10
-462.947
 20
-107.327
 30
-2.21190e-14
  70
    32
  0
VERTEX
  8
0
  5
3575
 10
-462.924
 20
-107.353
 30
-2.21131e-14
  70
    32
  0
VERTEX
  8
0
  5
3576
 10
-462.900
 20
-107.378
 30
-2.21071e-14
  70
    32
  0
VERTEX
  8
0
  5
3577
 10
-462.876
 20
-107.404
 30
-2.21010e-14
  70
    32
  0
VERTEX
  8
0
  5
3578
 10
-462.852
 20
-107.430
 30
-2.20948e-14
  70
    32
  0
VERTEX
  8
0
  5
3579
 10
-462.827
 20
-107.455
 30
-2.20886e-14
  70
    32
  0
VERTEX
  8
0
  5
357A
 10
-462.802
 20
-107.481
 30
-2.20823e-14
  70
    32
  0
VERTEX
  8
0
  5
357B
 10
-462.777
 20
-107.506
 30
-2.20759e-14
  70
    32
  0
VERTEX
  8
0
  5
357C
 10
-462.752
 20
-107.532
 30
-2.20694e-14
  70
    32
  0
VERTEX
  8
0
  5
357D
 10
-462.727
 20
-107.557
 30
-2.20629e-14
  70
    32
  0
VERTEX
  8
0
  5
357E
 10
-462.701
 20
-107.582
 30
-2.20563e-14
  70
    32
  0
VERTEX
  8
0
  5
357F
 10
-462.675
 20
-107.608
 30
-2.20496e-14
  70
    32
  0
VERTEX
  8
0
  5
3580
 10
-462.649
 20
-107.633
 30
-2.20428e-14
  70
    32
  0
VERTEX
  8
0
  5
3581
 10
-462.623
 20
-107.658
 30
-2.20360e-14
  70
    32
  0
VERTEX
  8
0
  5
3582
 10
-462.596
 20
-107.683
 30
-2.20290e-14
  70
    32
  0
VERTEX
  8
0
  5
3583
 10
-462.569
 20
-107.708
 30
-2.20222e-14
  70
    32
  0
VERTEX
  8
0
  5
3584
 10
-462.542
 20
-107.733
 30
-2.20154e-14
  70
    32
  0
VERTEX
  8
0
  5
3585
 10
-462.515
 20
-107.757
 30
-2.20086e-14
  70
    32
  0
VERTEX
  8
0
  5
3586
 10
-462.487
 20
-107.782
 30
-2.20019e-14
  70
    32
  0
VERTEX
  8
0
  5
3587
 10
-462.460
 20
-107.807
 30
-2.19952e-14
  70
    32
  0
VERTEX
  8
0
  5
3588
 10
-462.432
 20
-107.831
 30
-2.19885e-14
  70
    32
  0
VERTEX
  8
0
  5
3589
 10
-462.403
 20
-107.855
 30
-2.19819e-14
  70
    32
  0
VERTEX
  8
0
  5
358A
 10
-462.375
 20
-107.880
 30
-2.19754e-14
  70
    32
  0
VERTEX
  8
0
  5
358B
 10
-462.346
 20
-107.904
 30
-2.19688e-14
  70
    32
  0
VERTEX
  8
0
  5
358C
 10
-462.317
 20
-107.928
 30
-2.19623e-14
  70
    32
  0
VERTEX
  8
0
  5
358D
 10
-462.288
 20
-107.952
 30
-2.19559e-14
  70
    32
  0
VERTEX
  8
0
  5
358E
 10
-462.258
 20
-107.976
 30
-2.19494e-14
  70
    32
  0
VERTEX
  8
0
  5
358F
 10
-462.229
 20
-108.000
 30
-2.19430e-14
  70
    32
  0
VERTEX
  8
0
  5
3590
 10
-462.199
 20
-108.023
 30
-2.19366e-14
  70
    32
  0
VERTEX
  8
0
  5
3591
 10
-462.169
 20
-108.047
 30
-2.19301e-14
  70
    32
  0
VERTEX
  8
0
  5
3592
 10
-462.138
 20
-108.070
 30
-2.19237e-14
  70
    32
  0
VERTEX
  8
0
  5
3593
 10
-462.107
 20
-108.094
 30
-2.19174e-14
  70
    32
  0
VERTEX
  8
0
  5
3594
 10
-462.076
 20
-108.117
 30
-2.19110e-14
  70
    32
  0
VERTEX
  8
0
  5
3595
 10
-462.045
 20
-108.140
 30
-2.19046e-14
  70
    32
  0
VERTEX
  8
0
  5
3596
 10
-462.014
 20
-108.163
 30
-2.18982e-14
  70
    32
  0
VERTEX
  8
0
  5
3597
 10
-461.982
 20
-108.186
 30
-2.18918e-14
  70
    32
  0
VERTEX
  8
0
  5
3598
 10
-461.950
 20
-108.208
 30
-2.18854e-14
  70
    32
  0
VERTEX
  8
0
  5
3599
 10
-461.918
 20
-108.231
 30
-2.18789e-14
  70
    32
  0
VERTEX
  8
0
  5
359A
 10
-461.885
 20
-108.253
 30
-2.18725e-14
  70
    32
  0
VERTEX
  8
0
  5
359B
 10
-461.852
 20
-108.275
 30
-2.18660e-14
  70
    32
  0
VERTEX
  8
0
  5
359C
 10
-461.819
 20
-108.298
 30
-2.18596e-14
  70
    32
  0
VERTEX
  8
0
  5
359D
 10
-461.786
 20
-108.319
 30
-2.18531e-14
  70
    32
  0
VERTEX
  8
0
  5
359E
 10
-461.753
 20
-108.341
 30
-2.18465e-14
  70
    32
  0
VERTEX
  8
0
  5
359F
 10
-461.719
 20
-108.363
 30
-2.18399e-14
  70
    32
  0
VERTEX
  8
0
  5
35A0
 10
-461.685
 20
-108.384
 30
-2.18333e-14
  70
    32
  0
VERTEX
  8
0
  5
35A1
 10
-461.650
 20
-108.406
 30
-2.18267e-14
  70
    32
  0
VERTEX
  8
0
  5
35A2
 10
-461.616
 20
-108.427
 30
-2.18200e-14
  70
    32
  0
VERTEX
  8
0
  5
35A3
 10
-461.581
 20
-108.448
 30
-2.18133e-14
  70
    32
  0
VERTEX
  8
0
  5
35A4
 10
-461.546
 20
-108.469
 30
-2.18065e-14
  70
    32
  0
VERTEX
  8
0
  5
35A5
 10
-461.510
 20
-108.489
 30
-2.17997e-14
  70
    32
  0
VERTEX
  8
0
  5
35A6
 10
-461.475
 20
-108.510
 30
-2.17928e-14
  70
    32
  0
VERTEX
  8
0
  5
35A7
 10
-461.439
 20
-108.530
 30
-2.17859e-14
  70
    32
  0
VERTEX
  8
0
  5
35A8
 10
-461.403
 20
-108.550
 30
-2.17788e-14
  70
    32
  0
VERTEX
  8
0
  5
35A9
 10
-461.366
 20
-108.570
 30
-2.17718e-14
  70
    32
  0
VERTEX
  8
0
  5
35AA
 10
-461.329
 20
-108.590
 30
-2.17646e-14
  70
    32
  0
VERTEX
  8
0
  5
35AB
 10
-461.292
 20
-108.610
 30
-2.17574e-14
  70
    32
  0
VERTEX
  8
0
  5
35AC
 10
-461.255
 20
-108.629
 30
-2.17502e-14
  70
    32
  0
VERTEX
  8
0
  5
35AD
 10
-461.218
 20
-108.648
 30
-2.17428e-14
  70
    32
  0
VERTEX
  8
0
  5
35AE
 10
-461.180
 20
-108.667
 30
-2.17354e-14
  70
    32
  0
VERTEX
  8
0
  5
35AF
 10
-461.142
 20
-108.686
 30
-2.17278e-14
  70
    32
  0
VERTEX
  8
0
  5
35B0
 10
-461.103
 20
-108.705
 30
-2.17202e-14
  70
    32
  0
VERTEX
  8
0
  5
35B1
 10
-461.064
 20
-108.723
 30
-2.17125e-14
  70
    32
  0
VERTEX
  8
0
  5
35B2
 10
-461.025
 20
-108.741
 30
-2.17047e-14
  70
    32
  0
VERTEX
  8
0
  5
35B3
 10
-460.986
 20
-108.759
 30
-2.16969e-14
  70
    32
  0
VERTEX
  8
0
  5
35B4
 10
-460.947
 20
-108.777
 30
-2.16889e-14
  70
    32
  0
VERTEX
  8
0
  5
35B5
 10
-460.907
 20
-108.795
 30
-2.16808e-14
  70
    32
  0
VERTEX
  8
0
  5
35B6
 10
-460.867
 20
-108.812
 30
-2.16726e-14
  70
    32
  0
VERTEX
  8
0
  5
35B7
 10
-460.826
 20
-108.829
 30
-2.16643e-14
  70
    32
  0
VERTEX
  8
0
  5
35B8
 10
-460.786
 20
-108.846
 30
-2.16559e-14
  70
    32
  0
VERTEX
  8
0
  5
35B9
 10
-460.745
 20
-108.863
 30
-2.16473e-14
  70
    32
  0
VERTEX
  8
0
  5
35BA
 10
-460.703
 20
-108.879
 30
-2.16387e-14
  70
    32
  0
VERTEX
  8
0
  5
35BB
 10
-460.662
 20
-108.895
 30
-2.16299e-14
  70
    32
  0
VERTEX
  8
0
  5
35BC
 10
-460.620
 20
-108.911
 30
-2.16209e-14
  70
    32
  0
VERTEX
  8
0
  5
35BD
 10
-460.578
 20
-108.927
 30
-2.16118e-14
  70
    32
  0
VERTEX
  8
0
  5
35BE
 10
-460.536
 20
-108.942
 30
-2.16024e-14
  70
    32
  0
VERTEX
  8
0
  5
35BF
 10
-460.493
 20
-108.958
 30
-2.15929e-14
  70
    32
  0
VERTEX
  8
0
  5
35C0
 10
-460.450
 20
-108.973
 30
-2.15832e-14
  70
    32
  0
VERTEX
  8
0
  5
35C1
 10
-460.407
 20
-108.987
 30
-2.15733e-14
  70
    32
  0
VERTEX
  8
0
  5
35C2
 10
-460.363
 20
-109.002
 30
-2.15633e-14
  70
    32
  0
VERTEX
  8
0
  5
35C3
 10
-460.319
 20
-109.016
 30
-2.15531e-14
  70
    32
  0
VERTEX
  8
0
  5
35C4
 10
-460.275
 20
-109.030
 30
-2.15427e-14
  70
    32
  0
VERTEX
  8
0
  5
35C5
 10
-460.231
 20
-109.044
 30
-2.15321e-14
  70
    32
  0
VERTEX
  8
0
  5
35C6
 10
-460.186
 20
-109.057
 30
-2.15215e-14
  70
    32
  0
VERTEX
  8
0
  5
35C7
 10
-460.141
 20
-109.070
 30
-2.15106e-14
  70
    32
  0
VERTEX
  8
0
  5
35C8
 10
-460.096
 20
-109.083
 30
-2.14996e-14
  70
    32
  0
VERTEX
  8
0
  5
35C9
 10
-460.050
 20
-109.095
 30
-2.14885e-14
  70
    32
  0
VERTEX
  8
0
  5
35CA
 10
-460.004
 20
-109.107
 30
-2.14772e-14
  70
    32
  0
VERTEX
  8
0
  5
35CB
 10
-459.958
 20
-109.119
 30
-2.14659e-14
  70
    32
  0
VERTEX
  8
0
  5
35CC
 10
-459.911
 20
-109.130
 30
-2.14543e-14
  70
    32
  0
VERTEX
  8
0
  5
35CD
 10
-459.865
 20
-109.142
 30
-2.14427e-14
  70
    32
  0
VERTEX
  8
0
  5
35CE
 10
-459.818
 20
-109.152
 30
-2.14310e-14
  70
    32
  0
VERTEX
  8
0
  5
35CF
 10
-459.770
 20
-109.163
 30
-2.14191e-14
  70
    32
  0
VERTEX
  8
0
  5
35D0
 10
-459.723
 20
-109.173
 30
-2.14071e-14
  70
    32
  0
VERTEX
  8
0
  5
35D1
 10
-459.675
 20
-109.183
 30
-2.13951e-14
  70
    32
  0
VERTEX
  8
0
  5
35D2
 10
-459.627
 20
-109.192
 30
-2.13829e-14
  70
    32
  0
VERTEX
  8
0
  5
35D3
 10
-459.578
 20
-109.201
 30
-2.13706e-14
  70
    32
  0
VERTEX
  8
0
  5
35D4
 10
-459.529
 20
-109.210
 30
-2.13583e-14
  70
    32
  0
VERTEX
  8
0
  5
35D5
 10
-459.480
 20
-109.218
 30
-2.13458e-14
  70
    32
  0
VERTEX
  8
0
  5
35D6
 10
-459.431
 20
-109.226
 30
-2.13333e-14
  70
    32
  0
VERTEX
  8
0
  5
35D7
 10
-459.381
 20
-109.234
 30
-2.13207e-14
  70
    32
  0
VERTEX
  8
0
  5
35D8
 10
-459.331
 20
-109.241
 30
-2.13081e-14
  70
    32
  0
VERTEX
  8
0
  5
35D9
 10
-459.281
 20
-109.248
 30
-2.12953e-14
  70
    32
  0
VERTEX
  8
0
  5
35DA
 10
-459.231
 20
-109.254
 30
-2.12826e-14
  70
    32
  0
VERTEX
  8
0
  5
35DB
 10
-459.180
 20
-109.260
 30
-2.12697e-14
  70
    32
  0
VERTEX
  8
0
  5
35DC
 10
-459.129
 20
-109.266
 30
-2.12568e-14
  70
    32
  0
VERTEX
  8
0
  5
35DD
 10
-459.078
 20
-109.271
 30
-2.12439e-14
  70
    32
  0
VERTEX
  8
0
  5
35DE
 10
-459.026
 20
-109.275
 30
-2.12309e-14
  70
    32
  0
VERTEX
  8
0
  5
35DF
 10
-458.974
 20
-109.280
 30
-2.12179e-14
  70
    32
  0
VERTEX
  8
0
  5
35E0
 10
-458.922
 20
-109.284
 30
-2.12048e-14
  70
    32
  0
VERTEX
  8
0
  5
35E1
 10
-458.869
 20
-109.287
 30
-2.11917e-14
  70
    32
  0
VERTEX
  8
0
  5
35E2
 10
-458.817
 20
-109.290
 30
-2.11786e-14
  70
    32
  0
VERTEX
  8
0
  5
35E3
 10
-458.763
 20
-109.292
 30
-2.11655e-14
  70
    32
  0
VERTEX
  8
0
  5
35E4
 10
-458.710
 20
-109.294
 30
-2.11523e-14
  70
    32
  0
VERTEX
  8
0
  5
35E5
 10
-458.656
 20
-109.296
 30
-2.11392e-14
  70
    32
  0
VERTEX
  8
0
  5
35E6
 10
-458.602
 20
-109.297
 30
-2.11260e-14
  70
    32
  0
VERTEX
  8
0
  5
35E7
 10
-458.548
 20
-109.298
 30
-2.11128e-14
  70
    32
  0
VERTEX
  8
0
  5
35E8
 10
-458.493
 20
-109.298
 30
-2.11004e-14
  70
    32
  0
VERTEX
  8
0
  5
35E9
 10
-458.428
 20
-109.298
 30
-2.10874e-14
  70
    32
  0
VERTEX
  8
0
  5
35EA
 10
-458.361
 20
-109.298
 30
-2.10727e-14
  70
    32
  0
VERTEX
  8
0
  5
35EB
 10
-458.294
 20
-109.298
 30
-2.10579e-14
  70
    32
  0
VERTEX
  8
0
  5
35EC
 10
-458.228
 20
-109.298
 30
-2.10432e-14
  70
    32
  0
VERTEX
  8
0
  5
35ED
 10
-458.161
 20
-109.298
 30
-2.10284e-14
  70
    32
  0
VERTEX
  8
0
  5
35EE
 10
-458.094
 20
-109.298
 30
-2.10137e-14
  70
    32
  0
VERTEX
  8
0
  5
35EF
 10
-458.027
 20
-109.298
 30
-2.09989e-14
  70
    32
  0
VERTEX
  8
0
  5
35F0
 10
-457.960
 20
-109.298
 30
-2.09842e-14
  70
    32
  0
VERTEX
  8
0
  5
35F1
 10
-457.894
 20
-109.298
 30
-2.09694e-14
  70
    32
  0
VERTEX
  8
0
  5
35F2
 10
-457.827
 20
-109.298
 30
-2.09546e-14
  70
    32
  0
VERTEX
  8
0
  5
35F3
 10
-457.760
 20
-109.298
 30
-2.09399e-14
  70
    32
  0
VERTEX
  8
0
  5
35F4
 10
-457.693
 20
-109.298
 30
-2.09251e-14
  70
    32
  0
VERTEX
  8
0
  5
35F5
 10
-457.626
 20
-109.298
 30
-2.09104e-14
  70
    32
  0
VERTEX
  8
0
  5
35F6
 10
-457.560
 20
-109.298
 30
-2.08956e-14
  70
    32
  0
VERTEX
  8
0
  5
35F7
 10
-457.493
 20
-109.298
 30
-2.08808e-14
  70
    32
  0
VERTEX
  8
0
  5
35F8
 10
-457.426
 20
-109.298
 30
-2.08661e-14
  70
    32
  0
VERTEX
  8
0
  5
35F9
 10
-457.359
 20
-109.298
 30
-2.08513e-14
  70
    32
  0
VERTEX
  8
0
  5
35FA
 10
-457.293
 20
-109.298
 30
-2.08365e-14
  70
    32
  0
VERTEX
  8
0
  5
35FB
 10
-457.226
 20
-109.298
 30
-2.08218e-14
  70
    32
  0
VERTEX
  8
0
  5
35FC
 10
-457.159
 20
-109.298
 30
-2.08070e-14
  70
    32
  0
VERTEX
  8
0
  5
35FD
 10
-457.092
 20
-109.298
 30
-2.07922e-14
  70
    32
  0
VERTEX
  8
0
  5
35FE
 10
-457.025
 20
-109.298
 30
-2.07775e-14
  70
    32
  0
VERTEX
  8
0
  5
35FF
 10
-456.959
 20
-109.298
 30
-2.07627e-14
  70
    32
  0
VERTEX
  8
0
  5
3600
 10
-456.892
 20
-109.298
 30
-2.07479e-14
  70
    32
  0
VERTEX
  8
0
  5
3601
 10
-456.825
 20
-109.298
 30
-2.07332e-14
  70
    32
  0
VERTEX
  8
0
  5
3602
 10
-456.758
 20
-109.298
 30
-2.07184e-14
  70
    32
  0
VERTEX
  8
0
  5
3603
 10
-456.691
 20
-109.298
 30
-2.07036e-14
  70
    32
  0
VERTEX
  8
0
  5
3604
 10
-456.625
 20
-109.298
 30
-2.06889e-14
  70
    32
  0
VERTEX
  8
0
  5
3605
 10
-456.558
 20
-109.298
 30
-2.06741e-14
  70
    32
  0
VERTEX
  8
0
  5
3606
 10
-456.491
 20
-109.298
 30
-2.06593e-14
  70
    32
  0
VERTEX
  8
0
  5
3607
 10
-456.424
 20
-109.298
 30
-2.06445e-14
  70
    32
  0
VERTEX
  8
0
  5
3608
 10
-456.358
 20
-109.298
 30
-2.06298e-14
  70
    32
  0
VERTEX
  8
0
  5
3609
 10
-456.291
 20
-109.298
 30
-2.06150e-14
  70
    32
  0
VERTEX
  8
0
  5
360A
 10
-456.224
 20
-109.298
 30
-2.06002e-14
  70
    32
  0
VERTEX
  8
0
  5
360B
 10
-456.157
 20
-109.298
 30
-2.05855e-14
  70
    32
  0
VERTEX
  8
0
  5
360C
 10
-456.090
 20
-109.298
 30
-2.05707e-14
  70
    32
  0
VERTEX
  8
0
  5
360D
 10
-456.024
 20
-109.298
 30
-2.05559e-14
  70
    32
  0
VERTEX
  8
0
  5
360E
 10
-455.957
 20
-109.298
 30
-2.05411e-14
  70
    32
  0
VERTEX
  8
0
  5
360F
 10
-455.890
 20
-109.298
 30
-2.05263e-14
  70
    32
  0
VERTEX
  8
0
  5
3610
 10
-455.823
 20
-109.298
 30
-2.05116e-14
  70
    32
  0
VERTEX
  8
0
  5
3611
 10
-455.756
 20
-109.298
 30
-2.04968e-14
  70
    32
  0
VERTEX
  8
0
  5
3612
 10
-455.690
 20
-109.298
 30
-2.04820e-14
  70
    32
  0
VERTEX
  8
0
  5
3613
 10
-455.623
 20
-109.298
 30
-2.04672e-14
  70
    32
  0
VERTEX
  8
0
  5
3614
 10
-455.556
 20
-109.298
 30
-2.04525e-14
  70
    32
  0
VERTEX
  8
0
  5
3615
 10
-455.489
 20
-109.298
 30
-2.04377e-14
  70
    32
  0
VERTEX
  8
0
  5
3616
 10
-455.422
 20
-109.298
 30
-2.04229e-14
  70
    32
  0
VERTEX
  8
0
  5
3617
 10
-455.356
 20
-109.298
 30
-2.04081e-14
  70
    32
  0
VERTEX
  8
0
  5
3618
 10
-455.289
 20
-109.298
 30
-2.03933e-14
  70
    32
  0
VERTEX
  8
0
  5
3619
 10
-455.222
 20
-109.298
 30
-2.03785e-14
  70
    32
  0
VERTEX
  8
0
  5
361A
 10
-455.155
 20
-109.298
 30
-2.03638e-14
  70
    32
  0
VERTEX
  8
0
  5
361B
 10
-455.089
 20
-109.298
 30
-2.03490e-14
  70
    32
  0
VERTEX
  8
0
  5
361C
 10
-455.022
 20
-109.298
 30
-2.03342e-14
  70
    32
  0
VERTEX
  8
0
  5
361D
 10
-454.955
 20
-109.298
 30
-2.03194e-14
  70
    32
  0
VERTEX
  8
0
  5
361E
 10
-454.888
 20
-109.298
 30
-2.03046e-14
  70
    32
  0
VERTEX
  8
0
  5
361F
 10
-454.821
 20
-109.298
 30
-2.02898e-14
  70
    32
  0
VERTEX
  8
0
  5
3620
 10
-454.755
 20
-109.298
 30
-2.02751e-14
  70
    32
  0
VERTEX
  8
0
  5
3621
 10
-454.688
 20
-109.298
 30
-2.02603e-14
  70
    32
  0
VERTEX
  8
0
  5
3622
 10
-454.621
 20
-109.298
 30
-2.02455e-14
  70
    32
  0
VERTEX
  8
0
  5
3623
 10
-454.554
 20
-109.298
 30
-2.02307e-14
  70
    32
  0
VERTEX
  8
0
  5
3624
 10
-454.487
 20
-109.298
 30
-2.02159e-14
  70
    32
  0
VERTEX
  8
0
  5
3625
 10
-454.421
 20
-109.298
 30
-2.02011e-14
  70
    32
  0
VERTEX
  8
0
  5
3626
 10
-454.354
 20
-109.298
 30
-2.01863e-14
  70
    32
  0
VERTEX
  8
0
  5
3627
 10
-454.287
 20
-109.298
 30
-2.01715e-14
  70
    32
  0
VERTEX
  8
0
  5
3628
 10
-454.220
 20
-109.298
 30
-2.01568e-14
  70
    32
  0
VERTEX
  8
0
  5
3629
 10
-454.154
 20
-109.298
 30
-2.01420e-14
  70
    32
  0
VERTEX
  8
0
  5
362A
 10
-454.087
 20
-109.298
 30
-2.01272e-14
  70
    32
  0
VERTEX
  8
0
  5
362B
 10
-454.020
 20
-109.298
 30
-2.01124e-14
  70
    32
  0
VERTEX
  8
0
  5
362C
 10
-453.953
 20
-109.298
 30
-2.00976e-14
  70
    32
  0
VERTEX
  8
0
  5
362D
 10
-453.886
 20
-109.298
 30
-2.00828e-14
  70
    32
  0
VERTEX
  8
0
  5
362E
 10
-453.820
 20
-109.298
 30
-2.00680e-14
  70
    32
  0
VERTEX
  8
0
  5
362F
 10
-453.753
 20
-109.298
 30
-2.00532e-14
  70
    32
  0
VERTEX
  8
0
  5
3630
 10
-453.686
 20
-109.298
 30
-2.00384e-14
  70
    32
  0
VERTEX
  8
0
  5
3631
 10
-453.619
 20
-109.298
 30
-2.00236e-14
  70
    32
  0
VERTEX
  8
0
  5
3632
 10
-453.552
 20
-109.298
 30
-2.00088e-14
  70
    32
  0
VERTEX
  8
0
  5
3633
 10
-453.486
 20
-109.298
 30
-1.99940e-14
  70
    32
  0
VERTEX
  8
0
  5
3634
 10
-453.419
 20
-109.298
 30
-1.99793e-14
  70
    32
  0
VERTEX
  8
0
  5
3635
 10
-453.352
 20
-109.298
 30
-1.99645e-14
  70
    32
  0
VERTEX
  8
0
  5
3636
 10
-453.285
 20
-109.298
 30
-1.99497e-14
  70
    32
  0
VERTEX
  8
0
  5
3637
 10
-453.219
 20
-109.298
 30
-1.99349e-14
  70
    32
  0
VERTEX
  8
0
  5
3638
 10
-453.152
 20
-109.298
 30
-1.99201e-14
  70
    32
  0
VERTEX
  8
0
  5
3639
 10
-453.085
 20
-109.298
 30
-1.99053e-14
  70
    32
  0
VERTEX
  8
0
  5
363A
 10
-453.018
 20
-109.298
 30
-1.98905e-14
  70
    32
  0
VERTEX
  8
0
  5
363B
 10
-452.951
 20
-109.298
 30
-1.98757e-14
  70
    32
  0
VERTEX
  8
0
  5
363C
 10
-452.885
 20
-109.298
 30
-1.98609e-14
  70
    32
  0
VERTEX
  8
0
  5
363D
 10
-452.818
 20
-109.298
 30
-1.98461e-14
  70
    32
  0
VERTEX
  8
0
  5
363E
 10
-452.751
 20
-109.298
 30
-1.98313e-14
  70
    32
  0
VERTEX
  8
0
  5
363F
 10
-452.684
 20
-109.298
 30
-1.98165e-14
  70
    32
  0
VERTEX
  8
0
  5
3640
 10
-452.617
 20
-109.298
 30
-1.98017e-14
  70
    32
  0
VERTEX
  8
0
  5
3641
 10
-452.551
 20
-109.298
 30
-1.97869e-14
  70
    32
  0
VERTEX
  8
0
  5
3642
 10
-452.484
 20
-109.298
 30
-1.97721e-14
  70
    32
  0
VERTEX
  8
0
  5
3643
 10
-452.417
 20
-109.298
 30
-1.97573e-14
  70
    32
  0
VERTEX
  8
0
  5
3644
 10
-452.350
 20
-109.298
 30
-1.97425e-14
  70
    32
  0
VERTEX
  8
0
  5
3645
 10
-452.284
 20
-109.298
 30
-1.97277e-14
  70
    32
  0
VERTEX
  8
0
  5
3646
 10
-452.217
 20
-109.298
 30
-1.97129e-14
  70
    32
  0
VERTEX
  8
0
  5
3647
 10
-452.150
 20
-109.298
 30
-1.96981e-14
  70
    32
  0
VERTEX
  8
0
  5
3648
 10
-452.083
 20
-109.298
 30
-1.96833e-14
  70
    32
  0
VERTEX
  8
0
  5
3649
 10
-452.016
 20
-109.298
 30
-1.96685e-14
  70
    32
  0
VERTEX
  8
0
  5
364A
 10
-451.950
 20
-109.298
 30
-1.96537e-14
  70
    32
  0
VERTEX
  8
0
  5
364B
 10
-451.883
 20
-109.298
 30
-1.96389e-14
  70
    32
  0
VERTEX
  8
0
  5
364C
 10
-451.816
 20
-109.298
 30
-1.96241e-14
  70
    32
  0
VERTEX
  8
0
  5
364D
 10
-451.749
 20
-109.298
 30
-1.96093e-14
  70
    32
  0
VERTEX
  8
0
  5
364E
 10
-451.682
 20
-109.298
 30
-1.95945e-14
  70
    32
  0
VERTEX
  8
0
  5
364F
 10
-451.616
 20
-109.298
 30
-1.95797e-14
  70
    32
  0
VERTEX
  8
0
  5
3650
 10
-451.549
 20
-109.298
 30
-1.95649e-14
  70
    32
  0
VERTEX
  8
0
  5
3651
 10
-451.482
 20
-109.298
 30
-1.95501e-14
  70
    32
  0
VERTEX
  8
0
  5
3652
 10
-451.415
 20
-109.298
 30
-1.95353e-14
  70
    32
  0
VERTEX
  8
0
  5
3653
 10
-451.349
 20
-109.298
 30
-1.95205e-14
  70
    32
  0
VERTEX
  8
0
  5
3654
 10
-451.282
 20
-109.298
 30
-1.95057e-14
  70
    32
  0
VERTEX
  8
0
  5
3655
 10
-451.215
 20
-109.298
 30
-1.94909e-14
  70
    32
  0
VERTEX
  8
0
  5
3656
 10
-451.148
 20
-109.298
 30
-1.94761e-14
  70
    32
  0
VERTEX
  8
0
  5
3657
 10
-451.081
 20
-109.298
 30
-1.94613e-14
  70
    32
  0
VERTEX
  8
0
  5
3658
 10
-451.015
 20
-109.298
 30
-1.94465e-14
  70
    32
  0
VERTEX
  8
0
  5
3659
 10
-450.948
 20
-109.298
 30
-1.94317e-14
  70
    32
  0
VERTEX
  8
0
  5
365A
 10
-450.881
 20
-109.298
 30
-1.94169e-14
  70
    32
  0
VERTEX
  8
0
  5
365B
 10
-450.814
 20
-109.298
 30
-1.94021e-14
  70
    32
  0
VERTEX
  8
0
  5
365C
 10
-450.747
 20
-109.298
 30
-1.93873e-14
  70
    32
  0
VERTEX
  8
0
  5
365D
 10
-450.681
 20
-109.298
 30
-1.93725e-14
  70
    32
  0
VERTEX
  8
0
  5
365E
 10
-450.614
 20
-109.298
 30
-1.93576e-14
  70
    32
  0
VERTEX
  8
0
  5
365F
 10
-450.547
 20
-109.298
 30
-1.93428e-14
  70
    32
  0
VERTEX
  8
0
  5
3660
 10
-450.480
 20
-109.298
 30
-1.93280e-14
  70
    32
  0
VERTEX
  8
0
  5
3661
 10
-450.414
 20
-109.298
 30
-1.93132e-14
  70
    32
  0
VERTEX
  8
0
  5
3662
 10
-450.347
 20
-109.298
 30
-1.92984e-14
  70
    32
  0
VERTEX
  8
0
  5
3663
 10
-450.280
 20
-109.298
 30
-1.92836e-14
  70
    32
  0
VERTEX
  8
0
  5
3664
 10
-450.213
 20
-109.298
 30
-1.92688e-14
  70
    32
  0
VERTEX
  8
0
  5
3665
 10
-450.146
 20
-109.298
 30
-1.92540e-14
  70
    32
  0
VERTEX
  8
0
  5
3666
 10
-450.080
 20
-109.298
 30
-1.92392e-14
  70
    32
  0
VERTEX
  8
0
  5
3667
 10
-450.013
 20
-109.298
 30
-1.92244e-14
  70
    32
  0
VERTEX
  8
0
  5
3668
 10
-449.946
 20
-109.298
 30
-1.92096e-14
  70
    32
  0
VERTEX
  8
0
  5
3669
 10
-449.879
 20
-109.298
 30
-1.91948e-14
  70
    32
  0
VERTEX
  8
0
  5
366A
 10
-449.812
 20
-109.298
 30
-1.91800e-14
  70
    32
  0
VERTEX
  8
0
  5
366B
 10
-449.746
 20
-109.298
 30
-1.91652e-14
  70
    32
  0
VERTEX
  8
0
  5
366C
 10
-449.679
 20
-109.298
 30
-1.91504e-14
  70
    32
  0
VERTEX
  8
0
  5
366D
 10
-449.612
 20
-109.298
 30
-1.91356e-14
  70
    32
  0
VERTEX
  8
0
  5
366E
 10
-449.545
 20
-109.298
 30
-1.91208e-14
  70
    32
  0
VERTEX
  8
0
  5
366F
 10
-449.479
 20
-109.298
 30
-1.91060e-14
  70
    32
  0
VERTEX
  8
0
  5
3670
 10
-449.412
 20
-109.298
 30
-1.90912e-14
  70
    32
  0
VERTEX
  8
0
  5
3671
 10
-449.345
 20
-109.298
 30
-1.90763e-14
  70
    32
  0
VERTEX
  8
0
  5
3672
 10
-449.278
 20
-109.298
 30
-1.90615e-14
  70
    32
  0
VERTEX
  8
0
  5
3673
 10
-449.211
 20
-109.298
 30
-1.90467e-14
  70
    32
  0
VERTEX
  8
0
  5
3674
 10
-449.145
 20
-109.298
 30
-1.90319e-14
  70
    32
  0
VERTEX
  8
0
  5
3675
 10
-449.078
 20
-109.298
 30
-1.90171e-14
  70
    32
  0
VERTEX
  8
0
  5
3676
 10
-449.011
 20
-109.298
 30
-1.90023e-14
  70
    32
  0
VERTEX
  8
0
  5
3677
 10
-448.944
 20
-109.298
 30
-1.89909e-14
  70
    32
  0
VERTEX
  8
0
  5
3678
 10
-448.877
 20
-109.298
 30
-1.89794e-14
  70
    32
  0
VERTEX
  8
0
  5
3679
 10
-448.809
 20
-109.298
 30
-1.89672e-14
  70
    32
  0
VERTEX
  8
0
  5
367A
 10
-448.741
 20
-109.298
 30
-1.89544e-14
  70
    32
  0
VERTEX
  8
0
  5
367B
 10
-448.672
 20
-109.298
 30
-1.89410e-14
  70
    32
  0
VERTEX
  8
0
  5
367C
 10
-448.603
 20
-109.298
 30
-1.89271e-14
  70
    32
  0
VERTEX
  8
0
  5
367D
 10
-448.534
 20
-109.298
 30
-1.89126e-14
  70
    32
  0
VERTEX
  8
0
  5
367E
 10
-448.464
 20
-109.298
 30
-1.88977e-14
  70
    32
  0
VERTEX
  8
0
  5
367F
 10
-448.393
 20
-109.298
 30
-1.88823e-14
  70
    32
  0
VERTEX
  8
0
  5
3680
 10
-448.322
 20
-109.298
 30
-1.88665e-14
  70
    32
  0
VERTEX
  8
0
  5
3681
 10
-448.251
 20
-109.298
 30
-1.88504e-14
  70
    32
  0
VERTEX
  8
0
  5
3682
 10
-448.179
 20
-109.298
 30
-1.88340e-14
  70
    32
  0
VERTEX
  8
0
  5
3683
 10
-448.107
 20
-109.298
 30
-1.88172e-14
  70
    32
  0
VERTEX
  8
0
  5
3684
 10
-448.034
 20
-109.298
 30
-1.88002e-14
  70
    32
  0
VERTEX
  8
0
  5
3685
 10
-447.961
 20
-109.298
 30
-1.87830e-14
  70
    32
  0
VERTEX
  8
0
  5
3686
 10
-447.887
 20
-109.298
 30
-1.87657e-14
  70
    32
  0
VERTEX
  8
0
  5
3687
 10
-447.813
 20
-109.298
 30
-1.87482e-14
  70
    32
  0
VERTEX
  8
0
  5
3688
 10
-447.738
 20
-109.298
 30
-1.87306e-14
  70
    32
  0
VERTEX
  8
0
  5
3689
 10
-447.663
 20
-109.298
 30
-1.87129e-14
  70
    32
  0
VERTEX
  8
0
  5
368A
 10
-447.587
 20
-109.298
 30
-1.86953e-14
  70
    32
  0
VERTEX
  8
0
  5
368B
 10
-447.511
 20
-109.298
 30
-1.86776e-14
  70
    32
  0
VERTEX
  8
0
  5
368C
 10
-447.434
 20
-109.298
 30
-1.86601e-14
  70
    32
  0
VERTEX
  8
0
  5
368D
 10
-447.357
 20
-109.298
 30
-1.86426e-14
  70
    32
  0
VERTEX
  8
0
  5
368E
 10
-447.279
 20
-109.298
 30
-1.86252e-14
  70
    32
  0
VERTEX
  8
0
  5
368F
 10
-447.201
 20
-109.298
 30
-1.86081e-14
  70
    32
  0
VERTEX
  8
0
  5
3690
 10
-447.122
 20
-109.298
 30
-1.85911e-14
  70
    32
  0
VERTEX
  8
0
  5
3691
 10
-447.042
 20
-109.298
 30
-1.85744e-14
  70
    32
  0
VERTEX
  8
0
  5
3692
 10
-446.963
 20
-109.298
 30
-1.85580e-14
  70
    32
  0
VERTEX
  8
0
  5
3693
 10
-446.882
 20
-109.298
 30
-1.85417e-14
  70
    32
  0
VERTEX
  8
0
  5
3694
 10
-446.800
 20
-109.298
 30
-1.85226e-14
  70
    32
  0
VERTEX
  8
0
  5
3695
 10
-446.716
 20
-109.298
 30
-1.85006e-14
  70
    32
  0
VERTEX
  8
0
  5
3696
 10
-446.631
 20
-109.298
 30
-1.84765e-14
  70
    32
  0
VERTEX
  8
0
  5
3697
 10
-446.544
 20
-109.298
 30
-1.84510e-14
  70
    32
  0
VERTEX
  8
0
  5
3698
 10
-446.455
 20
-109.298
 30
-1.84250e-14
  70
    32
  0
VERTEX
  8
0
  5
3699
 10
-446.364
 20
-109.298
 30
-1.83990e-14
  70
    32
  0
VERTEX
  8
0
  5
369A
 10
-446.271
 20
-109.298
 30
-1.83740e-14
  70
    32
  0
VERTEX
  8
0
  5
369B
 10
-446.176
 20
-109.298
 30
-1.83506e-14
  70
    32
  0
VERTEX
  8
0
  5
369C
 10
-446.080
 20
-109.298
 30
-1.83295e-14
  70
    32
  0
VERTEX
  8
0
  5
369D
 10
-445.990
 20
-109.298
 30
-1.83106e-14
  70
    32
  0
VERTEX
  8
0
  5
369E
 10
-445.908
 20
-109.298
 30
-1.82935e-14
  70
    32
  0
VERTEX
  8
0
  5
369F
 10
-445.833
 20
-109.298
 30
-1.82782e-14
  70
    32
  0
VERTEX
  8
0
  5
36A0
 10
-445.765
 20
-109.298
 30
-1.82645e-14
  70
    32
  0
VERTEX
  8
0
  5
36A1
 10
-445.703
 20
-109.298
 30
-1.82523e-14
  70
    32
  0
VERTEX
  8
0
  5
36A2
 10
-445.646
 20
-109.298
 30
-1.82414e-14
  70
    32
  0
VERTEX
  8
0
  5
36A3
 10
-445.595
 20
-109.298
 30
-1.82317e-14
  70
    32
  0
VERTEX
  8
0
  5
36A4
 10
-445.548
 20
-109.298
 30
-1.82230e-14
  70
    32
  0
VERTEX
  8
0
  5
36A5
 10
-445.505
 20
-109.298
 30
-1.82153e-14
  70
    32
  0
VERTEX
  8
0
  5
36A6
 10
-445.466
 20
-109.298
 30
-1.82083e-14
  70
    32
  0
VERTEX
  8
0
  5
36A7
 10
-445.430
 20
-109.298
 30
-1.82019e-14
  70
    32
  0
VERTEX
  8
0
  5
36A8
 10
-445.396
 20
-109.297
 30
-1.81961e-14
  70
    32
  0
VERTEX
  8
0
  5
36A9
 10
-445.364
 20
-109.297
 30
-1.81905e-14
  70
    32
  0
VERTEX
  8
0
  5
36AA
 10
-445.333
 20
-109.296
 30
-1.81852e-14
  70
    32
  0
VERTEX
  8
0
  5
36AB
 10
-445.304
 20
-109.295
 30
-1.81799e-14
  70
    32
  0
VERTEX
  8
0
  5
36AC
 10
-445.274
 20
-109.294
 30
-1.81746e-14
  70
    32
  0
VERTEX
  8
0
  5
36AD
 10
-445.245
 20
-109.293
 30
-1.81690e-14
  70
    32
  0
VERTEX
  8
0
  5
36AE
 10
-445.215
 20
-109.291
 30
-1.81631e-14
  70
    32
  0
VERTEX
  8
0
  5
36AF
 10
-445.183
 20
-109.290
 30
-1.81567e-14
  70
    32
  0
VERTEX
  8
0
  5
36B0
 10
-445.150
 20
-109.288
 30
-1.81498e-14
  70
    32
  0
VERTEX
  8
0
  5
36B1
 10
-445.117
 20
-109.286
 30
-1.81427e-14
  70
    32
  0
VERTEX
  8
0
  5
36B2
 10
-445.084
 20
-109.284
 30
-1.81355e-14
  70
    32
  0
VERTEX
  8
0
  5
36B3
 10
-445.051
 20
-109.281
 30
-1.81283e-14
  70
    32
  0
VERTEX
  8
0
  5
36B4
 10
-445.017
 20
-109.279
 30
-1.81210e-14
  70
    32
  0
VERTEX
  8
0
  5
36B5
 10
-444.984
 20
-109.276
 30
-1.81136e-14
  70
    32
  0
VERTEX
  8
0
  5
36B6
 10
-444.950
 20
-109.273
 30
-1.81062e-14
  70
    32
  0
VERTEX
  8
0
  5
36B7
 10
-444.917
 20
-109.270
 30
-1.80988e-14
  70
    32
  0
VERTEX
  8
0
  5
36B8
 10
-444.883
 20
-109.266
 30
-1.80913e-14
  70
    32
  0
VERTEX
  8
0
  5
36B9
 10
-444.849
 20
-109.263
 30
-1.80837e-14
  70
    32
  0
VERTEX
  8
0
  5
36BA
 10
-444.816
 20
-109.259
 30
-1.80761e-14
  70
    32
  0
VERTEX
  8
0
  5
36BB
 10
-444.782
 20
-109.255
 30
-1.80685e-14
  70
    32
  0
VERTEX
  8
0
  5
36BC
 10
-444.748
 20
-109.251
 30
-1.80608e-14
  70
    32
  0
VERTEX
  8
0
  5
36BD
 10
-444.714
 20
-109.247
 30
-1.80530e-14
  70
    32
  0
VERTEX
  8
0
  5
36BE
 10
-444.680
 20
-109.242
 30
-1.80452e-14
  70
    32
  0
VERTEX
  8
0
  5
36BF
 10
-444.645
 20
-109.237
 30
-1.80374e-14
  70
    32
  0
VERTEX
  8
0
  5
36C0
 10
-444.611
 20
-109.232
 30
-1.80296e-14
  70
    32
  0
VERTEX
  8
0
  5
36C1
 10
-444.577
 20
-109.227
 30
-1.80217e-14
  70
    32
  0
VERTEX
  8
0
  5
36C2
 10
-444.543
 20
-109.222
 30
-1.80137e-14
  70
    32
  0
VERTEX
  8
0
  5
36C3
 10
-444.508
 20
-109.216
 30
-1.80058e-14
  70
    32
  0
VERTEX
  8
0
  5
36C4
 10
-444.474
 20
-109.210
 30
-1.79978e-14
  70
    32
  0
VERTEX
  8
0
  5
36C5
 10
-444.439
 20
-109.204
 30
-1.79897e-14
  70
    32
  0
VERTEX
  8
0
  5
36C6
 10
-444.405
 20
-109.198
 30
-1.79817e-14
  70
    32
  0
VERTEX
  8
0
  5
36C7
 10
-444.370
 20
-109.191
 30
-1.79736e-14
  70
    32
  0
VERTEX
  8
0
  5
36C8
 10
-444.336
 20
-109.184
 30
-1.79655e-14
  70
    32
  0
VERTEX
  8
0
  5
36C9
 10
-444.301
 20
-109.178
 30
-1.79574e-14
  70
    32
  0
VERTEX
  8
0
  5
36CA
 10
-444.266
 20
-109.170
 30
-1.79493e-14
  70
    32
  0
VERTEX
  8
0
  5
36CB
 10
-444.231
 20
-109.163
 30
-1.79411e-14
  70
    32
  0
VERTEX
  8
0
  5
36CC
 10
-444.196
 20
-109.155
 30
-1.79329e-14
  70
    32
  0
VERTEX
  8
0
  5
36CD
 10
-444.161
 20
-109.147
 30
-1.79247e-14
  70
    32
  0
VERTEX
  8
0
  5
36CE
 10
-444.127
 20
-109.139
 30
-1.79165e-14
  70
    32
  0
VERTEX
  8
0
  5
36CF
 10
-444.092
 20
-109.131
 30
-1.79083e-14
  70
    32
  0
VERTEX
  8
0
  5
36D0
 10
-444.056
 20
-109.122
 30
-1.79001e-14
  70
    32
  0
VERTEX
  8
0
  5
36D1
 10
-444.021
 20
-109.114
 30
-1.78919e-14
  70
    32
  0
VERTEX
  8
0
  5
36D2
 10
-443.986
 20
-109.105
 30
-1.78836e-14
  70
    32
  0
VERTEX
  8
0
  5
36D3
 10
-443.951
 20
-109.095
 30
-1.78754e-14
  70
    32
  0
VERTEX
  8
0
  5
36D4
 10
-443.916
 20
-109.086
 30
-1.78671e-14
  70
    32
  0
VERTEX
  8
0
  5
36D5
 10
-443.881
 20
-109.076
 30
-1.78589e-14
  70
    32
  0
VERTEX
  8
0
  5
36D6
 10
-443.845
 20
-109.066
 30
-1.78506e-14
  70
    32
  0
VERTEX
  8
0
  5
36D7
 10
-443.810
 20
-109.056
 30
-1.78424e-14
  70
    32
  0
VERTEX
  8
0
  5
36D8
 10
-443.775
 20
-109.045
 30
-1.78342e-14
  70
    32
  0
VERTEX
  8
0
  5
36D9
 10
-443.739
 20
-109.034
 30
-1.78259e-14
  70
    32
  0
VERTEX
  8
0
  5
36DA
 10
-443.704
 20
-109.023
 30
-1.78177e-14
  70
    32
  0
VERTEX
  8
0
  5
36DB
 10
-443.668
 20
-109.012
 30
-1.78095e-14
  70
    32
  0
VERTEX
  8
0
  5
36DC
 10
-443.633
 20
-109.001
 30
-1.78013e-14
  70
    32
  0
VERTEX
  8
0
  5
36DD
 10
-443.597
 20
-108.989
 30
-1.77931e-14
  70
    32
  0
VERTEX
  8
0
  5
36DE
 10
-443.562
 20
-108.977
 30
-1.77850e-14
  70
    32
  0
VERTEX
  8
0
  5
36DF
 10
-443.526
 20
-108.964
 30
-1.77768e-14
  70
    32
  0
VERTEX
  8
0
  5
36E0
 10
-443.490
 20
-108.952
 30
-1.77687e-14
  70
    32
  0
VERTEX
  8
0
  5
36E1
 10
-443.455
 20
-108.939
 30
-1.77606e-14
  70
    32
  0
VERTEX
  8
0
  5
36E2
 10
-443.419
 20
-108.926
 30
-1.77525e-14
  70
    32
  0
VERTEX
  8
0
  5
36E3
 10
-443.383
 20
-108.912
 30
-1.77444e-14
  70
    32
  0
VERTEX
  8
0
  5
36E4
 10
-443.347
 20
-108.899
 30
-1.77364e-14
  70
    32
  0
VERTEX
  8
0
  5
36E5
 10
-443.312
 20
-108.885
 30
-1.77284e-14
  70
    32
  0
VERTEX
  8
0
  5
36E6
 10
-443.276
 20
-108.871
 30
-1.77204e-14
  70
    32
  0
VERTEX
  8
0
  5
36E7
 10
-443.240
 20
-108.856
 30
-1.77125e-14
  70
    32
  0
VERTEX
  8
0
  5
36E8
 10
-443.204
 20
-108.841
 30
-1.77046e-14
  70
    32
  0
VERTEX
  8
0
  5
36E9
 10
-443.168
 20
-108.826
 30
-1.76967e-14
  70
    32
  0
VERTEX
  8
0
  5
36EA
 10
-443.133
 20
-108.811
 30
-1.76888e-14
  70
    32
  0
VERTEX
  8
0
  5
36EB
 10
-443.097
 20
-108.796
 30
-1.76810e-14
  70
    32
  0
VERTEX
  8
0
  5
36EC
 10
-443.061
 20
-108.780
 30
-1.76733e-14
  70
    32
  0
VERTEX
  8
0
  5
36ED
 10
-443.025
 20
-108.763
 30
-1.76656e-14
  70
    32
  0
VERTEX
  8
0
  5
36EE
 10
-442.989
 20
-108.747
 30
-1.76579e-14
  70
    32
  0
VERTEX
  8
0
  5
36EF
 10
-442.953
 20
-108.730
 30
-1.76503e-14
  70
    32
  0
VERTEX
  8
0
  5
36F0
 10
-442.917
 20
-108.713
 30
-1.76427e-14
  70
    32
  0
VERTEX
  8
0
  5
36F1
 10
-442.881
 20
-108.696
 30
-1.76352e-14
  70
    32
  0
VERTEX
  8
0
  5
36F2
 10
-442.845
 20
-108.678
 30
-1.76277e-14
  70
    32
  0
VERTEX
  8
0
  5
36F3
 10
-442.809
 20
-108.660
 30
-1.76203e-14
  70
    32
  0
VERTEX
  8
0
  5
36F4
 10
-442.773
 20
-108.642
 30
-1.76130e-14
  70
    32
  0
VERTEX
  8
0
  5
36F5
 10
-442.737
 20
-108.624
 30
-1.76057e-14
  70
    32
  0
VERTEX
  8
0
  5
36F6
 10
-442.701
 20
-108.605
 30
-1.75985e-14
  70
    32
  0
VERTEX
  8
0
  5
36F7
 10
-442.665
 20
-108.586
 30
-1.75913e-14
  70
    32
  0
VERTEX
  8
0
  5
36F8
 10
-442.629
 20
-108.566
 30
-1.75842e-14
  70
    32
  0
VERTEX
  8
0
  5
36F9
 10
-442.593
 20
-108.547
 30
-1.75772e-14
  70
    32
  0
VERTEX
  8
0
  5
36FA
 10
-442.557
 20
-108.527
 30
-1.75701e-14
  70
    32
  0
VERTEX
  8
0
  5
36FB
 10
-442.521
 20
-108.506
 30
-1.75632e-14
  70
    32
  0
VERTEX
  8
0
  5
36FC
 10
-442.486
 20
-108.486
 30
-1.75562e-14
  70
    32
  0
VERTEX
  8
0
  5
36FD
 10
-442.450
 20
-108.465
 30
-1.75493e-14
  70
    32
  0
VERTEX
  8
0
  5
36FE
 10
-442.414
 20
-108.444
 30
-1.75424e-14
  70
    32
  0
VERTEX
  8
0
  5
36FF
 10
-442.378
 20
-108.422
 30
-1.75355e-14
  70
    32
  0
VERTEX
  8
0
  5
3700
 10
-442.343
 20
-108.400
 30
-1.75287e-14
  70
    32
  0
VERTEX
  8
0
  5
3701
 10
-442.307
 20
-108.378
 30
-1.75219e-14
  70
    32
  0
VERTEX
  8
0
  5
3702
 10
-442.271
 20
-108.356
 30
-1.75150e-14
  70
    32
  0
VERTEX
  8
0
  5
3703
 10
-442.236
 20
-108.333
 30
-1.75082e-14
  70
    32
  0
VERTEX
  8
0
  5
3704
 10
-442.200
 20
-108.310
 30
-1.75014e-14
  70
    32
  0
VERTEX
  8
0
  5
3705
 10
-442.165
 20
-108.286
 30
-1.74946e-14
  70
    32
  0
VERTEX
  8
0
  5
3706
 10
-442.129
 20
-108.262
 30
-1.74878e-14
  70
    32
  0
VERTEX
  8
0
  5
3707
 10
-442.094
 20
-108.238
 30
-1.74810e-14
  70
    32
  0
VERTEX
  8
0
  5
3708
 10
-442.059
 20
-108.214
 30
-1.74742e-14
  70
    32
  0
VERTEX
  8
0
  5
3709
 10
-442.023
 20
-108.189
 30
-1.74673e-14
  70
    32
  0
VERTEX
  8
0
  5
370A
 10
-441.988
 20
-108.164
 30
-1.74605e-14
  70
    32
  0
VERTEX
  8
0
  5
370B
 10
-441.953
 20
-108.138
 30
-1.74536e-14
  70
    32
  0
VERTEX
  8
0
  5
370C
 10
-441.918
 20
-108.112
 30
-1.74466e-14
  70
    32
  0
VERTEX
  8
0
  5
370D
 10
-441.883
 20
-108.086
 30
-1.74397e-14
  70
    32
  0
VERTEX
  8
0
  5
370E
 10
-441.848
 20
-108.059
 30
-1.74327e-14
  70
    32
  0
VERTEX
  8
0
  5
370F
 10
-441.814
 20
-108.033
 30
-1.74257e-14
  70
    32
  0
VERTEX
  8
0
  5
3710
 10
-441.779
 20
-108.005
 30
-1.74186e-14
  70
    32
  0
VERTEX
  8
0
  5
3711
 10
-441.744
 20
-107.978
 30
-1.74115e-14
  70
    32
  0
VERTEX
  8
0
  5
3712
 10
-441.710
 20
-107.950
 30
-1.74044e-14
  70
    32
  0
VERTEX
  8
0
  5
3713
 10
-441.675
 20
-107.921
 30
-1.73972e-14
  70
    32
  0
VERTEX
  8
0
  5
3714
 10
-441.641
 20
-107.893
 30
-1.73899e-14
  70
    32
  0
VERTEX
  8
0
  5
3715
 10
-441.607
 20
-107.864
 30
-1.73826e-14
  70
    32
  0
VERTEX
  8
0
  5
3716
 10
-441.573
 20
-107.834
 30
-1.73752e-14
  70
    32
  0
VERTEX
  8
0
  5
3717
 10
-441.539
 20
-107.805
 30
-1.73677e-14
  70
    32
  0
VERTEX
  8
0
  5
3718
 10
-441.505
 20
-107.775
 30
-1.73602e-14
  70
    32
  0
VERTEX
  8
0
  5
3719
 10
-441.471
 20
-107.744
 30
-1.73526e-14
  70
    32
  0
VERTEX
  8
0
  5
371A
 10
-441.437
 20
-107.713
 30
-1.73449e-14
  70
    32
  0
VERTEX
  8
0
  5
371B
 10
-441.403
 20
-107.682
 30
-1.73371e-14
  70
    32
  0
VERTEX
  8
0
  5
371C
 10
-441.370
 20
-107.650
 30
-1.73293e-14
  70
    32
  0
VERTEX
  8
0
  5
371D
 10
-441.337
 20
-107.618
 30
-1.73213e-14
  70
    32
  0
VERTEX
  8
0
  5
371E
 10
-441.303
 20
-107.586
 30
-1.73132e-14
  70
    32
  0
VERTEX
  8
0
  5
371F
 10
-441.270
 20
-107.553
 30
-1.73051e-14
  70
    32
  0
VERTEX
  8
0
  5
3720
 10
-441.237
 20
-107.520
 30
-1.72968e-14
  70
    32
  0
VERTEX
  8
0
  5
3721
 10
-441.204
 20
-107.487
 30
-1.72885e-14
  70
    32
  0
VERTEX
  8
0
  5
3722
 10
-441.172
 20
-107.453
 30
-1.72800e-14
  70
    32
  0
VERTEX
  8
0
  5
3723
 10
-441.139
 20
-107.418
 30
-1.72714e-14
  70
    32
  0
VERTEX
  8
0
  5
3724
 10
-441.107
 20
-107.384
 30
-1.72627e-14
  70
    32
  0
VERTEX
  8
0
  5
3725
 10
-441.074
 20
-107.349
 30
-1.72539e-14
  70
    32
  0
VERTEX
  8
0
  5
3726
 10
-441.042
 20
-107.313
 30
-1.72449e-14
  70
    32
  0
VERTEX
  8
0
  5
3727
 10
-441.010
 20
-107.277
 30
-1.72358e-14
  70
    32
  0
VERTEX
  8
0
  5
3728
 10
-440.978
 20
-107.241
 30
-1.72267e-14
  70
    32
  0
VERTEX
  8
0
  5
3729
 10
-440.946
 20
-107.204
 30
-1.72176e-14
  70
    32
  0
VERTEX
  8
0
  5
372A
 10
-440.915
 20
-107.167
 30
-1.72086e-14
  70
    32
  0
VERTEX
  8
0
  5
372B
 10
-440.884
 20
-107.130
 30
-1.71998e-14
  70
    32
  0
VERTEX
  8
0
  5
372C
 10
-440.852
 20
-107.092
 30
-1.71910e-14
  70
    32
  0
VERTEX
  8
0
  5
372D
 10
-440.821
 20
-107.054
 30
-1.71824e-14
  70
    32
  0
VERTEX
  8
0
  5
372E
 10
-440.791
 20
-107.015
 30
-1.71739e-14
  70
    32
  0
VERTEX
  8
0
  5
372F
 10
-440.760
 20
-106.976
 30
-1.71655e-14
  70
    32
  0
VERTEX
  8
0
  5
3730
 10
-440.730
 20
-106.937
 30
-1.71572e-14
  70
    32
  0
VERTEX
  8
0
  5
3731
 10
-440.699
 20
-106.897
 30
-1.71490e-14
  70
    32
  0
VERTEX
  8
0
  5
3732
 10
-440.669
 20
-106.857
 30
-1.71409e-14
  70
    32
  0
VERTEX
  8
0
  5
3733
 10
-440.640
 20
-106.816
 30
-1.71329e-14
  70
    32
  0
VERTEX
  8
0
  5
3734
 10
-440.610
 20
-106.775
 30
-1.71251e-14
  70
    32
  0
VERTEX
  8
0
  5
3735
 10
-440.581
 20
-106.733
 30
-1.71173e-14
  70
    32
  0
VERTEX
  8
0
  5
3736
 10
-440.552
 20
-106.691
 30
-1.71097e-14
  70
    32
  0
VERTEX
  8
0
  5
3737
 10
-440.523
 20
-106.649
 30
-1.71022e-14
  70
    32
  0
VERTEX
  8
0
  5
3738
 10
-440.494
 20
-106.606
 30
-1.70948e-14
  70
    32
  0
VERTEX
  8
0
  5
3739
 10
-440.466
 20
-106.563
 30
-1.70875e-14
  70
    32
  0
VERTEX
  8
0
  5
373A
 10
-440.438
 20
-106.519
 30
-1.70803e-14
  70
    32
  0
VERTEX
  8
0
  5
373B
 10
-440.410
 20
-106.475
 30
-1.70733e-14
  70
    32
  0
VERTEX
  8
0
  5
373C
 10
-440.383
 20
-106.431
 30
-1.70664e-14
  70
    32
  0
VERTEX
  8
0
  5
373D
 10
-440.355
 20
-106.386
 30
-1.70596e-14
  70
    32
  0
VERTEX
  8
0
  5
373E
 10
-440.328
 20
-106.341
 30
-1.70529e-14
  70
    32
  0
VERTEX
  8
0
  5
373F
 10
-440.302
 20
-106.295
 30
-1.70463e-14
  70
    32
  0
VERTEX
  8
0
  5
3740
 10
-440.275
 20
-106.249
 30
-1.70399e-14
  70
    32
  0
VERTEX
  8
0
  5
3741
 10
-440.249
 20
-106.202
 30
-1.70335e-14
  70
    32
  0
VERTEX
  8
0
  5
3742
 10
-440.224
 20
-106.155
 30
-1.70274e-14
  70
    32
  0
VERTEX
  8
0
  5
3743
 10
-440.198
 20
-106.107
 30
-1.70213e-14
  70
    32
  0
VERTEX
  8
0
  5
3744
 10
-440.173
 20
-106.059
 30
-1.70153e-14
  70
    32
  0
VERTEX
  8
0
  5
3745
 10
-440.148
 20
-106.011
 30
-1.70095e-14
  70
    32
  0
VERTEX
  8
0
  5
3746
 10
-440.124
 20
-105.962
 30
-1.70038e-14
  70
    32
  0
VERTEX
  8
0
  5
3747
 10
-440.100
 20
-105.913
 30
-1.69982e-14
  70
    32
  0
VERTEX
  8
0
  5
3748
 10
-440.076
 20
-105.863
 30
-1.69928e-14
  70
    32
  0
VERTEX
  8
0
  5
3749
 10
-440.053
 20
-105.813
 30
-1.69875e-14
  70
    32
  0
VERTEX
  8
0
  5
374A
 10
-440.030
 20
-105.762
 30
-1.69823e-14
  70
    32
  0
VERTEX
  8
0
  5
374B
 10
-440.007
 20
-105.711
 30
-1.69773e-14
  70
    32
  0
VERTEX
  8
0
  5
374C
 10
-439.985
 20
-105.660
 30
-1.69723e-14
  70
    32
  0
VERTEX
  8
0
  5
374D
 10
-439.963
 20
-105.608
 30
-1.69675e-14
  70
    32
  0
VERTEX
  8
0
  5
374E
 10
-439.941
 20
-105.555
 30
-1.69629e-14
  70
    32
  0
VERTEX
  8
0
  5
374F
 10
-439.920
 20
-105.502
 30
-1.69583e-14
  70
    32
  0
VERTEX
  8
0
  5
3750
 10
-439.899
 20
-105.449
 30
-1.69539e-14
  70
    32
  0
VERTEX
  8
0
  5
3751
 10
-439.879
 20
-105.395
 30
-1.69497e-14
  70
    32
  0
VERTEX
  8
0
  5
3752
 10
-439.859
 20
-105.341
 30
-1.69456e-14
  70
    32
  0
VERTEX
  8
0
  5
3753
 10
-439.840
 20
-105.286
 30
-1.69416e-14
  70
    32
  0
VERTEX
  8
0
  5
3754
 10
-439.820
 20
-105.231
 30
-1.69378e-14
  70
    32
  0
VERTEX
  8
0
  5
3755
 10
-439.802
 20
-105.175
 30
-1.69342e-14
  70
    32
  0
VERTEX
  8
0
  5
3756
 10
-439.784
 20
-105.119
 30
-1.69309e-14
  70
    32
  0
VERTEX
  8
0
  5
3757
 10
-439.766
 20
-105.063
 30
-1.69278e-14
  70
    32
  0
VERTEX
  8
0
  5
3758
 10
-439.749
 20
-105.006
 30
-1.69250e-14
  70
    32
  0
VERTEX
  8
0
  5
3759
 10
-439.732
 20
-104.948
 30
-1.69223e-14
  70
    32
  0
VERTEX
  8
0
  5
375A
 10
-439.715
 20
-104.890
 30
-1.69198e-14
  70
    32
  0
VERTEX
  8
0
  5
375B
 10
-439.700
 20
-104.832
 30
-1.69175e-14
  70
    32
  0
VERTEX
  8
0
  5
375C
 10
-439.684
 20
-104.773
 30
-1.69154e-14
  70
    32
  0
VERTEX
  8
0
  5
375D
 10
-439.670
 20
-104.714
 30
-1.69135e-14
  70
    32
  0
VERTEX
  8
0
  5
375E
 10
-439.655
 20
-104.654
 30
-1.69117e-14
  70
    32
  0
VERTEX
  8
0
  5
375F
 10
-439.642
 20
-104.594
 30
-1.69101e-14
  70
    32
  0
VERTEX
  8
0
  5
3760
 10
-439.629
 20
-104.533
 30
-1.69087e-14
  70
    32
  0
VERTEX
  8
0
  5
3761
 10
-439.616
 20
-104.472
 30
-1.69074e-14
  70
    32
  0
VERTEX
  8
0
  5
3762
 10
-439.604
 20
-104.411
 30
-1.69062e-14
  70
    32
  0
VERTEX
  8
0
  5
3763
 10
-439.593
 20
-104.349
 30
-1.69052e-14
  70
    32
  0
VERTEX
  8
0
  5
3764
 10
-439.582
 20
-104.286
 30
-1.69043e-14
  70
    32
  0
VERTEX
  8
0
  5
3765
 10
-439.572
 20
-104.223
 30
-1.69035e-14
  70
    32
  0
VERTEX
  8
0
  5
3766
 10
-439.562
 20
-104.160
 30
-1.69028e-14
  70
    32
  0
VERTEX
  8
0
  5
3767
 10
-439.553
 20
-104.097
 30
-1.69022e-14
  70
    32
  0
VERTEX
  8
0
  5
3768
 10
-439.545
 20
-104.032
 30
-1.69017e-14
  70
    32
  0
VERTEX
  8
0
  5
3769
 10
-439.538
 20
-103.968
 30
-1.69013e-14
  70
    32
  0
VERTEX
  8
0
  5
376A
 10
-439.531
 20
-103.903
 30
-1.69009e-14
  70
    32
  0
VERTEX
  8
0
  5
376B
 10
-439.524
 20
-103.837
 30
-1.69006e-14
  70
    32
  0
VERTEX
  8
0
  5
376C
 10
-439.519
 20
-103.771
 30
-1.69004e-14
  70
    32
  0
VERTEX
  8
0
  5
376D
 10
-439.514
 20
-103.705
 30
-1.69003e-14
  70
    32
  0
VERTEX
  8
0
  5
376E
 10
-439.510
 20
-103.638
 30
-1.69002e-14
  70
    32
  0
VERTEX
  8
0
  5
376F
 10
-439.507
 20
-103.571
 30
-1.69001e-14
  70
    32
  0
VERTEX
  8
0
  5
3770
 10
-439.504
 20
-103.503
 30
-1.69000e-14
  70
    32
  0
VERTEX
  8
0
  5
3771
 10
-439.502
 20
-103.435
 30
-1.69000e-14
  70
    32
  0
VERTEX
  8
0
  5
3772
 10
-439.501
 20
-103.367
 30
-1.69000e-14
  70
    32
  0
VERTEX
  8
0
  5
3773
 10
-439.501
 20
-103.298
 30
-1.69000e-14
  70
    32
  0
SEQEND
  8
0
  5
3774
  0
LINE
  5
29C4
  8
0
  6
CONTINUOUS
 62
     3
 10
-427.0939876757250886
 20
-133.2980471356613066
 30
0.0
 11
-471.9505939128251839
 21
-133.2980471356613066
 31
-0.00000000000001
  0
LINE
  5
29C5
  8
0
  6
CONTINUOUS
 62
     3
 10
-471.9505939128251839
 20
-73.298047135661264
 30
0.0
 11
-427.0939863509096881
 21
-73.298047135661264
 31
0.00000000000001
  0
CIRCLE
  5
29C6
  8
0
  6
CONTINUOUS
 62
     3
 10
-341.7109759372083886
 20
-103.2980490209404962
 30
0.0
 40
77.0000000000000568
  0
CIRCLE
  5
29C7
  8
0
  6
CONTINUOUS
 62
     3
 10
-341.7109759372086728
 20
-103.2980490209404962
 30
0.0
 40
76.1441762133705993
  0
CIRCLE
  5
29C8
  8
0
  6
CONTINUOUS
 62
     3
 10
-341.7109759372082749
 20
-103.2980490209404962
 30
0.0
 40
84.4926753298145741
  0
CIRCLE
  5
29C9
  8
0
  6
CONTINUOUS
 62
     3
 10
-341.7109759372083886
 20
-103.2980490209404962
 30
0.0
 40
82.0000000000000568
  0
CIRCLE
  5
29CA
  8
0
  6
CONTINUOUS
 62
     3
 10
-341.7109759372082749
 20
-103.2980490209404962
 30
0.0
 40
86.7584447974062272
  0
CIRCLE
  5
29CB
  8
0
  6
CONTINUOUS
 62
     3
 10
-341.7109759372083886
 20
-103.2980490209404962
 30
0.0
 40
90.5000474057886777
  0
ARC
  5
29CC
  8
0
  6
VERDECKT
 62
     1
 10
-341.7109759372095823
 20
-103.2980490209405957
 30
0.0
 40
81.0000000000014069
 50
338.261540644140382
 51
21.7384622271817207
  0
LINE
  5
29CD
  8
0
  6
VERDECKT
 62
     1
 10
-266.471357961591309
 20
-133.2980471356613066
 30
0.0
 11
-256.3279641986914044
 21
-133.2980471356613066
 31
0.0000000000000023
  0
LINE
  5
29CE
  8
0
  6
VERDECKT
 62
     1
 10
-256.3279655235073164
 20
-73.2980471356612782
 30
0.0
 11
-266.4713594650115169
 21
-73.2980471356612782
 31
-0.0000000000000023
  0
ARC
  5
29CF
  8
0
  6
VERDECKT
 62
     1
 10
-341.7109759372069107
 20
-103.2980490209405957
 30
0.0
 40
81.0000000000014069
 50
158.2615377728182864
 51
201.7384593558595896
  0
LINE
  5
29D0
  8
0
  6
VERDECKT
 62
     1
 10
-416.9505939128251839
 20
-133.2980471356613066
 30
0.0
 11
-427.0939876757250886
 21
-133.2980471356613066
 31
-0.0000000000000023
  0
LINE
  5
29D1
  8
0
  6
VERDECKT
 62
     1
 10
-427.0939863509096881
 20
-73.2980471356612782
 30
0.0
 11
-416.950592409404976
 21
-73.2980471356612782
 31
0.0000000000000023
  0
CIRCLE
  5
29D2
  8
0
  6
VERDECKT
 62
     1
 10
-341.7109759372083886
 20
-103.2980490209404962
 30
0.0
 40
79.5000000000000568
  0
CIRCLE
  5
29D3
  8
0
  6
VERDECKT
 62
     1
 10
-341.7109759372086728
 20
-103.2980490209404962
 30
0.0
 40
78.6346629585999608
  0
CIRCLE
  5
29D4
  8
0
  6
VERDECKT
 62
     1
 10
-341.7109759372083886
 20
-103.2980490209404962
 30
0.0
 40
88.0000474056392363
  0
CIRCLE
  5
29D5
  8
0
  6
VERDECKT
 62
     1
 10
-341.7109759372083886
 20
-103.2980490209404962
 30
0.0
 40
84.4999999999231761
  0
ENDBLK
  5
29D7
  8
0
  0
ENDSEC
  0
SECTION
  2
ENTITIES
  0
INSERT
  5
440
  8
ADSK_ASSOC_ENTITY_BACKUPS
  2
*S3
 10
0.0
 20
0.0
 30
0.0
  0
INSERT
  5
29BB
  8
HILF
  2
A$C9DB0F273
 10
-3.9836835129139589
 20
221.0532696966367894
 30
0.0
  0
INSERT
  5
29D8
  8
HILF
  2
A$CA73A10EF
 10
359.853057650298183
 20
185.4123924226020961
 30
-0.0000000000000181
  0
VIEWPORT
  5
34F
 67
     1
  8
0
 10
499.3991046999893229
 20
174.4376675064690119
 30
0.0
 40
2346.4918915717180425
 41
1327.2917229117520037
 68
     1
 69
     1
1001
ACAD
1000
MVIEW
1002
{
1070
    16
1010
0.0
1020
0.0
1030
0.0
1010
0.0
1020
0.0
1030
1.0
1040
0.0
1040
1327.2917229117520037
1040
499.3991046999893229
1040
174.4376675064690119
1040
50.0
1040
0.0
1040
0.0
1070
     0
1070
  1500
1070
     1
1070
     1
1070
     0
1070
     0
1070
     0
1070
     0
1040
0.0
1040
0.0
1040
0.0
1040
10.0
1040
10.0
1040
10.0
1040
10.0
1070
     0
1002
{
1002
}
1002
}
  0
ENDSEC
  0
EOF
