  0
SECTION
  2
HEADER
  9
$ACADVER
  1
AC1009
  9
$INSBASE
 10
0.0
 20
0.0
 30
0.0
  9
$EXTMIN
 10
-106.6306917763188977
 20
-24.4407056642800313
 30
-0.0000000000000937
  9
$EXTMAX
 10
143.1503513623860897
 20
660.4497864132008544
 30
406.6933496253712974
  9
$LIMMIN
 10
0.0
 20
0.0
  9
$LIMMAX
 10
210.0
 20
297.0
  9
$ORTHOMODE
 70
     1
  9
$REGENMODE
 70
     1
  9
$FILLMODE
 70
     1
  9
$QTEXTMODE
 70
     0
  9
$MIRRTEXT
 70
     1
  9
$DRAGMODE
 70
     2
  9
$LTSCALE
 40
10.0
  9
$OSMODE
 70
    39
  9
$ATTMODE
 70
     1
  9
$TEXTSIZE
 40
3.5
  9
$TRACEWID
 40
0.5
  9
$TEXTSTYLE
  7
STANDARD
  9
$CLAYER
  8
HILF
  9
$CELTYPE
  6
BYLAYER
  9
$CECOLOR
 62
   256
  9
$DIMSCALE
 40
1.0
  9
$DIMASZ
 40
3.5
  9
$DIMEXO
 40
1.0
  9
$DIMDLI
 40
7.0
  9
$DIMRND
 40
0.0
  9
$DIMDLE
 40
0.0
  9
$DIMEXE
 40
1.0
  9
$DIMTP
 40
0.0
  9
$DIMTM
 40
0.0
  9
$DIMTXT
 40
3.5
  9
$DIMCEN
 40
1.5
  9
$DIMTSZ
 40
0.0
  9
$DIMTOL
 70
     0
  9
$DIMLIM
 70
     0
  9
$DIMTIH
 70
     0
  9
$DIMTOH
 70
     0
  9
$DIMSE1
 70
     0
  9
$DIMSE2
 70
     0
  9
$DIMTAD
 70
     1
  9
$DIMZIN
 70
     8
  9
$DIMBLK
  1

  9
$DIMASO
 70
     1
  9
$DIMSHO
 70
     0
  9
$DIMPOST
  1

  9
$DIMAPOST
  1

  9
$DIMALT
 70
     0
  9
$DIMALTD
 70
     2
  9
$DIMALTF
 40
25.3999999999999986
  9
$DIMLFAC
 40
1.0
  9
$DIMTOFL
 70
     1
  9
$DIMTVP
 40
0.0
  9
$DIMTIX
 70
     0
  9
$DIMSOXD
 70
     0
  9
$DIMSAH
 70
     0
  9
$DIMBLK1
  1

  9
$DIMBLK2
  1

  9
$DIMSTYLE
  2
STANDARD
  9
$DIMCLRD
 70
     0
  9
$DIMCLRE
 70
     0
  9
$DIMCLRT
 70
     1
  9
$DIMTFAC
 40
0.5142857142857143
  9
$DIMGAP
 40
1.5
  9
$LUNITS
 70
     2
  9
$LUPREC
 70
     2
  9
$SKETCHINC
 40
1.0
  9
$FILLETRAD
 40
12.5
  9
$AUNITS
 70
     1
  9
$AUPREC
 70
     3
  9
$MENU
  1
ACAD
  9
$ELEVATION
 40
0.0
  9
$PELEVATION
 40
0.0
  9
$THICKNESS
 40
0.0
  9
$LIMCHECK
 70
     0
  9
$BLIPMODE
 70
     0
  9
$CHAMFERA
 40
0.0
  9
$CHAMFERB
 40
0.0
  9
$SKPOLY
 70
     0
  9
$TDCREATE
 40
2452040.6370949079282582
  9
$TDUPDATE
 40
2459285.3614120371639729
  9
$TDINDWG
 40
0.8031431134
  9
$TDUSRTIMER
 40
0.8031431134
  9
$USRTIMER
 70
     1
  9
$ANGBASE
 50
0.0
  9
$ANGDIR
 70
     0
  9
$PDMODE
 70
     0
  9
$PDSIZE
 40
0.0
  9
$PLINEWID
 40
0.0
  9
$COORDS
 70
     1
  9
$SPLFRAME
 70
     0
  9
$SPLINETYPE
 70
     6
  9
$SPLINESEGS
 70
     8
  9
$ATTDIA
 70
     1
  9
$ATTREQ
 70
     1
  9
$HANDLING
 70
     1
  9
$HANDSEED
  5
3555
  9
$SURFTAB1
 70
     6
  9
$SURFTAB2
 70
     6
  9
$SURFTYPE
 70
     6
  9
$SURFU
 70
     6
  9
$SURFV
 70
     6
  9
$UCSNAME
  2

  9
$UCSORG
 10
0.0
 20
0.0
 30
0.0
  9
$UCSXDIR
 10
1.0
 20
0.0
 30
0.0
  9
$UCSYDIR
 10
0.0
 20
1.0
 30
0.0
  9
$PUCSNAME
  2

  9
$PUCSORG
 10
0.0
 20
0.0
 30
0.0
  9
$PUCSXDIR
 10
1.0
 20
0.0
 30
0.0
  9
$PUCSYDIR
 10
0.0
 20
1.0
 30
0.0
  9
$USERI1
 70
     0
  9
$USERI2
 70
     0
  9
$USERI3
 70
     0
  9
$USERI4
 70
     0
  9
$USERI5
 70
     0
  9
$USERR1
 40
0.0
  9
$USERR2
 40
0.0
  9
$USERR3
 40
0.0
  9
$USERR4
 40
0.0
  9
$USERR5
 40
0.0
  9
$WORLDVIEW
 70
     1
  9
$SHADEDGE
 70
     3
  9
$SHADEDIF
 70
    70
  9
$TILEMODE
 70
     1
  9
$MAXACTVP
 70
    16
  9
$PLIMCHECK
 70
     0
  9
$PEXTMIN
 10
2.1696230337272482
 20
6.4862770726388126
 30
-411.2239754552967952
  9
$PEXTMAX
 10
293.1331757420429085
 20
417.9360868635804991
 30
0.0251002686300126
  9
$PLIMMIN
 10
-2.2387790453608432
 20
1.2766717379595169
  9
$PLIMMAX
 10
294.687215827685975
 20
421.2233270113969752
  9
$UNITMODE
 70
     0
  9
$VISRETAIN
 70
     0
  9
$PLINEGEN
 70
     0
  9
$PSLTSCALE
 70
     0
  0
ENDSEC
  0
SECTION
  2
TABLES
  0
TABLE
  2
VPORT
 70
     1
  0
VPORT
  2
*ACTIVE
 70
     0
 10
0.0
 20
0.0
 11
1.0
 21
1.0
 12
300.4034151584256165
 22
89.2261397238944483
 13
0.0
 23
0.0
 14
1.0
 24
1.0
 15
10.0
 25
10.0
 16
-0.0000000000004583
 26
0.0
 36
2056.0420268767470589
 17
18.2598307633594708
 27
319.2783228045036026
 37
203.3466796874998863
 40
836.6975955802136014
 41
1.7678795483061469
 42
50.0
 43
0.0
 44
0.0
 50
0.0
 51
0.0
 71
     0
 72
  1500
 73
     1
 74
     0
 75
     0
 76
     0
 77
     0
 78
     0
  0
ENDTAB
  0
TABLE
  2
LTYPE
 70
     6
  0
LTYPE
  2
CONTINUOUS
 70
     0
  3
Solid line
 72
    65
 73
     0
 40
0.0
  0
LTYPE
  2
VERDECKT
 70
     0
  3
Verdeckt __ __ __ __ __ __ __ __ __ __ __ __ __
 72
    65
 73
     2
 40
0.375
 49
0.25
 49
-0.125
  0
ENDTAB
  0
TABLE
  2
LAYER
 70
    20
  0
LAYER
  2
0
 70
     0
 62
     7
  6
CONTINUOUS
  0
LAYER
  2
HILF
 70
     0
 62
     2
  6
CONTINUOUS
  0
LAYER
  2
DEFPOINTS
 70
     0
 62
     7
  6
CONTINUOUS
  0
LAYER
  2
ROHR
 70
     0
 62
   254
  6
CONTINUOUS
  0
LAYER
  2
ADSK_ASSOC_ENTITY_BACKUPS
 70
     1
 62
    -7
  6
CONTINUOUS
  0
LAYER
  2
BLECH
 70
     0
 62
   254
  6
CONTINUOUS
  0
ENDTAB
  0
TABLE
  2
STYLE
 70
     4
  0
STYLE
  2
STANDARD
 70
     0
 40
0.0
 41
0.8
 50
0.0
 71
     0
 42
3.5
  3
simplex.shx
  4

  0
STYLE
  2

 70
     1
 40
0.0
 41
1.0
 50
0.0
 71
     0
 42
3.5
  3
ltypeshp.shx
  4

  0
ENDTAB
  0
TABLE
  2
VIEW
 70
     1
  0
ENDTAB
  0
TABLE
  2
UCS
 70
     0
  0
ENDTAB
  0
TABLE
  2
APPID
 70
    21
  0
APPID
  2
ACAD
 70
     0
  0
APPID
  2
ACAD_NAV_VCDISPLAY
 70
     0
  0
APPID
  2
ACAD_PSEXT
 70
     0
  0
APPID
  2
ACAECLAYERSTANDARD
 70
     0
  0
APPID
  2
ACCMTRANSPARENCY
 70
     0
  0
APPID
  2
ACAD_STEPID
 70
     0
  0
APPID
  2
ACAD_EXEMPT_FROM_CAD_STANDARDS
 70
     0
  0
APPID
  2
ACADANNOPO
 70
     0
  0
APPID
  2
ACDBDYNAMICBLOCKGUID
 70
     0
  0
APPID
  2
ACSYNERGY
 70
     0
  0
APPID
  2
SYNERGY_BODY_TBR_ID
 70
     0
  0
APPID
  2
ACAD_VIEW_EDGE_ID
 70
     0
  0
APPID
  2
ACSYNERGYSKETCH
 70
     0
  0
APPID
  2
ACADANNOMONITORALERTICONDI
 70
     0
  0
APPID
  2
ACAD_DSTYLE_DIMRADIAL_EXTENSION
 70
     0
  0
APPID
  2
ACAD_MODELDOC_XFORM
 70
     0
  0
APPID
  2
ACAD_DSTYLE_DIMJAG
 70
     0
  0
APPID
  2
ACAD_DSTYLE_DIMBREAK
 70
     0
  0
APPID
  2
PLOTTRANSPARENCY
 70
     0
  0
APPID
  2
ACAD_MLEADERVER
 70
     0
  0
APPID
  2
AcDbAttr
 70
     0
  0
ENDTAB
  0
TABLE
  2
DIMSTYLE
 70
     4
  0
DIMSTYLE
  2
STANDARD
 70
     0
  3

  4

  5

  6

  7

 40
1.0
 41
0.18
 42
0.0625
 43
0.38
 44
0.18
 45
0.0
 46
0.0
 47
0.0
 48
0.0
140
0.18
141
0.09
142
0.0
143
25.3999999999999986
144
1.0
145
0.0
146
1.0
147
0.09
 71
     0
 72
     0
 73
     1
 74
     1
 75
     0
 76
     0
 77
     0
 78
     0
170
     0
171
     2
172
     0
173
     0
174
     0
175
     0
176
     0
177
     0
178
     0
  0
ENDTAB
  0
ENDSEC
  0
SECTION
  2
BLOCKS
  0
BLOCK
  8
0
  2
$MODEL_SPACE
 70
     0
 10
0.0
 20
0.0
 30
0.0
  3
$MODEL_SPACE
  1

  0
ENDBLK
  5
44
  8
0
  0
BLOCK
 67
     1
  8
0
  2
$PAPER_SPACE
 70
     0
 10
0.0
 20
0.0
 30
0.0
  3
$PAPER_SPACE
  1

  0
ENDBLK
  5
42
 67
     1
  8
0
  0
BLOCK
  8
0
  2
*S3
 70
     1
 10
0.0
 20
0.0
 30
0.0
  3
*S3
  1

  0
ENDBLK
  5
43E
  8
0
  0
BLOCK
  8
0
  2
A$CDE08B346
 70
     0
 10
0.0
 20
0.0
 30
0.0
  3
A$CDE08B346
  1

  0
LINE
  5
2751
  8
0
  6
CONTINUOUS
 62
     3
 10
-38.8988209103780989
 20
321.7019258755897226
 30
-0.0000000000000699
 11
-38.8988209103780989
 21
315.7019258755897226
 31
-0.0000000000000685
210
0.0000000000000002
220
1.0
230
-0.0000000000000002
  0
LINE
  5
2752
  8
0
  6
CONTINUOUS
 62
     3
 10
-38.8988209103780989
 20
321.7019258755897226
 30
-0.0000000000000699
 11
-98.898820910378106
 21
321.7019258755897226
 31
-0.0000000000000699
210
0.0000000000000002
220
1.0
230
-0.0000000000000002
  0
LINE
  5
2753
  8
0
  6
CONTINUOUS
 62
     3
 10
-38.8988209103780989
 20
315.7019258755897226
 30
-0.0000000000000685
 11
-98.898820910378106
 21
315.7019258755897226
 31
-0.0000000000000685
210
0.0000000000000002
220
1.0
230
-0.0000000000000002
  0
LINE
  5
2754
  8
0
  6
CONTINUOUS
 62
     3
 10
-98.898820910378106
 20
315.7019258755897226
 30
-0.0000000000000694
 11
-98.898820910378106
 21
321.7019258755897226
 31
-0.0000000000000707
210
0.0000000000000002
220
1.0
230
-0.0000000000000002
  0
LINE
  5
2755
  8
0
  6
CONTINUOUS
 62
     3
 10
87.6257652260038071
 20
81.6933496253712832
 30
-0.0000000000000163
 11
-43.3742347739961787
 21
81.6933496253713258
 31
-0.0000000000000156
210
0.0000000000000002
220
1.0
230
-0.0000000000000002
  0
LINE
  5
2756
  8
0
  6
CONTINUOUS
 62
     3
 10
-50.6326795714020506
 20
406.6933496253714111
 30
-0.0000000000000932
 11
94.8842100234101764
 21
406.6933496253714111
 31
-0.0000000000000901
210
0.0000000000000002
220
1.0
230
-0.0000000000000002
  0
ARC
  5
2757
  8
0
  6
CONTINUOUS
 62
     3
 10
-76.1257652260095909
 20
92.3167948893821375
 30
0.0000000000000027
 40
12.4999999999941593
210
0.0
220
-0.0000000000000002
230
-1.0
 50
179.9999999999988916
 51
185.7105931375008936
  0
ARC
  5
2758
  8
0
  6
CONTINUOUS
 62
     3
 10
31.8742347739934004
 20
92.316794889382507
 30
0.0
 40
12.5000000000027196
210
0.0
220
-0.0000000000000002
230
-1.0
 50
354.2894068625013801
 51
359.9999999999996021
  0
LINE
  5
2759
  8
0
  6
CONTINUOUS
 62
     3
 10
-43.3742347739961787
 20
81.6933496253713258
 30
-0.0000000000000156
 11
-44.3121996516209933
 21
91.0729984016199836
 31
-0.0000000000000177
210
0.0000000000000002
220
1.0
230
-0.0000000000000002
  0
LINE
  5
275A
  8
0
  6
CONTINUOUS
 62
     3
 10
87.6257652260038071
 20
81.6933496253712974
 30
-0.0000000000000163
 11
88.5637301036286146
 21
91.072998401619941
 31
-0.0000000000000184
210
0.0000000000000002
220
1.0
230
-0.0000000000000002
  0
LINE
  5
275B
  8
0
  6
CONTINUOUS
 62
     3
 10
88.6257652260038356
 20
324.1933496253711837
 30
-0.0000000000000704
 11
88.6257652260038356
 21
321.7019258755897795
 31
-0.0000000000000699
210
0.0000000000000002
220
1.0
230
-0.0000000000000002
  0
LINE
  5
275C
  8
0
  6
CONTINUOUS
 62
     3
 10
88.6257652260038356
 20
315.7019258755897226
 30
-0.0000000000000685
 11
88.6257652260037645
 21
92.3167948893823791
 31
-0.0000000000000189
210
0.0000000000000002
220
1.0
230
-0.0000000000000002
  0
LINE
  5
275D
  8
0
  6
CONTINUOUS
 62
     3
 10
-44.3742347739960366
 20
324.1933496253711837
 30
-0.0000000000000692
 11
-44.3742347739960366
 21
321.7019258755897795
 31
-0.0000000000000687
210
0.0000000000000002
220
1.0
230
-0.0000000000000002
  0
LINE
  5
275E
  8
0
  6
CONTINUOUS
 62
     3
 10
-44.3742347739960366
 20
315.7019258755897795
 30
-0.0000000000000673
 11
-44.3742347739961289
 21
92.3167948893823933
 31
-0.0000000000000177
210
0.0000000000000002
220
1.0
230
-0.0000000000000002
  0
ARC
  5
275F
  8
0
  6
CONTINUOUS
 62
     3
 10
33514.1618952791104675
 20
16010.4309370468108682
 30
0.0000000000000028
 40
36922.6815692960080924
210
0.0
220
-0.0000000000000002
230
-1.0
 50
204.9992091110970023
 51
205.0007908891869874
  0
ARC
  5
2760
  8
0
  6
CONTINUOUS
 62
     3
 10
-33558.4447926708089653
 20
16010.4455637087503419
 30
-0.0000000000000001
 40
36922.7161788921584957
210
0.0
220
-0.0000000000000002
230
-1.0
 50
334.9992091115292965
 51
335.0007908881366916
  0
ARC
  5
2761
  8
0
  6
CONTINUOUS
 62
     3
 10
23.876102579115301
 20
393.0913862633329927
 30
0.0000000000000018
 40
29.9981321977382898
210
0.0
220
-0.0000000000000002
230
-1.0
 50
359.9992091115800008
 51
25.000790888415299
  0
ARC
  5
2762
  8
0
  6
CONTINUOUS
 62
     3
 10
-68.127633031124077
 20
393.0913862633332201
 30
0.000000000000001
 40
29.9981321977376183
210
0.0
220
-0.0000000000000002
230
-1.0
 50
154.9992091115844062
 51
180.0007908884203118
  0
LINE
  5
2763
  8
0
  6
CONTINUOUS
 62
     3
 10
-53.8739710336878233
 20
373.9843496253711805
 30
-0.0000000000000853
 11
-53.8742347739957168
 21
393.0909721809069879
 31
-0.0000000000000895
210
0.0000000000000002
220
1.0
230
-0.0000000000000002
  0
LINE
  5
2764
  8
0
  6
CONTINUOUS
 62
     3
 10
98.1255014856959207
 20
373.9843496253711805
 30
-0.0000000000000836
 11
98.1257652260038213
 21
393.0909721809069879
 31
-0.0000000000000878
210
0.0000000000000002
220
1.0
230
-0.0000000000000002
  0
ARC
  5
2765
  8
0
  6
CONTINUOUS
 62
     3
 10
23.874234774017129
 20
373.9843496253665194
 30
0.0000000000000018
 40
29.99973625967068
210
0.0
220
-0.0000000000000002
230
-1.0
 50
334.9928416634418227
 51
0.0000000000091346
  0
ARC
  5
2766
  8
0
  6
CONTINUOUS
 62
     3
 10
-68.125765226025365
 20
373.9843496253664057
 30
0.000000000000001
 40
29.9997362596705308
210
0.0
220
-0.0000000000000002
230
-1.0
 50
179.9999999999907061
 51
205.0071583365582057
  0
ARC
  5
2767
  8
0
  6
CONTINUOUS
 62
     3
 10
67.3742347739948002
 20
353.6933496253714111
 30
-0.0000000000000008
 40
17.9999999999991083
210
0.0
220
-0.0000000000000002
230
-1.0
 50
154.9928416634413111
 51
180.000000000000199
  0
ARC
  5
2768
  8
0
  6
CONTINUOUS
 62
     3
 10
-111.6257652260032955
 20
353.6933496253712974
 30
0.0000000000000035
 40
17.9999999999995985
210
0.0
220
-0.0000000000000002
230
-1.0
 50
0.0000000000000128
 51
25.0071583365583514
  0
LINE
  5
2769
  8
0
  6
CONTINUOUS
 62
     3
 10
93.6257652260038071
 20
353.6933496253712974
 30
-0.0000000000000781
 11
93.6257652260037929
 21
340.1620690480423832
 31
-0.0000000000000751
210
0.0000000000000002
220
1.0
230
-0.0000000000000002
  0
LINE
  5
276A
  8
0
  6
CONTINUOUS
 62
     3
 10
-49.3742347739957381
 20
353.6933496253712974
 30
-0.0000000000000817
 11
-49.3742347739957381
 21
340.1620690480424969
 31
-0.0000000000000787
210
0.0000000000000002
220
1.0
230
-0.0000000000000002
  0
ARC
  5
276B
  8
0
  6
CONTINUOUS
 62
     3
 10
31.3742347739941607
 20
340.1620690480428948
 30
0.0000000000000001
 40
18.0000000000015987
210
0.0
220
-0.0000000000000002
230
-1.0
 50
325.2280559680531269
 51
359.9999999999988063
  0
ARC
  5
276C
  8
0
  6
CONTINUOUS
 62
     3
 10
-75.625765226002116
 20
340.1620690480430085
 30
0.0000000000000026
 40
18.0000000000017017
210
0.0
220
-0.0000000000000002
230
-1.0
 50
180.0000000000015916
 51
214.7719440319469015
  0
ARC
  5
276D
  8
0
  6
CONTINUOUS
 62
     3
 10
54.3742347739970313
 20
324.1933496253706721
 30
0.0000000000000021
 40
10.0000000000012594
210
0.0
220
-0.0000000000000002
230
-1.0
 50
145.228055968053809
 51
179.9999999999976978
  0
ARC
  5
276E
  8
0
  6
CONTINUOUS
 62
     3
 10
-98.6257652260053703
 20
324.1933496253706153
 30
0.0000000000000007
 40
10.0000000000015596
210
0.0
220
-0.0000000000000002
230
-1.0
 50
0.0000000000032697
 51
34.7719440319457931
  0
LINE
  5
276F
  8
0
  6
CONTINUOUS
 62
     3
 10
83.150351362386175
 20
321.7019258755897226
 30
-0.0000000000000722
 11
83.150351362386175
 21
315.7019258755897226
 31
-0.0000000000000709
210
0.0000000000000002
220
1.0
230
-0.0000000000000002
  0
LINE
  5
2770
  8
0
  6
CONTINUOUS
 62
     3
 10
83.150351362386175
 20
321.7019258755897226
 30
-0.0000000000000722
 11
143.1503513623862034
 21
321.7019258755897226
 31
-0.0000000000000722
210
0.0000000000000002
220
1.0
230
-0.0000000000000002
  0
LINE
  5
2771
  8
0
  6
CONTINUOUS
 62
     3
 10
83.150351362386175
 20
315.7019258755897226
 30
-0.0000000000000709
 11
143.1503513623862034
 21
315.7019258755897226
 31
-0.0000000000000709
210
0.0000000000000002
220
1.0
230
-0.0000000000000002
  0
LINE
  5
2772
  8
0
  6
CONTINUOUS
 62
     3
 10
143.1503513623862034
 20
315.7019258755897226
 30
-0.00000000000007
 11
143.1503513623862034
 21
321.7019258755897226
 31
-0.0000000000000713
210
0.0000000000000002
220
1.0
230
-0.0000000000000002
  0
LINE
  5
2773
  8
0
  6
VERDECKT
 62
     1
 10
-38.8988190567524228
 20
315.7019258755897226
 30
-0.0000000000000756
 11
-38.8988190567524228
 21
321.7019258755897226
 31
-0.000000000000077
210
0.0000000000000002
220
1.0
230
-0.0000000000000002
  0
LINE
  5
2774
  8
0
  6
VERDECKT
 62
     1
 10
-45.8742347739957381
 20
321.7019258755897226
 30
-0.0000000000000683
 11
-45.8742347739957381
 21
315.7019258755897226
 31
-0.000000000000067
210
0.0000000000000002
220
1.0
230
-0.0000000000000002
  0
LINE
  5
2775
  8
0
  6
VERDECKT
 62
     1
 10
-91.4488209103782737
 20
321.7019258755897226
 30
-0.0000000000000724
 11
-91.4488209103782737
 21
315.7019258755897226
 31
-0.000000000000071
210
0.0000000000000002
220
1.0
230
-0.0000000000000002
  0
LINE
  5
2776
  8
0
  6
VERDECKT
 62
     1
 10
-66.4488209103791974
 20
321.7019258755897226
 30
-0.0000000000000708
 11
-66.4488209103791974
 21
315.7019258755897226
 31
-0.0000000000000695
210
0.0000000000000002
220
1.0
230
-0.0000000000000002
  0
LINE
  5
2777
  8
0
  6
VERDECKT
 62
     1
 10
85.1381722504789025
 20
81.9421089229234383
 30
-0.0000000000000158
 11
-40.8866417984712669
 21
81.9421089229235093
 31
-0.0000000000000162
210
0.0000000000000002
220
1.0
230
-0.0000000000000002
  0
LINE
  5
2778
  8
0
  6
VERDECKT
 62
     1
 10
-48.3669101038103406
 20
405.6368039710197877
 30
-0.0000000000000935
 11
92.6184405558184665
 21
405.6368039710197877
 31
-0.0000000000000894
210
0.0000000000000002
220
1.0
230
-0.0000000000000002
  0
LINE
  5
2779
  8
0
  6
VERDECKT
 62
     1
 10
88.6257652260038356
 20
321.7019258755897795
 30
-0.0000000000000699
 11
88.6257652260038356
 21
315.7019258755897226
 31
-0.0000000000000685
210
0.0000000000000002
220
1.0
230
-0.0000000000000002
  0
LINE
  5
277A
  8
0
  6
VERDECKT
 62
     1
 10
-44.3742347739960366
 20
321.7019258755897795
 30
-0.0000000000000687
 11
-44.3742347739960366
 21
315.7019258755897795
 31
-0.0000000000000673
210
0.0000000000000002
220
1.0
230
-0.0000000000000002
  0
ARC
  5
277B
  8
0
  6
VERDECKT
 62
     1
 10
-76.1257652259975117
 20
92.3167948893823365
 30
0.0000000000000027
 40
10.0000000000062901
210
0.0
220
-0.0000000000000002
230
-1.0
 50
180.0000000000013927
 51
185.7105931374971135
  0
ARC
  5
277C
  8
0
  6
VERDECKT
 62
     1
 10
31.874234773992729
 20
92.3167948893822938
 30
0.0
 40
10.0000000000034497
210
0.0
220
-0.0000000000000002
230
-1.0
 50
354.2894068625017212
 51
359.9999999999989768
  0
LINE
  5
277D
  8
0
  6
VERDECKT
 62
     1
 10
-40.8866417984712669
 20
81.9421089229235093
 30
-0.0000000000000162
 11
-41.8246066760960815
 21
91.3217576991721955
 31
-0.0000000000000183
210
0.0000000000000002
220
1.0
230
-0.0000000000000002
  0
LINE
  5
277E
  8
0
  6
VERDECKT
 62
     1
 10
85.1381722504788883
 20
81.9421089229234667
 30
-0.0000000000000158
 11
86.07613712810371
 21
91.3217576991721529
 31
-0.0000000000000179
210
0.0000000000000002
220
1.0
230
-0.0000000000000002
  0
LINE
  5
277F
  8
0
  6
VERDECKT
 62
     1
 10
86.1257652260039066
 20
324.1933496253711837
 30
-0.0000000000000699
 11
86.1257652260038071
 21
92.3167948893820949
 31
-0.0000000000000184
210
0.0000000000000002
220
1.0
230
-0.0000000000000002
  0
LINE
  5
2780
  8
0
  6
VERDECKT
 62
     1
 10
-41.8742347739960934
 20
324.1933496253711837
 30
-0.0000000000000698
 11
-41.8742347739961787
 21
92.3167948893821233
 31
-0.0000000000000183
210
0.0000000000000002
220
1.0
230
-0.0000000000000002
  0
LINE
  5
2781
  8
0
  6
VERDECKT
 62
     1
 10
85.138172250478874
 20
81.9421089229234383
 30
-0.0000000000000158
 11
87.6257652260038071
 21
81.6933496253712832
 31
-0.0000000000000158
210
0.0000000000000002
220
1.0
230
-0.0000000000000002
  0
LINE
  5
2782
  8
0
  6
VERDECKT
 62
     1
 10
-40.8866417984712669
 20
81.9421089229235093
 30
-0.0000000000000162
 11
-43.3742347739961787
 21
81.6933496253713258
 31
-0.0000000000000161
210
0.0000000000000002
220
1.0
230
-0.0000000000000002
  0
ARC
  5
2783
  8
0
  6
VERDECKT
 62
     1
 10
54.3742347739964984
 20
324.1933496253707858
 30
0.0000000000000021
 40
12.5000000000007692
210
0.0
220
-0.0000000000000002
230
-1.0
 50
145.2280559680517911
 51
179.9999999999984084
  0
ARC
  5
2784
  8
0
  6
VERDECKT
 62
     1
 10
-98.6257652260040629
 20
324.1933496253710132
 30
0.0000000000000007
 40
12.5000000000002807
210
0.0
220
-0.0000000000000002
230
-1.0
 50
0.0000000000000128
 51
34.7719440319471715
  0
ARC
  5
2785
  8
0
  6
VERDECKT
 62
     1
 10
31.37423477399539
 20
340.1620690480423832
 30
0.0000000000000001
 40
15.5000000000003695
210
0.0
220
-0.0000000000000002
230
-1.0
 50
325.2280559680522174
 51
359.9999999999997726
  0
ARC
  5
2786
  8
0
  6
VERDECKT
 62
     1
 10
-75.6257652260037645
 20
340.1620690480423832
 30
0.0000000000000026
 40
15.5000000000000409
210
0.0
220
-0.0000000000000002
230
-1.0
 50
179.999999999999801
 51
214.7719440319486068
  0
LINE
  5
2787
  8
0
  6
VERDECKT
 62
     1
 10
91.1257652260038071
 20
353.6933496253712974
 30
-0.0000000000000775
 11
91.1257652260037929
 21
340.1620690480423832
 31
-0.0000000000000745
210
0.0000000000000002
220
1.0
230
-0.0000000000000002
  0
LINE
  5
2788
  8
0
  6
VERDECKT
 62
     1
 10
-46.8742347739957381
 20
353.6933496253712974
 30
-0.0000000000000752
 11
-46.8742347739957381
 21
340.1620690480424969
 31
-0.0000000000000722
210
0.0000000000000002
220
1.0
230
-0.0000000000000002
  0
ARC
  5
2789
  8
0
  6
VERDECKT
 62
     1
 10
67.3702376478464373
 20
353.694236028873604
 30
-0.0000000000000008
 40
20.4960028930181402
210
0.0
220
-0.0000000000000002
230
-1.0
 50
154.9903637569082946
 51
180.0024779065412872
  0
ARC
  5
278A
  8
0
  6
VERDECKT
 62
     1
 10
-111.6217680998552026
 20
353.6942360288733767
 30
0.0000000000000035
 40
20.4960028930188791
210
0.0
220
-0.0000000000000002
230
-1.0
 50
359.9975220934588833
 51
25.0096362430912684
  0
ARC
  5
278B
  8
0
  6
VERDECKT
 62
     1
 10
23.877047879073249
 20
373.9843496253711805
 30
0.0000000000000018
 40
27.4971868949225495
210
0.0
220
-0.0000000000000002
230
-1.0
 50
334.9903637569084935
 51
0.0000000000000255
  0
ARC
  5
278C
  8
0
  6
VERDECKT
 62
     1
 10
-68.1285783310809876
 20
373.9843496253711805
 30
0.000000000000001
 40
27.4971868949229012
210
0.0
220
-0.0000000000000002
230
-1.0
 50
180.0
 51
205.0096362430913928
  0
LINE
  5
278D
  8
0
  6
VERDECKT
 62
     1
 10
95.6257652260038213
 20
393.0909721809069879
 30
-0.0000000000000873
 11
95.6257652260038213
 21
373.9843496253711805
 31
-0.000000000000083
210
0.0000000000000002
220
1.0
230
-0.0000000000000002
  0
LINE
  5
278E
  8
0
  6
VERDECKT
 62
     1
 10
-51.3742347739957168
 20
393.0909721809069879
 30
-0.0000000000000901
 11
-51.3742347739957168
 21
373.9843496253711805
 31
-0.0000000000000858
210
0.0000000000000002
220
1.0
230
-0.0000000000000002
  0
ARC
  5
278F
  8
0
  6
VERDECKT
 62
     1
 10
23.8742347739854495
 20
393.0909721809048847
 30
0.0000000000000018
 40
27.5000000000102496
210
0.0
220
-0.0000000000000002
230
-1.0
 50
0.0000000000044019
 51
24.99999999999552
  0
ARC
  5
2790
  8
0
  6
VERDECKT
 62
     1
 10
-68.125765225993888
 20
393.0909721809049984
 30
0.000000000000001
 40
27.5000000000098908
210
0.0
220
-0.0000000000000002
230
-1.0
 50
155.0000000000044906
 51
179.9999999999957083
  0
LINE
  5
2791
  8
0
  6
VERDECKT
 62
     1
 10
92.6184405558184665
 20
405.6368039710197877
 30
-0.0000000000000894
 11
93.0492293695116643
 21
404.71297437877638
 31
-0.0000000000000892
210
0.0000000000000002
220
1.0
230
-0.0000000000000002
  0
LINE
  5
2792
  8
0
  6
VERDECKT
 62
     1
 10
-48.3669101038103406
 20
405.6368039710197877
 30
-0.0000000000000935
 11
-48.7976989175035385
 21
404.71297437877638
 31
-0.0000000000000933
210
0.0000000000000002
220
1.0
230
-0.0000000000000002
  0
LINE
  5
2793
  8
0
  6
VERDECKT
 62
     1
 10
-48.3669101038103406
 20
405.6368039710197877
 30
-0.0000000000000935
 11
-50.6326795714020577
 21
406.6933496253714111
 31
-0.0000000000000937
210
0.0000000000000002
220
1.0
230
-0.0000000000000002
  0
LINE
  5
2794
  8
0
  6
VERDECKT
 62
     1
 10
92.6184405558184949
 20
405.6368039710197877
 30
-0.0000000000000894
 11
94.8842100234102475
 21
406.6933496253715248
 31
-0.0000000000000896
210
0.0000000000000002
220
1.0
230
-0.0000000000000002
  0
LINE
  5
2795
  8
0
  6
VERDECKT
 62
     1
 10
83.1503495087604847
 20
315.7019258755897226
 30
-0.0000000000000744
 11
83.1503495087604847
 21
321.7019258755897226
 31
-0.0000000000000757
210
0.0000000000000002
220
1.0
230
-0.0000000000000002
  0
LINE
  5
2796
  8
0
  6
VERDECKT
 62
     1
 10
90.1257652260038071
 20
315.7019258755897226
 30
-0.0000000000000689
 11
90.1257652260038071
 21
321.7019258755897226
 31
-0.0000000000000702
210
0.0000000000000002
220
1.0
230
-0.0000000000000002
  0
LINE
  5
2797
  8
0
  6
VERDECKT
 62
     1
 10
110.7003513623871953
 20
321.7019258755897226
 30
-0.0000000000000748
 11
110.7003513623871953
 21
315.7019258755897226
 31
-0.0000000000000734
210
0.0000000000000002
220
1.0
230
-0.0000000000000002
  0
LINE
  5
2798
  8
0
  6
VERDECKT
 62
     1
 10
135.7003513623876927
 20
321.7019258755897226
 30
-0.0000000000000732
 11
135.7003513623876927
 21
315.7019258755897226
 31
-0.0000000000000719
210
0.0000000000000002
220
1.0
230
-0.0000000000000002
  0
ENDBLK
  5
279A
  8
0
  0
BLOCK
  8
0
  2
A$C03360F7E
 70
     0
 10
0.0
 20
0.0
 30
0.0
  3
A$C03360F7E
  1

  0
LINE
  5
279E
  8
0
  6
CONTINUOUS
 62
     3
 10
-98.898820910378106
 20
84.1068579008937576
 30
0.0
 11
-47.7025949675275172
 21
84.1068579008937576
 31
0.0000000000000114
  0
POLYLINE
  8
0
  5
2811
  62
3
  66
     1
 10
0.000000
 20
0.000000
 30
0.000000
  70
     8
  0
VERTEX
  8
0
  5
2812
 10
-66.4488
 20
54.1069
 30
-1.48000e-14
  70
    32
  0
VERTEX
  8
0
  5
2813
 10
-66.4492
 20
54.1762
 30
-1.48000e-14
  70
    32
  0
VERTEX
  8
0
  5
2814
 10
-66.4504
 20
54.2460
 30
-1.48000e-14
  70
    32
  0
VERTEX
  8
0
  5
2815
 10
-66.4525
 20
54.3161
 30
-1.48001e-14
  70
    32
  0
VERTEX
  8
0
  5
2816
 10
-66.4553
 20
54.3867
 30
-1.48007e-14
  70
    32
  0
VERTEX
  8
0
  5
2817
 10
-66.4590
 20
54.4576
 30
-1.48019e-14
  70
    32
  0
VERTEX
  8
0
  5
2818
 10
-66.4636
 20
54.5288
 30
-1.48037e-14
  70
    32
  0
VERTEX
  8
0
  5
2819
 10
-66.4690
 20
54.6004
 30
-1.48060e-14
  70
    32
  0
VERTEX
  8
0
  5
281A
 10
-66.4753
 20
54.6724
 30
-1.48088e-14
  70
    32
  0
VERTEX
  8
0
  5
281B
 10
-66.4825
 20
54.7446
 30
-1.48121e-14
  70
    32
  0
VERTEX
  8
0
  5
281C
 10
-66.4906
 20
54.8171
 30
-1.48158e-14
  70
    32
  0
VERTEX
  8
0
  5
281D
 10
-66.4997
 20
54.8900
 30
-1.48199e-14
  70
    32
  0
VERTEX
  8
0
  5
281E
 10
-66.5097
 20
54.9631
 30
-1.48244e-14
  70
    32
  0
VERTEX
  8
0
  5
281F
 10
-66.5207
 20
55.0365
 30
-1.48292e-14
  70
    32
  0
VERTEX
  8
0
  5
2820
 10
-66.5327
 20
55.1102
 30
-1.48343e-14
  70
    32
  0
VERTEX
  8
0
  5
2821
 10
-66.5456
 20
55.1842
 30
-1.48398e-14
  70
    32
  0
VERTEX
  8
0
  5
2822
 10
-66.5596
 20
55.2584
 30
-1.48455e-14
  70
    32
  0
VERTEX
  8
0
  5
2823
 10
-66.5747
 20
55.3329
 30
-1.48514e-14
  70
    32
  0
VERTEX
  8
0
  5
2824
 10
-66.5907
 20
55.4076
 30
-1.48575e-14
  70
    32
  0
VERTEX
  8
0
  5
2825
 10
-66.6079
 20
55.4825
 30
-1.48638e-14
  70
    32
  0
VERTEX
  8
0
  5
2826
 10
-66.6261
 20
55.5576
 30
-1.48702e-14
  70
    32
  0
VERTEX
  8
0
  5
2827
 10
-66.6454
 20
55.6330
 30
-1.48767e-14
  70
    32
  0
VERTEX
  8
0
  5
2828
 10
-66.6658
 20
55.7085
 30
-1.48834e-14
  70
    32
  0
VERTEX
  8
0
  5
2829
 10
-66.6874
 20
55.7842
 30
-1.48900e-14
  70
    32
  0
VERTEX
  8
0
  5
282A
 10
-66.7101
 20
55.8602
 30
-1.48967e-14
  70
    32
  0
VERTEX
  8
0
  5
282B
 10
-66.7340
 20
55.9363
 30
-1.49034e-14
  70
    32
  0
VERTEX
  8
0
  5
282C
 10
-66.7590
 20
56.0125
 30
-1.49100e-14
  70
    32
  0
VERTEX
  8
0
  5
282D
 10
-66.7853
 20
56.0889
 30
-1.49166e-14
  70
    32
  0
VERTEX
  8
0
  5
282E
 10
-66.8127
 20
56.1655
 30
-1.49230e-14
  70
    32
  0
VERTEX
  8
0
  5
282F
 10
-66.8414
 20
56.2421
 30
-1.49294e-14
  70
    32
  0
VERTEX
  8
0
  5
2830
 10
-66.8713
 20
56.3190
 30
-1.49356e-14
  70
    32
  0
VERTEX
  8
0
  5
2831
 10
-66.9025
 20
56.3959
 30
-1.49415e-14
  70
    32
  0
VERTEX
  8
0
  5
2832
 10
-66.9350
 20
56.4729
 30
-1.49473e-14
  70
    32
  0
VERTEX
  8
0
  5
2833
 10
-66.9688
 20
56.5501
 30
-1.49528e-14
  70
    32
  0
VERTEX
  8
0
  5
2834
 10
-67.0039
 20
56.6273
 30
-1.49583e-14
  70
    32
  0
VERTEX
  8
0
  5
2835
 10
-67.0402
 20
56.7045
 30
-1.49642e-14
  70
    32
  0
VERTEX
  8
0
  5
2836
 10
-67.0780
 20
56.7817
 30
-1.49705e-14
  70
    32
  0
VERTEX
  8
0
  5
2837
 10
-67.1170
 20
56.8589
 30
-1.49774e-14
  70
    32
  0
VERTEX
  8
0
  5
2838
 10
-67.1575
 20
56.9361
 30
-1.49848e-14
  70
    32
  0
VERTEX
  8
0
  5
2839
 10
-67.1993
 20
57.0131
 30
-1.49927e-14
  70
    32
  0
VERTEX
  8
0
  5
283A
 10
-67.2425
 20
57.0900
 30
-1.50012e-14
  70
    32
  0
VERTEX
  8
0
  5
283B
 10
-67.2872
 20
57.1668
 30
-1.50101e-14
  70
    32
  0
VERTEX
  8
0
  5
283C
 10
-67.3333
 20
57.2435
 30
-1.50196e-14
  70
    32
  0
VERTEX
  8
0
  5
283D
 10
-67.3809
 20
57.3199
 30
-1.50296e-14
  70
    32
  0
VERTEX
  8
0
  5
283E
 10
-67.4300
 20
57.3962
 30
-1.50401e-14
  70
    32
  0
VERTEX
  8
0
  5
283F
 10
-67.4806
 20
57.4722
 30
-1.50512e-14
  70
    32
  0
VERTEX
  8
0
  5
2840
 10
-67.5327
 20
57.5479
 30
-1.50628e-14
  70
    32
  0
VERTEX
  8
0
  5
2841
 10
-67.5863
 20
57.6233
 30
-1.50750e-14
  70
    32
  0
VERTEX
  8
0
  5
2842
 10
-67.6416
 20
57.6984
 30
-1.50877e-14
  70
    32
  0
VERTEX
  8
0
  5
2843
 10
-67.6984
 20
57.7732
 30
-1.51010e-14
  70
    32
  0
VERTEX
  8
0
  5
2844
 10
-67.7568
 20
57.8476
 30
-1.51148e-14
  70
    32
  0
VERTEX
  8
0
  5
2845
 10
-67.8169
 20
57.9216
 30
-1.51292e-14
  70
    32
  0
VERTEX
  8
0
  5
2846
 10
-67.8786
 20
57.9952
 30
-1.51442e-14
  70
    32
  0
VERTEX
  8
0
  5
2847
 10
-67.9419
 20
58.0684
 30
-1.51597e-14
  70
    32
  0
VERTEX
  8
0
  5
2848
 10
-68.0070
 20
58.1410
 30
-1.51758e-14
  70
    32
  0
VERTEX
  8
0
  5
2849
 10
-68.0738
 20
58.2132
 30
-1.51925e-14
  70
    32
  0
VERTEX
  8
0
  5
284A
 10
-68.1423
 20
58.2848
 30
-1.52098e-14
  70
    32
  0
VERTEX
  8
0
  5
284B
 10
-68.2125
 20
58.3559
 30
-1.52277e-14
  70
    32
  0
VERTEX
  8
0
  5
284C
 10
-68.2845
 20
58.4264
 30
-1.52462e-14
  70
    32
  0
VERTEX
  8
0
  5
284D
 10
-68.3583
 20
58.4964
 30
-1.52652e-14
  70
    32
  0
VERTEX
  8
0
  5
284E
 10
-68.4339
 20
58.5656
 30
-1.52845e-14
  70
    32
  0
VERTEX
  8
0
  5
284F
 10
-68.5113
 20
58.6342
 30
-1.53033e-14
  70
    32
  0
VERTEX
  8
0
  5
2850
 10
-68.5905
 20
58.7020
 30
-1.53218e-14
  70
    32
  0
VERTEX
  8
0
  5
2851
 10
-68.6716
 20
58.7690
 30
-1.53401e-14
  70
    32
  0
VERTEX
  8
0
  5
2852
 10
-68.7545
 20
58.8350
 30
-1.53582e-14
  70
    32
  0
VERTEX
  8
0
  5
2853
 10
-68.8392
 20
58.9002
 30
-1.53761e-14
  70
    32
  0
VERTEX
  8
0
  5
2854
 10
-68.9259
 20
58.9644
 30
-1.53941e-14
  70
    32
  0
VERTEX
  8
0
  5
2855
 10
-69.0144
 20
59.0275
 30
-1.54120e-14
  70
    32
  0
VERTEX
  8
0
  5
2856
 10
-69.1049
 20
59.0895
 30
-1.54301e-14
  70
    32
  0
VERTEX
  8
0
  5
2857
 10
-69.1973
 20
59.1503
 30
-1.54484e-14
  70
    32
  0
VERTEX
  8
0
  5
2858
 10
-69.2917
 20
59.2099
 30
-1.54670e-14
  70
    32
  0
VERTEX
  8
0
  5
2859
 10
-69.3880
 20
59.2683
 30
-1.54859e-14
  70
    32
  0
VERTEX
  8
0
  5
285A
 10
-69.4864
 20
59.3253
 30
-1.55052e-14
  70
    32
  0
VERTEX
  8
0
  5
285B
 10
-69.5867
 20
59.3809
 30
-1.55250e-14
  70
    32
  0
VERTEX
  8
0
  5
285C
 10
-69.6890
 20
59.4350
 30
-1.55453e-14
  70
    32
  0
VERTEX
  8
0
  5
285D
 10
-69.7934
 20
59.4877
 30
-1.55663e-14
  70
    32
  0
VERTEX
  8
0
  5
285E
 10
-69.8999
 20
59.5388
 30
-1.55880e-14
  70
    32
  0
VERTEX
  8
0
  5
285F
 10
-70.0084
 20
59.5883
 30
-1.56105e-14
  70
    32
  0
VERTEX
  8
0
  5
2860
 10
-70.1190
 20
59.6361
 30
-1.56338e-14
  70
    32
  0
VERTEX
  8
0
  5
2861
 10
-70.2317
 20
59.6822
 30
-1.56581e-14
  70
    32
  0
VERTEX
  8
0
  5
2862
 10
-70.3463
 20
59.7264
 30
-1.56832e-14
  70
    32
  0
VERTEX
  8
0
  5
2863
 10
-70.4603
 20
59.7677
 30
-1.57085e-14
  70
    32
  0
VERTEX
  8
0
  5
2864
 10
-70.5727
 20
59.8059
 30
-1.57334e-14
  70
    32
  0
VERTEX
  8
0
  5
2865
 10
-70.6836
 20
59.8411
 30
-1.57581e-14
  70
    32
  0
VERTEX
  8
0
  5
2866
 10
-70.7927
 20
59.8735
 30
-1.57824e-14
  70
    32
  0
VERTEX
  8
0
  5
2867
 10
-70.9000
 20
59.9031
 30
-1.58063e-14
  70
    32
  0
VERTEX
  8
0
  5
2868
 10
-71.0053
 20
59.9301
 30
-1.58299e-14
  70
    32
  0
VERTEX
  8
0
  5
2869
 10
-71.1084
 20
59.9546
 30
-1.58530e-14
  70
    32
  0
VERTEX
  8
0
  5
286A
 10
-71.2094
 20
59.9767
 30
-1.58757e-14
  70
    32
  0
VERTEX
  8
0
  5
286B
 10
-71.3079
 20
59.9966
 30
-1.58979e-14
  70
    32
  0
VERTEX
  8
0
  5
286C
 10
-71.4040
 20
60.0143
 30
-1.59195e-14
  70
    32
  0
VERTEX
  8
0
  5
286D
 10
-71.4974
 20
60.0300
 30
-1.59406e-14
  70
    32
  0
VERTEX
  8
0
  5
286E
 10
-71.5881
 20
60.0439
 30
-1.59611e-14
  70
    32
  0
VERTEX
  8
0
  5
286F
 10
-71.6759
 20
60.0559
 30
-1.59810e-14
  70
    32
  0
VERTEX
  8
0
  5
2870
 10
-71.7608
 20
60.0664
 30
-1.60002e-14
  70
    32
  0
VERTEX
  8
0
  5
2871
 10
-71.8425
 20
60.0752
 30
-1.60187e-14
  70
    32
  0
VERTEX
  8
0
  5
2872
 10
-71.9209
 20
60.0827
 30
-1.60365e-14
  70
    32
  0
VERTEX
  8
0
  5
2873
 10
-71.9960
 20
60.0889
 30
-1.60535e-14
  70
    32
  0
VERTEX
  8
0
  5
2874
 10
-72.0676
 20
60.0940
 30
-1.60698e-14
  70
    32
  0
VERTEX
  8
0
  5
2875
 10
-72.1355
 20
60.0980
 30
-1.60852e-14
  70
    32
  0
VERTEX
  8
0
  5
2876
 10
-72.1997
 20
60.1010
 30
-1.60998e-14
  70
    32
  0
VERTEX
  8
0
  5
2877
 10
-72.2600
 20
60.1033
 30
-1.61134e-14
  70
    32
  0
VERTEX
  8
0
  5
2878
 10
-72.3163
 20
60.1049
 30
-1.61262e-14
  70
    32
  0
VERTEX
  8
0
  5
2879
 10
-72.3685
 20
60.1059
 30
-1.61380e-14
  70
    32
  0
VERTEX
  8
0
  5
287A
 10
-72.4164
 20
60.1065
 30
-1.61488e-14
  70
    32
  0
VERTEX
  8
0
  5
287B
 10
-72.4599
 20
60.1068
 30
-1.61585e-14
  70
    32
  0
VERTEX
  8
0
  5
287C
 10
-72.4989
 20
60.1069
 30
-1.61673e-14
  70
    32
  0
VERTEX
  8
0
  5
287D
 10
-72.5344
 20
60.1069
 30
-1.61752e-14
  70
    32
  0
VERTEX
  8
0
  5
287E
 10
-72.5697
 20
60.1069
 30
-1.61830e-14
  70
    32
  0
VERTEX
  8
0
  5
287F
 10
-72.6050
 20
60.1069
 30
-1.61909e-14
  70
    32
  0
VERTEX
  8
0
  5
2880
 10
-72.6404
 20
60.1069
 30
-1.61988e-14
  70
    32
  0
VERTEX
  8
0
  5
2881
 10
-72.6758
 20
60.1069
 30
-1.62066e-14
  70
    32
  0
VERTEX
  8
0
  5
2882
 10
-72.7112
 20
60.1069
 30
-1.62145e-14
  70
    32
  0
VERTEX
  8
0
  5
2883
 10
-72.7467
 20
60.1069
 30
-1.62224e-14
  70
    32
  0
VERTEX
  8
0
  5
2884
 10
-72.7822
 20
60.1069
 30
-1.62304e-14
  70
    32
  0
VERTEX
  8
0
  5
2885
 10
-72.8178
 20
60.1069
 30
-1.62383e-14
  70
    32
  0
VERTEX
  8
0
  5
2886
 10
-72.8533
 20
60.1069
 30
-1.62462e-14
  70
    32
  0
VERTEX
  8
0
  5
2887
 10
-72.8889
 20
60.1069
 30
-1.62542e-14
  70
    32
  0
VERTEX
  8
0
  5
2888
 10
-72.9246
 20
60.1069
 30
-1.62621e-14
  70
    32
  0
VERTEX
  8
0
  5
2889
 10
-72.9602
 20
60.1069
 30
-1.62701e-14
  70
    32
  0
VERTEX
  8
0
  5
288A
 10
-72.9959
 20
60.1069
 30
-1.62781e-14
  70
    32
  0
VERTEX
  8
0
  5
288B
 10
-73.0317
 20
60.1069
 30
-1.62861e-14
  70
    32
  0
VERTEX
  8
0
  5
288C
 10
-73.0675
 20
60.1069
 30
-1.62941e-14
  70
    32
  0
VERTEX
  8
0
  5
288D
 10
-73.1033
 20
60.1069
 30
-1.63021e-14
  70
    32
  0
VERTEX
  8
0
  5
288E
 10
-73.1391
 20
60.1069
 30
-1.63101e-14
  70
    32
  0
VERTEX
  8
0
  5
288F
 10
-73.1750
 20
60.1069
 30
-1.63181e-14
  70
    32
  0
VERTEX
  8
0
  5
2890
 10
-73.2109
 20
60.1069
 30
-1.63261e-14
  70
    32
  0
VERTEX
  8
0
  5
2891
 10
-73.2468
 20
60.1069
 30
-1.63342e-14
  70
    32
  0
VERTEX
  8
0
  5
2892
 10
-73.2828
 20
60.1069
 30
-1.63422e-14
  70
    32
  0
VERTEX
  8
0
  5
2893
 10
-73.3188
 20
60.1069
 30
-1.63503e-14
  70
    32
  0
VERTEX
  8
0
  5
2894
 10
-73.3549
 20
60.1069
 30
-1.63584e-14
  70
    32
  0
VERTEX
  8
0
  5
2895
 10
-73.3910
 20
60.1069
 30
-1.63664e-14
  70
    32
  0
VERTEX
  8
0
  5
2896
 10
-73.4271
 20
60.1069
 30
-1.63745e-14
  70
    32
  0
VERTEX
  8
0
  5
2897
 10
-73.4632
 20
60.1069
 30
-1.63826e-14
  70
    32
  0
VERTEX
  8
0
  5
2898
 10
-73.4994
 20
60.1069
 30
-1.63908e-14
  70
    32
  0
VERTEX
  8
0
  5
2899
 10
-73.5356
 20
60.1069
 30
-1.63989e-14
  70
    32
  0
VERTEX
  8
0
  5
289A
 10
-73.5719
 20
60.1069
 30
-1.64070e-14
  70
    32
  0
VERTEX
  8
0
  5
289B
 10
-73.6082
 20
60.1069
 30
-1.64151e-14
  70
    32
  0
VERTEX
  8
0
  5
289C
 10
-73.6445
 20
60.1069
 30
-1.64233e-14
  70
    32
  0
VERTEX
  8
0
  5
289D
 10
-73.6808
 20
60.1069
 30
-1.64314e-14
  70
    32
  0
VERTEX
  8
0
  5
289E
 10
-73.7172
 20
60.1069
 30
-1.64396e-14
  70
    32
  0
VERTEX
  8
0
  5
289F
 10
-73.7537
 20
60.1069
 30
-1.64478e-14
  70
    32
  0
VERTEX
  8
0
  5
28A0
 10
-73.7901
 20
60.1069
 30
-1.64560e-14
  70
    32
  0
VERTEX
  8
0
  5
28A1
 10
-73.8266
 20
60.1069
 30
-1.64642e-14
  70
    32
  0
VERTEX
  8
0
  5
28A2
 10
-73.8631
 20
60.1069
 30
-1.64724e-14
  70
    32
  0
VERTEX
  8
0
  5
28A3
 10
-73.8997
 20
60.1069
 30
-1.64806e-14
  70
    32
  0
VERTEX
  8
0
  5
28A4
 10
-73.9363
 20
60.1069
 30
-1.64888e-14
  70
    32
  0
VERTEX
  8
0
  5
28A5
 10
-73.9730
 20
60.1069
 30
-1.64970e-14
  70
    32
  0
VERTEX
  8
0
  5
28A6
 10
-74.0096
 20
60.1069
 30
-1.65053e-14
  70
    32
  0
VERTEX
  8
0
  5
28A7
 10
-74.0463
 20
60.1069
 30
-1.65135e-14
  70
    32
  0
VERTEX
  8
0
  5
28A8
 10
-74.0831
 20
60.1069
 30
-1.65218e-14
  70
    32
  0
VERTEX
  8
0
  5
28A9
 10
-74.1199
 20
60.1069
 30
-1.65301e-14
  70
    32
  0
VERTEX
  8
0
  5
28AA
 10
-74.1567
 20
60.1069
 30
-1.65383e-14
  70
    32
  0
VERTEX
  8
0
  5
28AB
 10
-74.1935
 20
60.1069
 30
-1.65466e-14
  70
    32
  0
VERTEX
  8
0
  5
28AC
 10
-74.2304
 20
60.1069
 30
-1.65549e-14
  70
    32
  0
VERTEX
  8
0
  5
28AD
 10
-74.2673
 20
60.1069
 30
-1.65632e-14
  70
    32
  0
VERTEX
  8
0
  5
28AE
 10
-74.3043
 20
60.1069
 30
-1.65715e-14
  70
    32
  0
VERTEX
  8
0
  5
28AF
 10
-74.3413
 20
60.1069
 30
-1.65799e-14
  70
    32
  0
VERTEX
  8
0
  5
28B0
 10
-74.3783
 20
60.1069
 30
-1.65882e-14
  70
    32
  0
VERTEX
  8
0
  5
28B1
 10
-74.4154
 20
60.1069
 30
-1.65965e-14
  70
    32
  0
VERTEX
  8
0
  5
28B2
 10
-74.4525
 20
60.1069
 30
-1.66049e-14
  70
    32
  0
VERTEX
  8
0
  5
28B3
 10
-74.4896
 20
60.1069
 30
-1.66132e-14
  70
    32
  0
VERTEX
  8
0
  5
28B4
 10
-74.5268
 20
60.1069
 30
-1.66216e-14
  70
    32
  0
VERTEX
  8
0
  5
28B5
 10
-74.5640
 20
60.1069
 30
-1.66300e-14
  70
    32
  0
VERTEX
  8
0
  5
28B6
 10
-74.6012
 20
60.1069
 30
-1.66383e-14
  70
    32
  0
VERTEX
  8
0
  5
28B7
 10
-74.6385
 20
60.1069
 30
-1.66467e-14
  70
    32
  0
VERTEX
  8
0
  5
28B8
 10
-74.6758
 20
60.1069
 30
-1.66551e-14
  70
    32
  0
VERTEX
  8
0
  5
28B9
 10
-74.7132
 20
60.1069
 30
-1.66635e-14
  70
    32
  0
VERTEX
  8
0
  5
28BA
 10
-74.7506
 20
60.1069
 30
-1.66720e-14
  70
    32
  0
VERTEX
  8
0
  5
28BB
 10
-74.7880
 20
60.1069
 30
-1.66804e-14
  70
    32
  0
VERTEX
  8
0
  5
28BC
 10
-74.8255
 20
60.1069
 30
-1.66888e-14
  70
    32
  0
VERTEX
  8
0
  5
28BD
 10
-74.8630
 20
60.1069
 30
-1.66973e-14
  70
    32
  0
VERTEX
  8
0
  5
28BE
 10
-74.9005
 20
60.1069
 30
-1.67057e-14
  70
    32
  0
VERTEX
  8
0
  5
28BF
 10
-74.9381
 20
60.1069
 30
-1.67142e-14
  70
    32
  0
VERTEX
  8
0
  5
28C0
 10
-74.9757
 20
60.1069
 30
-1.67226e-14
  70
    32
  0
VERTEX
  8
0
  5
28C1
 10
-75.0133
 20
60.1069
 30
-1.67311e-14
  70
    32
  0
VERTEX
  8
0
  5
28C2
 10
-75.0510
 20
60.1069
 30
-1.67396e-14
  70
    32
  0
VERTEX
  8
0
  5
28C3
 10
-75.0887
 20
60.1069
 30
-1.67481e-14
  70
    32
  0
VERTEX
  8
0
  5
28C4
 10
-75.1265
 20
60.1069
 30
-1.67566e-14
  70
    32
  0
VERTEX
  8
0
  5
28C5
 10
-75.1643
 20
60.1069
 30
-1.67651e-14
  70
    32
  0
VERTEX
  8
0
  5
28C6
 10
-75.2021
 20
60.1069
 30
-1.67736e-14
  70
    32
  0
VERTEX
  8
0
  5
28C7
 10
-75.2400
 20
60.1069
 30
-1.67822e-14
  70
    32
  0
VERTEX
  8
0
  5
28C8
 10
-75.2779
 20
60.1069
 30
-1.67907e-14
  70
    32
  0
VERTEX
  8
0
  5
28C9
 10
-75.3158
 20
60.1069
 30
-1.67992e-14
  70
    32
  0
VERTEX
  8
0
  5
28CA
 10
-75.3538
 20
60.1069
 30
-1.68078e-14
  70
    32
  0
VERTEX
  8
0
  5
28CB
 10
-75.3918
 20
60.1069
 30
-1.68163e-14
  70
    32
  0
VERTEX
  8
0
  5
28CC
 10
-75.4299
 20
60.1069
 30
-1.68249e-14
  70
    32
  0
VERTEX
  8
0
  5
28CD
 10
-75.4680
 20
60.1069
 30
-1.68335e-14
  70
    32
  0
VERTEX
  8
0
  5
28CE
 10
-75.5061
 20
60.1069
 30
-1.68421e-14
  70
    32
  0
VERTEX
  8
0
  5
28CF
 10
-75.5443
 20
60.1069
 30
-1.68507e-14
  70
    32
  0
VERTEX
  8
0
  5
28D0
 10
-75.5825
 20
60.1069
 30
-1.68593e-14
  70
    32
  0
VERTEX
  8
0
  5
28D1
 10
-75.6207
 20
60.1069
 30
-1.68679e-14
  70
    32
  0
VERTEX
  8
0
  5
28D2
 10
-75.6590
 20
60.1069
 30
-1.68765e-14
  70
    32
  0
VERTEX
  8
0
  5
28D3
 10
-75.6973
 20
60.1069
 30
-1.68851e-14
  70
    32
  0
VERTEX
  8
0
  5
28D4
 10
-75.7357
 20
60.1069
 30
-1.68937e-14
  70
    32
  0
VERTEX
  8
0
  5
28D5
 10
-75.7741
 20
60.1069
 30
-1.69024e-14
  70
    32
  0
VERTEX
  8
0
  5
28D6
 10
-75.8125
 20
60.1069
 30
-1.69110e-14
  70
    32
  0
VERTEX
  8
0
  5
28D7
 10
-75.8510
 20
60.1069
 30
-1.69197e-14
  70
    32
  0
VERTEX
  8
0
  5
28D8
 10
-75.8895
 20
60.1069
 30
-1.69283e-14
  70
    32
  0
VERTEX
  8
0
  5
28D9
 10
-75.9281
 20
60.1069
 30
-1.69370e-14
  70
    32
  0
VERTEX
  8
0
  5
28DA
 10
-75.9666
 20
60.1069
 30
-1.69457e-14
  70
    32
  0
VERTEX
  8
0
  5
28DB
 10
-76.0053
 20
60.1069
 30
-1.69544e-14
  70
    32
  0
VERTEX
  8
0
  5
28DC
 10
-76.0439
 20
60.1069
 30
-1.69631e-14
  70
    32
  0
VERTEX
  8
0
  5
28DD
 10
-76.0826
 20
60.1069
 30
-1.69718e-14
  70
    32
  0
VERTEX
  8
0
  5
28DE
 10
-76.1214
 20
60.1069
 30
-1.69805e-14
  70
    32
  0
VERTEX
  8
0
  5
28DF
 10
-76.1602
 20
60.1069
 30
-1.69892e-14
  70
    32
  0
VERTEX
  8
0
  5
28E0
 10
-76.1990
 20
60.1069
 30
-1.69979e-14
  70
    32
  0
VERTEX
  8
0
  5
28E1
 10
-76.2378
 20
60.1069
 30
-1.70066e-14
  70
    32
  0
VERTEX
  8
0
  5
28E2
 10
-76.2767
 20
60.1069
 30
-1.70154e-14
  70
    32
  0
VERTEX
  8
0
  5
28E3
 10
-76.3157
 20
60.1069
 30
-1.70241e-14
  70
    32
  0
VERTEX
  8
0
  5
28E4
 10
-76.3546
 20
60.1069
 30
-1.70329e-14
  70
    32
  0
VERTEX
  8
0
  5
28E5
 10
-76.3936
 20
60.1069
 30
-1.70416e-14
  70
    32
  0
VERTEX
  8
0
  5
28E6
 10
-76.4327
 20
60.1069
 30
-1.70504e-14
  70
    32
  0
VERTEX
  8
0
  5
28E7
 10
-76.4718
 20
60.1069
 30
-1.70592e-14
  70
    32
  0
VERTEX
  8
0
  5
28E8
 10
-76.5109
 20
60.1069
 30
-1.70680e-14
  70
    32
  0
VERTEX
  8
0
  5
28E9
 10
-76.5501
 20
60.1069
 30
-1.70768e-14
  70
    32
  0
VERTEX
  8
0
  5
28EA
 10
-76.5893
 20
60.1069
 30
-1.70856e-14
  70
    32
  0
VERTEX
  8
0
  5
28EB
 10
-76.6285
 20
60.1069
 30
-1.70944e-14
  70
    32
  0
VERTEX
  8
0
  5
28EC
 10
-76.6678
 20
60.1069
 30
-1.71032e-14
  70
    32
  0
VERTEX
  8
0
  5
28ED
 10
-76.7071
 20
60.1069
 30
-1.71120e-14
  70
    32
  0
VERTEX
  8
0
  5
28EE
 10
-76.7465
 20
60.1069
 30
-1.71208e-14
  70
    32
  0
VERTEX
  8
0
  5
28EF
 10
-76.7859
 20
60.1069
 30
-1.71297e-14
  70
    32
  0
VERTEX
  8
0
  5
28F0
 10
-76.8254
 20
60.1069
 30
-1.71385e-14
  70
    32
  0
VERTEX
  8
0
  5
28F1
 10
-76.8648
 20
60.1069
 30
-1.71473e-14
  70
    32
  0
VERTEX
  8
0
  5
28F2
 10
-76.9044
 20
60.1069
 30
-1.71562e-14
  70
    32
  0
VERTEX
  8
0
  5
28F3
 10
-76.9439
 20
60.1069
 30
-1.71651e-14
  70
    32
  0
VERTEX
  8
0
  5
28F4
 10
-76.9835
 20
60.1069
 30
-1.71739e-14
  70
    32
  0
VERTEX
  8
0
  5
28F5
 10
-77.0232
 20
60.1069
 30
-1.71828e-14
  70
    32
  0
VERTEX
  8
0
  5
28F6
 10
-77.0629
 20
60.1069
 30
-1.71917e-14
  70
    32
  0
VERTEX
  8
0
  5
28F7
 10
-77.1026
 20
60.1069
 30
-1.72006e-14
  70
    32
  0
VERTEX
  8
0
  5
28F8
 10
-77.1423
 20
60.1069
 30
-1.72095e-14
  70
    32
  0
VERTEX
  8
0
  5
28F9
 10
-77.1821
 20
60.1069
 30
-1.72184e-14
  70
    32
  0
VERTEX
  8
0
  5
28FA
 10
-77.2220
 20
60.1069
 30
-1.72273e-14
  70
    32
  0
VERTEX
  8
0
  5
28FB
 10
-77.2619
 20
60.1069
 30
-1.72362e-14
  70
    32
  0
VERTEX
  8
0
  5
28FC
 10
-77.3018
 20
60.1069
 30
-1.72451e-14
  70
    32
  0
VERTEX
  8
0
  5
28FD
 10
-77.3418
 20
60.1069
 30
-1.72541e-14
  70
    32
  0
VERTEX
  8
0
  5
28FE
 10
-77.3818
 20
60.1069
 30
-1.72630e-14
  70
    32
  0
VERTEX
  8
0
  5
28FF
 10
-77.4218
 20
60.1069
 30
-1.72720e-14
  70
    32
  0
VERTEX
  8
0
  5
2900
 10
-77.4619
 20
60.1069
 30
-1.72809e-14
  70
    32
  0
VERTEX
  8
0
  5
2901
 10
-77.5020
 20
60.1069
 30
-1.72899e-14
  70
    32
  0
VERTEX
  8
0
  5
2902
 10
-77.5422
 20
60.1069
 30
-1.72988e-14
  70
    32
  0
VERTEX
  8
0
  5
2903
 10
-77.5824
 20
60.1069
 30
-1.73078e-14
  70
    32
  0
VERTEX
  8
0
  5
2904
 10
-77.6226
 20
60.1069
 30
-1.73168e-14
  70
    32
  0
VERTEX
  8
0
  5
2905
 10
-77.6629
 20
60.1069
 30
-1.73258e-14
  70
    32
  0
VERTEX
  8
0
  5
2906
 10
-77.7033
 20
60.1069
 30
-1.73348e-14
  70
    32
  0
VERTEX
  8
0
  5
2907
 10
-77.7436
 20
60.1069
 30
-1.73438e-14
  70
    32
  0
VERTEX
  8
0
  5
2908
 10
-77.7840
 20
60.1069
 30
-1.73528e-14
  70
    32
  0
VERTEX
  8
0
  5
2909
 10
-77.8245
 20
60.1069
 30
-1.73618e-14
  70
    32
  0
VERTEX
  8
0
  5
290A
 10
-77.8650
 20
60.1069
 30
-1.73708e-14
  70
    32
  0
VERTEX
  8
0
  5
290B
 10
-77.9055
 20
60.1069
 30
-1.73798e-14
  70
    32
  0
VERTEX
  8
0
  5
290C
 10
-77.9461
 20
60.1069
 30
-1.73888e-14
  70
    32
  0
VERTEX
  8
0
  5
290D
 10
-77.9867
 20
60.1069
 30
-1.73979e-14
  70
    32
  0
VERTEX
  8
0
  5
290E
 10
-78.0274
 20
60.1069
 30
-1.74069e-14
  70
    32
  0
VERTEX
  8
0
  5
290F
 10
-78.0681
 20
60.1069
 30
-1.74160e-14
  70
    32
  0
VERTEX
  8
0
  5
2910
 10
-78.1088
 20
60.1069
 30
-1.74250e-14
  70
    32
  0
VERTEX
  8
0
  5
2911
 10
-78.1496
 20
60.1069
 30
-1.74341e-14
  70
    32
  0
VERTEX
  8
0
  5
2912
 10
-78.1904
 20
60.1069
 30
-1.74432e-14
  70
    32
  0
VERTEX
  8
0
  5
2913
 10
-78.2313
 20
60.1069
 30
-1.74522e-14
  70
    32
  0
VERTEX
  8
0
  5
2914
 10
-78.2722
 20
60.1069
 30
-1.74613e-14
  70
    32
  0
VERTEX
  8
0
  5
2915
 10
-78.3131
 20
60.1069
 30
-1.74704e-14
  70
    32
  0
VERTEX
  8
0
  5
2916
 10
-78.3541
 20
60.1069
 30
-1.74795e-14
  70
    32
  0
VERTEX
  8
0
  5
2917
 10
-78.3951
 20
60.1069
 30
-1.74886e-14
  70
    32
  0
VERTEX
  8
0
  5
2918
 10
-78.4362
 20
60.1069
 30
-1.74977e-14
  70
    32
  0
VERTEX
  8
0
  5
2919
 10
-78.4773
 20
60.1069
 30
-1.75068e-14
  70
    32
  0
VERTEX
  8
0
  5
291A
 10
-78.5185
 20
60.1069
 30
-1.75159e-14
  70
    32
  0
VERTEX
  8
0
  5
291B
 10
-78.5597
 20
60.1069
 30
-1.75251e-14
  70
    32
  0
VERTEX
  8
0
  5
291C
 10
-78.6009
 20
60.1069
 30
-1.75342e-14
  70
    32
  0
VERTEX
  8
0
  5
291D
 10
-78.6422
 20
60.1069
 30
-1.75433e-14
  70
    32
  0
VERTEX
  8
0
  5
291E
 10
-78.6835
 20
60.1069
 30
-1.75525e-14
  70
    32
  0
VERTEX
  8
0
  5
291F
 10
-78.7249
 20
60.1069
 30
-1.75616e-14
  70
    32
  0
VERTEX
  8
0
  5
2920
 10
-78.7663
 20
60.1069
 30
-1.75708e-14
  70
    32
  0
VERTEX
  8
0
  5
2921
 10
-78.8078
 20
60.1069
 30
-1.75799e-14
  70
    32
  0
VERTEX
  8
0
  5
2922
 10
-78.8493
 20
60.1069
 30
-1.75891e-14
  70
    32
  0
VERTEX
  8
0
  5
2923
 10
-78.8908
 20
60.1069
 30
-1.75983e-14
  70
    32
  0
VERTEX
  8
0
  5
2924
 10
-78.9324
 20
60.1069
 30
-1.76074e-14
  70
    32
  0
VERTEX
  8
0
  5
2925
 10
-78.9740
 20
60.1069
 30
-1.76166e-14
  70
    32
  0
VERTEX
  8
0
  5
2926
 10
-79.0157
 20
60.1069
 30
-1.76258e-14
  70
    32
  0
VERTEX
  8
0
  5
2927
 10
-79.0574
 20
60.1069
 30
-1.76350e-14
  70
    32
  0
VERTEX
  8
0
  5
2928
 10
-79.0991
 20
60.1069
 30
-1.76442e-14
  70
    32
  0
VERTEX
  8
0
  5
2929
 10
-79.1409
 20
60.1069
 30
-1.76534e-14
  70
    32
  0
VERTEX
  8
0
  5
292A
 10
-79.1828
 20
60.1069
 30
-1.76626e-14
  70
    32
  0
VERTEX
  8
0
  5
292B
 10
-79.2246
 20
60.1069
 30
-1.76718e-14
  70
    32
  0
VERTEX
  8
0
  5
292C
 10
-79.2666
 20
60.1069
 30
-1.76811e-14
  70
    32
  0
VERTEX
  8
0
  5
292D
 10
-79.3085
 20
60.1069
 30
-1.76903e-14
  70
    32
  0
VERTEX
  8
0
  5
292E
 10
-79.3505
 20
60.1069
 30
-1.76995e-14
  70
    32
  0
VERTEX
  8
0
  5
292F
 10
-79.3926
 20
60.1069
 30
-1.77088e-14
  70
    32
  0
VERTEX
  8
0
  5
2930
 10
-79.4347
 20
60.1069
 30
-1.77180e-14
  70
    32
  0
VERTEX
  8
0
  5
2931
 10
-79.4768
 20
60.1069
 30
-1.77273e-14
  70
    32
  0
VERTEX
  8
0
  5
2932
 10
-79.5190
 20
60.1069
 30
-1.77365e-14
  70
    32
  0
VERTEX
  8
0
  5
2933
 10
-79.5612
 20
60.1069
 30
-1.77458e-14
  70
    32
  0
VERTEX
  8
0
  5
2934
 10
-79.6035
 20
60.1069
 30
-1.77550e-14
  70
    32
  0
VERTEX
  8
0
  5
2935
 10
-79.6458
 20
60.1069
 30
-1.77643e-14
  70
    32
  0
VERTEX
  8
0
  5
2936
 10
-79.6882
 20
60.1069
 30
-1.77736e-14
  70
    32
  0
VERTEX
  8
0
  5
2937
 10
-79.7306
 20
60.1069
 30
-1.77829e-14
  70
    32
  0
VERTEX
  8
0
  5
2938
 10
-79.7730
 20
60.1069
 30
-1.77922e-14
  70
    32
  0
VERTEX
  8
0
  5
2939
 10
-79.8155
 20
60.1069
 30
-1.78014e-14
  70
    32
  0
VERTEX
  8
0
  5
293A
 10
-79.8580
 20
60.1069
 30
-1.78107e-14
  70
    32
  0
VERTEX
  8
0
  5
293B
 10
-79.9006
 20
60.1069
 30
-1.78200e-14
  70
    32
  0
VERTEX
  8
0
  5
293C
 10
-79.9432
 20
60.1069
 30
-1.78294e-14
  70
    32
  0
VERTEX
  8
0
  5
293D
 10
-79.9859
 20
60.1069
 30
-1.78387e-14
  70
    32
  0
VERTEX
  8
0
  5
293E
 10
-80.0286
 20
60.1069
 30
-1.78480e-14
  70
    32
  0
VERTEX
  8
0
  5
293F
 10
-80.0714
 20
60.1069
 30
-1.78573e-14
  70
    32
  0
VERTEX
  8
0
  5
2940
 10
-80.1142
 20
60.1069
 30
-1.78666e-14
  70
    32
  0
VERTEX
  8
0
  5
2941
 10
-80.1570
 20
60.1069
 30
-1.78760e-14
  70
    32
  0
VERTEX
  8
0
  5
2942
 10
-80.1999
 20
60.1069
 30
-1.78853e-14
  70
    32
  0
VERTEX
  8
0
  5
2943
 10
-80.2428
 20
60.1069
 30
-1.78947e-14
  70
    32
  0
VERTEX
  8
0
  5
2944
 10
-80.2858
 20
60.1069
 30
-1.79040e-14
  70
    32
  0
VERTEX
  8
0
  5
2945
 10
-80.3288
 20
60.1069
 30
-1.79134e-14
  70
    32
  0
VERTEX
  8
0
  5
2946
 10
-80.3719
 20
60.1069
 30
-1.79227e-14
  70
    32
  0
VERTEX
  8
0
  5
2947
 10
-80.4150
 20
60.1069
 30
-1.79321e-14
  70
    32
  0
VERTEX
  8
0
  5
2948
 10
-80.4581
 20
60.1069
 30
-1.79415e-14
  70
    32
  0
VERTEX
  8
0
  5
2949
 10
-80.5014
 20
60.1069
 30
-1.79509e-14
  70
    32
  0
VERTEX
  8
0
  5
294A
 10
-80.5448
 20
60.1069
 30
-1.79603e-14
  70
    32
  0
VERTEX
  8
0
  5
294B
 10
-80.5882
 20
60.1069
 30
-1.79697e-14
  70
    32
  0
VERTEX
  8
0
  5
294C
 10
-80.6318
 20
60.1069
 30
-1.79792e-14
  70
    32
  0
VERTEX
  8
0
  5
294D
 10
-80.6754
 20
60.1069
 30
-1.79887e-14
  70
    32
  0
VERTEX
  8
0
  5
294E
 10
-80.7192
 20
60.1069
 30
-1.79983e-14
  70
    32
  0
VERTEX
  8
0
  5
294F
 10
-80.7630
 20
60.1069
 30
-1.80078e-14
  70
    32
  0
VERTEX
  8
0
  5
2950
 10
-80.8070
 20
60.1069
 30
-1.80174e-14
  70
    32
  0
VERTEX
  8
0
  5
2951
 10
-80.8510
 20
60.1069
 30
-1.80270e-14
  70
    32
  0
VERTEX
  8
0
  5
2952
 10
-80.8952
 20
60.1069
 30
-1.80367e-14
  70
    32
  0
VERTEX
  8
0
  5
2953
 10
-80.9394
 20
60.1069
 30
-1.80463e-14
  70
    32
  0
VERTEX
  8
0
  5
2954
 10
-80.9838
 20
60.1069
 30
-1.80560e-14
  70
    32
  0
VERTEX
  8
0
  5
2955
 10
-81.0282
 20
60.1069
 30
-1.80657e-14
  70
    32
  0
VERTEX
  8
0
  5
2956
 10
-81.0728
 20
60.1069
 30
-1.80754e-14
  70
    32
  0
VERTEX
  8
0
  5
2957
 10
-81.1174
 20
60.1069
 30
-1.80852e-14
  70
    32
  0
VERTEX
  8
0
  5
2958
 10
-81.1622
 20
60.1069
 30
-1.80950e-14
  70
    32
  0
VERTEX
  8
0
  5
2959
 10
-81.2070
 20
60.1069
 30
-1.81048e-14
  70
    32
  0
VERTEX
  8
0
  5
295A
 10
-81.2520
 20
60.1069
 30
-1.81146e-14
  70
    32
  0
VERTEX
  8
0
  5
295B
 10
-81.2971
 20
60.1069
 30
-1.81244e-14
  70
    32
  0
VERTEX
  8
0
  5
295C
 10
-81.3422
 20
60.1069
 30
-1.81343e-14
  70
    32
  0
VERTEX
  8
0
  5
295D
 10
-81.3875
 20
60.1069
 30
-1.81442e-14
  70
    32
  0
VERTEX
  8
0
  5
295E
 10
-81.4329
 20
60.1069
 30
-1.81541e-14
  70
    32
  0
VERTEX
  8
0
  5
295F
 10
-81.4783
 20
60.1069
 30
-1.81640e-14
  70
    32
  0
VERTEX
  8
0
  5
2960
 10
-81.5239
 20
60.1069
 30
-1.81740e-14
  70
    32
  0
VERTEX
  8
0
  5
2961
 10
-81.5696
 20
60.1069
 30
-1.81839e-14
  70
    32
  0
VERTEX
  8
0
  5
2962
 10
-81.6154
 20
60.1069
 30
-1.81939e-14
  70
    32
  0
VERTEX
  8
0
  5
2963
 10
-81.6613
 20
60.1069
 30
-1.82039e-14
  70
    32
  0
VERTEX
  8
0
  5
2964
 10
-81.7073
 20
60.1069
 30
-1.82140e-14
  70
    32
  0
VERTEX
  8
0
  5
2965
 10
-81.7534
 20
60.1069
 30
-1.82240e-14
  70
    32
  0
VERTEX
  8
0
  5
2966
 10
-81.7997
 20
60.1069
 30
-1.82341e-14
  70
    32
  0
VERTEX
  8
0
  5
2967
 10
-81.8460
 20
60.1069
 30
-1.82442e-14
  70
    32
  0
VERTEX
  8
0
  5
2968
 10
-81.8924
 20
60.1069
 30
-1.82543e-14
  70
    32
  0
VERTEX
  8
0
  5
2969
 10
-81.9390
 20
60.1069
 30
-1.82644e-14
  70
    32
  0
VERTEX
  8
0
  5
296A
 10
-81.9856
 20
60.1069
 30
-1.82746e-14
  70
    32
  0
VERTEX
  8
0
  5
296B
 10
-82.0324
 20
60.1069
 30
-1.82847e-14
  70
    32
  0
VERTEX
  8
0
  5
296C
 10
-82.0793
 20
60.1069
 30
-1.82949e-14
  70
    32
  0
VERTEX
  8
0
  5
296D
 10
-82.1262
 20
60.1069
 30
-1.83051e-14
  70
    32
  0
VERTEX
  8
0
  5
296E
 10
-82.1733
 20
60.1069
 30
-1.83153e-14
  70
    32
  0
VERTEX
  8
0
  5
296F
 10
-82.2206
 20
60.1069
 30
-1.83256e-14
  70
    32
  0
VERTEX
  8
0
  5
2970
 10
-82.2679
 20
60.1069
 30
-1.83358e-14
  70
    32
  0
VERTEX
  8
0
  5
2971
 10
-82.3153
 20
60.1069
 30
-1.83461e-14
  70
    32
  0
VERTEX
  8
0
  5
2972
 10
-82.3628
 20
60.1069
 30
-1.83564e-14
  70
    32
  0
VERTEX
  8
0
  5
2973
 10
-82.4105
 20
60.1069
 30
-1.83667e-14
  70
    32
  0
VERTEX
  8
0
  5
2974
 10
-82.4583
 20
60.1069
 30
-1.83770e-14
  70
    32
  0
VERTEX
  8
0
  5
2975
 10
-82.5061
 20
60.1069
 30
-1.83873e-14
  70
    32
  0
VERTEX
  8
0
  5
2976
 10
-82.5541
 20
60.1069
 30
-1.83976e-14
  70
    32
  0
VERTEX
  8
0
  5
2977
 10
-82.6023
 20
60.1069
 30
-1.84080e-14
  70
    32
  0
VERTEX
  8
0
  5
2978
 10
-82.6505
 20
60.1069
 30
-1.84184e-14
  70
    32
  0
VERTEX
  8
0
  5
2979
 10
-82.6988
 20
60.1069
 30
-1.84288e-14
  70
    32
  0
VERTEX
  8
0
  5
297A
 10
-82.7473
 20
60.1069
 30
-1.84392e-14
  70
    32
  0
VERTEX
  8
0
  5
297B
 10
-82.7958
 20
60.1069
 30
-1.84496e-14
  70
    32
  0
VERTEX
  8
0
  5
297C
 10
-82.8445
 20
60.1069
 30
-1.84600e-14
  70
    32
  0
VERTEX
  8
0
  5
297D
 10
-82.8933
 20
60.1069
 30
-1.84704e-14
  70
    32
  0
VERTEX
  8
0
  5
297E
 10
-82.9423
 20
60.1069
 30
-1.84809e-14
  70
    32
  0
VERTEX
  8
0
  5
297F
 10
-82.9913
 20
60.1069
 30
-1.84914e-14
  70
    32
  0
VERTEX
  8
0
  5
2980
 10
-83.0404
 20
60.1069
 30
-1.85018e-14
  70
    32
  0
VERTEX
  8
0
  5
2981
 10
-83.0897
 20
60.1069
 30
-1.85123e-14
  70
    32
  0
VERTEX
  8
0
  5
2982
 10
-83.1391
 20
60.1069
 30
-1.85228e-14
  70
    32
  0
VERTEX
  8
0
  5
2983
 10
-83.1886
 20
60.1069
 30
-1.85334e-14
  70
    32
  0
VERTEX
  8
0
  5
2984
 10
-83.2383
 20
60.1069
 30
-1.85439e-14
  70
    32
  0
VERTEX
  8
0
  5
2985
 10
-83.2880
 20
60.1069
 30
-1.85544e-14
  70
    32
  0
VERTEX
  8
0
  5
2986
 10
-83.3379
 20
60.1069
 30
-1.85650e-14
  70
    32
  0
VERTEX
  8
0
  5
2987
 10
-83.3879
 20
60.1069
 30
-1.85755e-14
  70
    32
  0
VERTEX
  8
0
  5
2988
 10
-83.4380
 20
60.1069
 30
-1.85861e-14
  70
    32
  0
VERTEX
  8
0
  5
2989
 10
-83.4882
 20
60.1069
 30
-1.85967e-14
  70
    32
  0
VERTEX
  8
0
  5
298A
 10
-83.5386
 20
60.1069
 30
-1.86073e-14
  70
    32
  0
VERTEX
  8
0
  5
298B
 10
-83.5890
 20
60.1069
 30
-1.86179e-14
  70
    32
  0
VERTEX
  8
0
  5
298C
 10
-83.6396
 20
60.1069
 30
-1.86285e-14
  70
    32
  0
VERTEX
  8
0
  5
298D
 10
-83.6904
 20
60.1069
 30
-1.86391e-14
  70
    32
  0
VERTEX
  8
0
  5
298E
 10
-83.7412
 20
60.1069
 30
-1.86497e-14
  70
    32
  0
VERTEX
  8
0
  5
298F
 10
-83.7922
 20
60.1069
 30
-1.86603e-14
  70
    32
  0
VERTEX
  8
0
  5
2990
 10
-83.8433
 20
60.1069
 30
-1.86710e-14
  70
    32
  0
VERTEX
  8
0
  5
2991
 10
-83.8945
 20
60.1069
 30
-1.86816e-14
  70
    32
  0
VERTEX
  8
0
  5
2992
 10
-83.9458
 20
60.1069
 30
-1.86923e-14
  70
    32
  0
VERTEX
  8
0
  5
2993
 10
-83.9973
 20
60.1069
 30
-1.87030e-14
  70
    32
  0
VERTEX
  8
0
  5
2994
 10
-84.0489
 20
60.1069
 30
-1.87136e-14
  70
    32
  0
VERTEX
  8
0
  5
2995
 10
-84.1006
 20
60.1069
 30
-1.87243e-14
  70
    32
  0
VERTEX
  8
0
  5
2996
 10
-84.1525
 20
60.1069
 30
-1.87350e-14
  70
    32
  0
VERTEX
  8
0
  5
2997
 10
-84.2044
 20
60.1069
 30
-1.87457e-14
  70
    32
  0
VERTEX
  8
0
  5
2998
 10
-84.2566
 20
60.1069
 30
-1.87564e-14
  70
    32
  0
VERTEX
  8
0
  5
2999
 10
-84.3088
 20
60.1069
 30
-1.87671e-14
  70
    32
  0
VERTEX
  8
0
  5
299A
 10
-84.3611
 20
60.1069
 30
-1.87778e-14
  70
    32
  0
VERTEX
  8
0
  5
299B
 10
-84.4136
 20
60.1069
 30
-1.87885e-14
  70
    32
  0
VERTEX
  8
0
  5
299C
 10
-84.4662
 20
60.1069
 30
-1.87992e-14
  70
    32
  0
VERTEX
  8
0
  5
299D
 10
-84.5188
 20
60.1069
 30
-1.88099e-14
  70
    32
  0
VERTEX
  8
0
  5
299E
 10
-84.5700
 20
60.1069
 30
-1.88205e-14
  70
    32
  0
VERTEX
  8
0
  5
299F
 10
-84.6195
 20
60.1069
 30
-1.88308e-14
  70
    32
  0
VERTEX
  8
0
  5
29A0
 10
-84.6673
 20
60.1069
 30
-1.88410e-14
  70
    32
  0
VERTEX
  8
0
  5
29A1
 10
-84.7135
 20
60.1069
 30
-1.88510e-14
  70
    32
  0
VERTEX
  8
0
  5
29A2
 10
-84.7581
 20
60.1069
 30
-1.88608e-14
  70
    32
  0
VERTEX
  8
0
  5
29A3
 10
-84.8012
 20
60.1069
 30
-1.88704e-14
  70
    32
  0
VERTEX
  8
0
  5
29A4
 10
-84.8427
 20
60.1070
 30
-1.88798e-14
  70
    32
  0
VERTEX
  8
0
  5
29A5
 10
-84.8828
 20
60.1070
 30
-1.88891e-14
  70
    32
  0
VERTEX
  8
0
  5
29A6
 10
-84.9214
 20
60.1070
 30
-1.88982e-14
  70
    32
  0
VERTEX
  8
0
  5
29A7
 10
-84.9586
 20
60.1070
 30
-1.89071e-14
  70
    32
  0
VERTEX
  8
0
  5
29A8
 10
-84.9945
 20
60.1070
 30
-1.89158e-14
  70
    32
  0
VERTEX
  8
0
  5
29A9
 10
-85.0290
 20
60.1071
 30
-1.89243e-14
  70
    32
  0
VERTEX
  8
0
  5
29AA
 10
-85.0622
 20
60.1071
 30
-1.89327e-14
  70
    32
  0
VERTEX
  8
0
  5
29AB
 10
-85.0941
 20
60.1071
 30
-1.89409e-14
  70
    32
  0
VERTEX
  8
0
  5
29AC
 10
-85.1248
 20
60.1071
 30
-1.89489e-14
  70
    32
  0
VERTEX
  8
0
  5
29AD
 10
-85.1543
 20
60.1071
 30
-1.89568e-14
  70
    32
  0
VERTEX
  8
0
  5
29AE
 10
-85.1827
 20
60.1071
 30
-1.89645e-14
  70
    32
  0
VERTEX
  8
0
  5
29AF
 10
-85.2099
 20
60.1071
 30
-1.89720e-14
  70
    32
  0
VERTEX
  8
0
  5
29B0
 10
-85.2361
 20
60.1071
 30
-1.89793e-14
  70
    32
  0
VERTEX
  8
0
  5
29B1
 10
-85.2612
 20
60.1071
 30
-1.89865e-14
  70
    32
  0
VERTEX
  8
0
  5
29B2
 10
-85.2853
 20
60.1071
 30
-1.89935e-14
  70
    32
  0
VERTEX
  8
0
  5
29B3
 10
-85.3084
 20
60.1071
 30
-1.90004e-14
  70
    32
  0
VERTEX
  8
0
  5
29B4
 10
-85.3306
 20
60.1070
 30
-1.90071e-14
  70
    32
  0
VERTEX
  8
0
  5
29B5
 10
-85.3518
 20
60.1070
 30
-1.90137e-14
  70
    32
  0
VERTEX
  8
0
  5
29B6
 10
-85.3722
 20
60.1069
 30
-1.90200e-14
  70
    32
  0
VERTEX
  8
0
  5
29B7
 10
-85.3918
 20
60.1069
 30
-1.90263e-14
  70
    32
  0
VERTEX
  8
0
  5
29B8
 10
-85.4105
 20
60.1068
 30
-1.90324e-14
  70
    32
  0
VERTEX
  8
0
  5
29B9
 10
-85.4285
 20
60.1067
 30
-1.90383e-14
  70
    32
  0
VERTEX
  8
0
  5
29BA
 10
-85.4458
 20
60.1067
 30
-1.90441e-14
  70
    32
  0
VERTEX
  8
0
  5
29BB
 10
-85.4624
 20
60.1066
 30
-1.90497e-14
  70
    32
  0
VERTEX
  8
0
  5
29BC
 10
-85.4783
 20
60.1065
 30
-1.90552e-14
  70
    32
  0
VERTEX
  8
0
  5
29BD
 10
-85.4936
 20
60.1063
 30
-1.90605e-14
  70
    32
  0
VERTEX
  8
0
  5
29BE
 10
-85.5084
 20
60.1062
 30
-1.90657e-14
  70
    32
  0
VERTEX
  8
0
  5
29BF
 10
-85.5225
 20
60.1061
 30
-1.90707e-14
  70
    32
  0
VERTEX
  8
0
  5
29C0
 10
-85.5362
 20
60.1059
 30
-1.90756e-14
  70
    32
  0
VERTEX
  8
0
  5
29C1
 10
-85.5494
 20
60.1057
 30
-1.90804e-14
  70
    32
  0
VERTEX
  8
0
  5
29C2
 10
-85.5622
 20
60.1055
 30
-1.90850e-14
  70
    32
  0
VERTEX
  8
0
  5
29C3
 10
-85.5745
 20
60.1053
 30
-1.90894e-14
  70
    32
  0
VERTEX
  8
0
  5
29C4
 10
-85.5865
 20
60.1051
 30
-1.90938e-14
  70
    32
  0
VERTEX
  8
0
  5
29C5
 10
-85.5982
 20
60.1049
 30
-1.90980e-14
  70
    32
  0
VERTEX
  8
0
  5
29C6
 10
-85.6095
 20
60.1046
 30
-1.91020e-14
  70
    32
  0
VERTEX
  8
0
  5
29C7
 10
-85.6206
 20
60.1043
 30
-1.91060e-14
  70
    32
  0
VERTEX
  8
0
  5
29C8
 10
-85.6315
 20
60.1040
 30
-1.91098e-14
  70
    32
  0
VERTEX
  8
0
  5
29C9
 10
-85.6422
 20
60.1037
 30
-1.91134e-14
  70
    32
  0
VERTEX
  8
0
  5
29CA
 10
-85.6527
 20
60.1034
 30
-1.91170e-14
  70
    32
  0
VERTEX
  8
0
  5
29CB
 10
-85.6632
 20
60.1030
 30
-1.91204e-14
  70
    32
  0
VERTEX
  8
0
  5
29CC
 10
-85.6735
 20
60.1027
 30
-1.91237e-14
  70
    32
  0
VERTEX
  8
0
  5
29CD
 10
-85.6838
 20
60.1023
 30
-1.91268e-14
  70
    32
  0
VERTEX
  8
0
  5
29CE
 10
-85.6941
 20
60.1019
 30
-1.91299e-14
  70
    32
  0
VERTEX
  8
0
  5
29CF
 10
-85.7044
 20
60.1014
 30
-1.91328e-14
  70
    32
  0
VERTEX
  8
0
  5
29D0
 10
-85.7148
 20
60.1010
 30
-1.91356e-14
  70
    32
  0
VERTEX
  8
0
  5
29D1
 10
-85.7253
 20
60.1005
 30
-1.91383e-14
  70
    32
  0
VERTEX
  8
0
  5
29D2
 10
-85.7359
 20
60.1000
 30
-1.91408e-14
  70
    32
  0
VERTEX
  8
0
  5
29D3
 10
-85.7467
 20
60.0995
 30
-1.91433e-14
  70
    32
  0
VERTEX
  8
0
  5
29D4
 10
-85.7576
 20
60.0989
 30
-1.91456e-14
  70
    32
  0
VERTEX
  8
0
  5
29D5
 10
-85.7685
 20
60.0983
 30
-1.91480e-14
  70
    32
  0
VERTEX
  8
0
  5
29D6
 10
-85.7794
 20
60.0977
 30
-1.91504e-14
  70
    32
  0
VERTEX
  8
0
  5
29D7
 10
-85.7904
 20
60.0971
 30
-1.91527e-14
  70
    32
  0
VERTEX
  8
0
  5
29D8
 10
-85.8013
 20
60.0965
 30
-1.91551e-14
  70
    32
  0
VERTEX
  8
0
  5
29D9
 10
-85.8122
 20
60.0958
 30
-1.91574e-14
  70
    32
  0
VERTEX
  8
0
  5
29DA
 10
-85.8232
 20
60.0952
 30
-1.91598e-14
  70
    32
  0
VERTEX
  8
0
  5
29DB
 10
-85.8342
 20
60.0945
 30
-1.91621e-14
  70
    32
  0
VERTEX
  8
0
  5
29DC
 10
-85.8451
 20
60.0938
 30
-1.91644e-14
  70
    32
  0
VERTEX
  8
0
  5
29DD
 10
-85.8561
 20
60.0930
 30
-1.91667e-14
  70
    32
  0
VERTEX
  8
0
  5
29DE
 10
-85.8671
 20
60.0923
 30
-1.91690e-14
  70
    32
  0
VERTEX
  8
0
  5
29DF
 10
-85.8781
 20
60.0915
 30
-1.91713e-14
  70
    32
  0
VERTEX
  8
0
  5
29E0
 10
-85.8891
 20
60.0907
 30
-1.91736e-14
  70
    32
  0
VERTEX
  8
0
  5
29E1
 10
-85.9001
 20
60.0899
 30
-1.91759e-14
  70
    32
  0
VERTEX
  8
0
  5
29E2
 10
-85.9111
 20
60.0891
 30
-1.91781e-14
  70
    32
  0
VERTEX
  8
0
  5
29E3
 10
-85.9221
 20
60.0882
 30
-1.91804e-14
  70
    32
  0
VERTEX
  8
0
  5
29E4
 10
-85.9332
 20
60.0873
 30
-1.91827e-14
  70
    32
  0
VERTEX
  8
0
  5
29E5
 10
-85.9442
 20
60.0864
 30
-1.91849e-14
  70
    32
  0
VERTEX
  8
0
  5
29E6
 10
-85.9553
 20
60.0855
 30
-1.91871e-14
  70
    32
  0
VERTEX
  8
0
  5
29E7
 10
-85.9664
 20
60.0846
 30
-1.91894e-14
  70
    32
  0
VERTEX
  8
0
  5
29E8
 10
-85.9774
 20
60.0836
 30
-1.91916e-14
  70
    32
  0
VERTEX
  8
0
  5
29E9
 10
-85.9885
 20
60.0826
 30
-1.91939e-14
  70
    32
  0
VERTEX
  8
0
  5
29EA
 10
-85.9996
 20
60.0816
 30
-1.91961e-14
  70
    32
  0
VERTEX
  8
0
  5
29EB
 10
-86.0107
 20
60.0806
 30
-1.91983e-14
  70
    32
  0
VERTEX
  8
0
  5
29EC
 10
-86.0218
 20
60.0796
 30
-1.92005e-14
  70
    32
  0
VERTEX
  8
0
  5
29ED
 10
-86.0329
 20
60.0785
 30
-1.92027e-14
  70
    32
  0
VERTEX
  8
0
  5
29EE
 10
-86.0441
 20
60.0774
 30
-1.92049e-14
  70
    32
  0
VERTEX
  8
0
  5
29EF
 10
-86.0552
 20
60.0763
 30
-1.92071e-14
  70
    32
  0
VERTEX
  8
0
  5
29F0
 10
-86.0663
 20
60.0752
 30
-1.92093e-14
  70
    32
  0
VERTEX
  8
0
  5
29F1
 10
-86.0775
 20
60.0740
 30
-1.92115e-14
  70
    32
  0
VERTEX
  8
0
  5
29F2
 10
-86.0886
 20
60.0729
 30
-1.92137e-14
  70
    32
  0
VERTEX
  8
0
  5
29F3
 10
-86.0998
 20
60.0717
 30
-1.92158e-14
  70
    32
  0
VERTEX
  8
0
  5
29F4
 10
-86.1110
 20
60.0704
 30
-1.92180e-14
  70
    32
  0
VERTEX
  8
0
  5
29F5
 10
-86.1222
 20
60.0692
 30
-1.92202e-14
  70
    32
  0
VERTEX
  8
0
  5
29F6
 10
-86.1334
 20
60.0679
 30
-1.92223e-14
  70
    32
  0
VERTEX
  8
0
  5
29F7
 10
-86.1445
 20
60.0667
 30
-1.92245e-14
  70
    32
  0
VERTEX
  8
0
  5
29F8
 10
-86.1558
 20
60.0653
 30
-1.92267e-14
  70
    32
  0
VERTEX
  8
0
  5
29F9
 10
-86.1670
 20
60.0640
 30
-1.92288e-14
  70
    32
  0
VERTEX
  8
0
  5
29FA
 10
-86.1782
 20
60.0627
 30
-1.92310e-14
  70
    32
  0
VERTEX
  8
0
  5
29FB
 10
-86.1894
 20
60.0613
 30
-1.92331e-14
  70
    32
  0
VERTEX
  8
0
  5
29FC
 10
-86.2007
 20
60.0599
 30
-1.92353e-14
  70
    32
  0
VERTEX
  8
0
  5
29FD
 10
-86.2119
 20
60.0585
 30
-1.92374e-14
  70
    32
  0
VERTEX
  8
0
  5
29FE
 10
-86.2232
 20
60.0570
 30
-1.92395e-14
  70
    32
  0
VERTEX
  8
0
  5
29FF
 10
-86.2344
 20
60.0556
 30
-1.92417e-14
  70
    32
  0
VERTEX
  8
0
  5
2A00
 10
-86.2457
 20
60.0541
 30
-1.92438e-14
  70
    32
  0
VERTEX
  8
0
  5
2A01
 10
-86.2570
 20
60.0526
 30
-1.92459e-14
  70
    32
  0
VERTEX
  8
0
  5
2A02
 10
-86.2683
 20
60.0510
 30
-1.92481e-14
  70
    32
  0
VERTEX
  8
0
  5
2A03
 10
-86.2796
 20
60.0495
 30
-1.92502e-14
  70
    32
  0
VERTEX
  8
0
  5
2A04
 10
-86.2909
 20
60.0479
 30
-1.92523e-14
  70
    32
  0
VERTEX
  8
0
  5
2A05
 10
-86.3022
 20
60.0463
 30
-1.92544e-14
  70
    32
  0
VERTEX
  8
0
  5
2A06
 10
-86.3135
 20
60.0447
 30
-1.92565e-14
  70
    32
  0
VERTEX
  8
0
  5
2A07
 10
-86.3248
 20
60.0430
 30
-1.92587e-14
  70
    32
  0
VERTEX
  8
0
  5
2A08
 10
-86.3361
 20
60.0414
 30
-1.92608e-14
  70
    32
  0
VERTEX
  8
0
  5
2A09
 10
-86.3475
 20
60.0397
 30
-1.92629e-14
  70
    32
  0
VERTEX
  8
0
  5
2A0A
 10
-86.3588
 20
60.0380
 30
-1.92650e-14
  70
    32
  0
VERTEX
  8
0
  5
2A0B
 10
-86.3702
 20
60.0362
 30
-1.92671e-14
  70
    32
  0
VERTEX
  8
0
  5
2A0C
 10
-86.3815
 20
60.0345
 30
-1.92692e-14
  70
    32
  0
VERTEX
  8
0
  5
2A0D
 10
-86.3929
 20
60.0327
 30
-1.92713e-14
  70
    32
  0
VERTEX
  8
0
  5
2A0E
 10
-86.4043
 20
60.0309
 30
-1.92734e-14
  70
    32
  0
VERTEX
  8
0
  5
2A0F
 10
-86.4156
 20
60.0290
 30
-1.92755e-14
  70
    32
  0
VERTEX
  8
0
  5
2A10
 10
-86.4270
 20
60.0272
 30
-1.92777e-14
  70
    32
  0
VERTEX
  8
0
  5
2A11
 10
-86.4384
 20
60.0253
 30
-1.92798e-14
  70
    32
  0
VERTEX
  8
0
  5
2A12
 10
-86.4498
 20
60.0234
 30
-1.92819e-14
  70
    32
  0
VERTEX
  8
0
  5
2A13
 10
-86.4612
 20
60.0215
 30
-1.92840e-14
  70
    32
  0
VERTEX
  8
0
  5
2A14
 10
-86.4727
 20
60.0195
 30
-1.92861e-14
  70
    32
  0
VERTEX
  8
0
  5
2A15
 10
-86.4841
 20
60.0175
 30
-1.92882e-14
  70
    32
  0
VERTEX
  8
0
  5
2A16
 10
-86.4955
 20
60.0155
 30
-1.92903e-14
  70
    32
  0
VERTEX
  8
0
  5
2A17
 10
-86.5070
 20
60.0135
 30
-1.92924e-14
  70
    32
  0
VERTEX
  8
0
  5
2A18
 10
-86.5184
 20
60.0114
 30
-1.92945e-14
  70
    32
  0
VERTEX
  8
0
  5
2A19
 10
-86.5299
 20
60.0094
 30
-1.92966e-14
  70
    32
  0
VERTEX
  8
0
  5
2A1A
 10
-86.5413
 20
60.0073
 30
-1.92987e-14
  70
    32
  0
VERTEX
  8
0
  5
2A1B
 10
-86.5528
 20
60.0051
 30
-1.93008e-14
  70
    32
  0
VERTEX
  8
0
  5
2A1C
 10
-86.5642
 20
60.0030
 30
-1.93029e-14
  70
    32
  0
VERTEX
  8
0
  5
2A1D
 10
-86.5757
 20
60.0008
 30
-1.93051e-14
  70
    32
  0
VERTEX
  8
0
  5
2A1E
 10
-86.5872
 20
59.9986
 30
-1.93072e-14
  70
    32
  0
VERTEX
  8
0
  5
2A1F
 10
-86.5987
 20
59.9964
 30
-1.93093e-14
  70
    32
  0
VERTEX
  8
0
  5
2A20
 10
-86.6102
 20
59.9942
 30
-1.93114e-14
  70
    32
  0
VERTEX
  8
0
  5
2A21
 10
-86.6217
 20
59.9919
 30
-1.93135e-14
  70
    32
  0
VERTEX
  8
0
  5
2A22
 10
-86.6332
 20
59.9896
 30
-1.93157e-14
  70
    32
  0
VERTEX
  8
0
  5
2A23
 10
-86.6447
 20
59.9873
 30
-1.93178e-14
  70
    32
  0
VERTEX
  8
0
  5
2A24
 10
-86.6563
 20
59.9849
 30
-1.93199e-14
  70
    32
  0
VERTEX
  8
0
  5
2A25
 10
-86.6678
 20
59.9825
 30
-1.93220e-14
  70
    32
  0
VERTEX
  8
0
  5
2A26
 10
-86.6793
 20
59.9801
 30
-1.93242e-14
  70
    32
  0
VERTEX
  8
0
  5
2A27
 10
-86.6909
 20
59.9777
 30
-1.93263e-14
  70
    32
  0
VERTEX
  8
0
  5
2A28
 10
-86.7024
 20
59.9753
 30
-1.93284e-14
  70
    32
  0
VERTEX
  8
0
  5
2A29
 10
-86.7140
 20
59.9728
 30
-1.93306e-14
  70
    32
  0
VERTEX
  8
0
  5
2A2A
 10
-86.7256
 20
59.9703
 30
-1.93327e-14
  70
    32
  0
VERTEX
  8
0
  5
2A2B
 10
-86.7371
 20
59.9678
 30
-1.93349e-14
  70
    32
  0
VERTEX
  8
0
  5
2A2C
 10
-86.7487
 20
59.9652
 30
-1.93370e-14
  70
    32
  0
VERTEX
  8
0
  5
2A2D
 10
-86.7603
 20
59.9626
 30
-1.93392e-14
  70
    32
  0
VERTEX
  8
0
  5
2A2E
 10
-86.7719
 20
59.9600
 30
-1.93413e-14
  70
    32
  0
VERTEX
  8
0
  5
2A2F
 10
-86.7835
 20
59.9574
 30
-1.93435e-14
  70
    32
  0
VERTEX
  8
0
  5
2A30
 10
-86.7951
 20
59.9548
 30
-1.93456e-14
  70
    32
  0
VERTEX
  8
0
  5
2A31
 10
-86.8067
 20
59.9521
 30
-1.93478e-14
  70
    32
  0
VERTEX
  8
0
  5
2A32
 10
-86.8183
 20
59.9494
 30
-1.93500e-14
  70
    32
  0
VERTEX
  8
0
  5
2A33
 10
-86.8299
 20
59.9466
 30
-1.93522e-14
  70
    32
  0
VERTEX
  8
0
  5
2A34
 10
-86.8415
 20
59.9439
 30
-1.93543e-14
  70
    32
  0
VERTEX
  8
0
  5
2A35
 10
-86.8532
 20
59.9411
 30
-1.93565e-14
  70
    32
  0
VERTEX
  8
0
  5
2A36
 10
-86.8648
 20
59.9383
 30
-1.93587e-14
  70
    32
  0
VERTEX
  8
0
  5
2A37
 10
-86.8764
 20
59.9354
 30
-1.93609e-14
  70
    32
  0
VERTEX
  8
0
  5
2A38
 10
-86.8881
 20
59.9326
 30
-1.93631e-14
  70
    32
  0
VERTEX
  8
0
  5
2A39
 10
-86.8997
 20
59.9297
 30
-1.93653e-14
  70
    32
  0
VERTEX
  8
0
  5
2A3A
 10
-86.9114
 20
59.9268
 30
-1.93675e-14
  70
    32
  0
VERTEX
  8
0
  5
2A3B
 10
-86.9231
 20
59.9238
 30
-1.93698e-14
  70
    32
  0
VERTEX
  8
0
  5
2A3C
 10
-86.9347
 20
59.9209
 30
-1.93720e-14
  70
    32
  0
VERTEX
  8
0
  5
2A3D
 10
-86.9464
 20
59.9179
 30
-1.93742e-14
  70
    32
  0
VERTEX
  8
0
  5
2A3E
 10
-86.9581
 20
59.9148
 30
-1.93764e-14
  70
    32
  0
VERTEX
  8
0
  5
2A3F
 10
-86.9698
 20
59.9118
 30
-1.93787e-14
  70
    32
  0
VERTEX
  8
0
  5
2A40
 10
-86.9815
 20
59.9087
 30
-1.93809e-14
  70
    32
  0
VERTEX
  8
0
  5
2A41
 10
-86.9932
 20
59.9056
 30
-1.93832e-14
  70
    32
  0
VERTEX
  8
0
  5
2A42
 10
-87.0049
 20
59.9025
 30
-1.93854e-14
  70
    32
  0
VERTEX
  8
0
  5
2A43
 10
-87.0166
 20
59.8993
 30
-1.93877e-14
  70
    32
  0
VERTEX
  8
0
  5
2A44
 10
-87.0283
 20
59.8961
 30
-1.93900e-14
  70
    32
  0
VERTEX
  8
0
  5
2A45
 10
-87.0400
 20
59.8929
 30
-1.93923e-14
  70
    32
  0
VERTEX
  8
0
  5
2A46
 10
-87.0517
 20
59.8897
 30
-1.93945e-14
  70
    32
  0
VERTEX
  8
0
  5
2A47
 10
-87.0635
 20
59.8864
 30
-1.93968e-14
  70
    32
  0
VERTEX
  8
0
  5
2A48
 10
-87.0752
 20
59.8831
 30
-1.93991e-14
  70
    32
  0
VERTEX
  8
0
  5
2A49
 10
-87.0869
 20
59.8798
 30
-1.94014e-14
  70
    32
  0
VERTEX
  8
0
  5
2A4A
 10
-87.0987
 20
59.8764
 30
-1.94038e-14
  70
    32
  0
VERTEX
  8
0
  5
2A4B
 10
-87.1104
 20
59.8731
 30
-1.94061e-14
  70
    32
  0
VERTEX
  8
0
  5
2A4C
 10
-87.1222
 20
59.8697
 30
-1.94084e-14
  70
    32
  0
VERTEX
  8
0
  5
2A4D
 10
-87.1339
 20
59.8662
 30
-1.94107e-14
  70
    32
  0
VERTEX
  8
0
  5
2A4E
 10
-87.1457
 20
59.8628
 30
-1.94131e-14
  70
    32
  0
VERTEX
  8
0
  5
2A4F
 10
-87.1575
 20
59.8593
 30
-1.94154e-14
  70
    32
  0
VERTEX
  8
0
  5
2A50
 10
-87.1693
 20
59.8557
 30
-1.94178e-14
  70
    32
  0
VERTEX
  8
0
  5
2A51
 10
-87.1810
 20
59.8522
 30
-1.94202e-14
  70
    32
  0
VERTEX
  8
0
  5
2A52
 10
-87.1928
 20
59.8486
 30
-1.94226e-14
  70
    32
  0
VERTEX
  8
0
  5
2A53
 10
-87.2046
 20
59.8450
 30
-1.94249e-14
  70
    32
  0
VERTEX
  8
0
  5
2A54
 10
-87.2164
 20
59.8414
 30
-1.94273e-14
  70
    32
  0
VERTEX
  8
0
  5
2A55
 10
-87.2282
 20
59.8377
 30
-1.94298e-14
  70
    32
  0
VERTEX
  8
0
  5
2A56
 10
-87.2400
 20
59.8340
 30
-1.94322e-14
  70
    32
  0
VERTEX
  8
0
  5
2A57
 10
-87.2518
 20
59.8303
 30
-1.94346e-14
  70
    32
  0
VERTEX
  8
0
  5
2A58
 10
-87.2636
 20
59.8266
 30
-1.94370e-14
  70
    32
  0
VERTEX
  8
0
  5
2A59
 10
-87.2755
 20
59.8228
 30
-1.94395e-14
  70
    32
  0
VERTEX
  8
0
  5
2A5A
 10
-87.2873
 20
59.8190
 30
-1.94419e-14
  70
    32
  0
VERTEX
  8
0
  5
2A5B
 10
-87.2991
 20
59.8152
 30
-1.94444e-14
  70
    32
  0
VERTEX
  8
0
  5
2A5C
 10
-87.3109
 20
59.8113
 30
-1.94469e-14
  70
    32
  0
VERTEX
  8
0
  5
2A5D
 10
-87.3228
 20
59.8074
 30
-1.94493e-14
  70
    32
  0
VERTEX
  8
0
  5
2A5E
 10
-87.3346
 20
59.8035
 30
-1.94518e-14
  70
    32
  0
VERTEX
  8
0
  5
2A5F
 10
-87.3465
 20
59.7996
 30
-1.94543e-14
  70
    32
  0
VERTEX
  8
0
  5
2A60
 10
-87.3583
 20
59.7956
 30
-1.94569e-14
  70
    32
  0
VERTEX
  8
0
  5
2A61
 10
-87.3702
 20
59.7916
 30
-1.94594e-14
  70
    32
  0
VERTEX
  8
0
  5
2A62
 10
-87.3820
 20
59.7875
 30
-1.94619e-14
  70
    32
  0
VERTEX
  8
0
  5
2A63
 10
-87.3939
 20
59.7835
 30
-1.94645e-14
  70
    32
  0
VERTEX
  8
0
  5
2A64
 10
-87.4057
 20
59.7794
 30
-1.94670e-14
  70
    32
  0
VERTEX
  8
0
  5
2A65
 10
-87.4176
 20
59.7753
 30
-1.94696e-14
  70
    32
  0
VERTEX
  8
0
  5
2A66
 10
-87.4295
 20
59.7711
 30
-1.94722e-14
  70
    32
  0
VERTEX
  8
0
  5
2A67
 10
-87.4414
 20
59.7669
 30
-1.94748e-14
  70
    32
  0
VERTEX
  8
0
  5
2A68
 10
-87.4533
 20
59.7627
 30
-1.94774e-14
  70
    32
  0
VERTEX
  8
0
  5
2A69
 10
-87.4651
 20
59.7585
 30
-1.94800e-14
  70
    32
  0
VERTEX
  8
0
  5
2A6A
 10
-87.4770
 20
59.7542
 30
-1.94826e-14
  70
    32
  0
VERTEX
  8
0
  5
2A6B
 10
-87.4889
 20
59.7499
 30
-1.94853e-14
  70
    32
  0
VERTEX
  8
0
  5
2A6C
 10
-87.5008
 20
59.7456
 30
-1.94879e-14
  70
    32
  0
VERTEX
  8
0
  5
2A6D
 10
-87.5127
 20
59.7412
 30
-1.94906e-14
  70
    32
  0
VERTEX
  8
0
  5
2A6E
 10
-87.5246
 20
59.7368
 30
-1.94933e-14
  70
    32
  0
VERTEX
  8
0
  5
2A6F
 10
-87.5365
 20
59.7324
 30
-1.94959e-14
  70
    32
  0
VERTEX
  8
0
  5
2A70
 10
-87.5485
 20
59.7279
 30
-1.94986e-14
  70
    32
  0
VERTEX
  8
0
  5
2A71
 10
-87.5604
 20
59.7235
 30
-1.95014e-14
  70
    32
  0
VERTEX
  8
0
  5
2A72
 10
-87.5723
 20
59.7189
 30
-1.95041e-14
  70
    32
  0
VERTEX
  8
0
  5
2A73
 10
-87.5842
 20
59.7144
 30
-1.95068e-14
  70
    32
  0
VERTEX
  8
0
  5
2A74
 10
-87.5962
 20
59.7098
 30
-1.95096e-14
  70
    32
  0
VERTEX
  8
0
  5
2A75
 10
-87.6081
 20
59.7052
 30
-1.95124e-14
  70
    32
  0
VERTEX
  8
0
  5
2A76
 10
-87.6200
 20
59.7006
 30
-1.95151e-14
  70
    32
  0
VERTEX
  8
0
  5
2A77
 10
-87.6320
 20
59.6959
 30
-1.95179e-14
  70
    32
  0
VERTEX
  8
0
  5
2A78
 10
-87.6439
 20
59.6912
 30
-1.95207e-14
  70
    32
  0
VERTEX
  8
0
  5
2A79
 10
-87.6559
 20
59.6865
 30
-1.95236e-14
  70
    32
  0
VERTEX
  8
0
  5
2A7A
 10
-87.6678
 20
59.6817
 30
-1.95264e-14
  70
    32
  0
VERTEX
  8
0
  5
2A7B
 10
-87.6798
 20
59.6770
 30
-1.95293e-14
  70
    32
  0
VERTEX
  8
0
  5
2A7C
 10
-87.6917
 20
59.6721
 30
-1.95321e-14
  70
    32
  0
VERTEX
  8
0
  5
2A7D
 10
-87.7037
 20
59.6673
 30
-1.95350e-14
  70
    32
  0
VERTEX
  8
0
  5
2A7E
 10
-87.7156
 20
59.6624
 30
-1.95379e-14
  70
    32
  0
VERTEX
  8
0
  5
2A7F
 10
-87.7276
 20
59.6575
 30
-1.95408e-14
  70
    32
  0
VERTEX
  8
0
  5
2A80
 10
-87.7396
 20
59.6526
 30
-1.95437e-14
  70
    32
  0
VERTEX
  8
0
  5
2A81
 10
-87.7516
 20
59.6476
 30
-1.95467e-14
  70
    32
  0
VERTEX
  8
0
  5
2A82
 10
-87.7635
 20
59.6426
 30
-1.95496e-14
  70
    32
  0
VERTEX
  8
0
  5
2A83
 10
-87.7755
 20
59.6375
 30
-1.95526e-14
  70
    32
  0
VERTEX
  8
0
  5
2A84
 10
-87.7875
 20
59.6325
 30
-1.95556e-14
  70
    32
  0
VERTEX
  8
0
  5
2A85
 10
-87.7995
 20
59.6274
 30
-1.95586e-14
  70
    32
  0
VERTEX
  8
0
  5
2A86
 10
-87.8115
 20
59.6222
 30
-1.95616e-14
  70
    32
  0
VERTEX
  8
0
  5
2A87
 10
-87.8235
 20
59.6171
 30
-1.95646e-14
  70
    32
  0
VERTEX
  8
0
  5
2A88
 10
-87.8355
 20
59.6119
 30
-1.95677e-14
  70
    32
  0
VERTEX
  8
0
  5
2A89
 10
-87.8475
 20
59.6066
 30
-1.95708e-14
  70
    32
  0
VERTEX
  8
0
  5
2A8A
 10
-87.8595
 20
59.6014
 30
-1.95738e-14
  70
    32
  0
VERTEX
  8
0
  5
2A8B
 10
-87.8715
 20
59.5961
 30
-1.95769e-14
  70
    32
  0
VERTEX
  8
0
  5
2A8C
 10
-87.8835
 20
59.5908
 30
-1.95801e-14
  70
    32
  0
VERTEX
  8
0
  5
2A8D
 10
-87.8955
 20
59.5854
 30
-1.95832e-14
  70
    32
  0
VERTEX
  8
0
  5
2A8E
 10
-87.9075
 20
59.5800
 30
-1.95863e-14
  70
    32
  0
VERTEX
  8
0
  5
2A8F
 10
-87.9195
 20
59.5746
 30
-1.95895e-14
  70
    32
  0
VERTEX
  8
0
  5
2A90
 10
-87.9315
 20
59.5691
 30
-1.95927e-14
  70
    32
  0
VERTEX
  8
0
  5
2A91
 10
-87.9435
 20
59.5637
 30
-1.95959e-14
  70
    32
  0
VERTEX
  8
0
  5
2A92
 10
-87.9556
 20
59.5581
 30
-1.95991e-14
  70
    32
  0
VERTEX
  8
0
  5
2A93
 10
-87.9676
 20
59.5526
 30
-1.96023e-14
  70
    32
  0
VERTEX
  8
0
  5
2A94
 10
-87.9796
 20
59.5470
 30
-1.96056e-14
  70
    32
  0
VERTEX
  8
0
  5
2A95
 10
-87.9916
 20
59.5414
 30
-1.96089e-14
  70
    32
  0
VERTEX
  8
0
  5
2A96
 10
-88.0037
 20
59.5357
 30
-1.96121e-14
  70
    32
  0
VERTEX
  8
0
  5
2A97
 10
-88.0157
 20
59.5301
 30
-1.96155e-14
  70
    32
  0
VERTEX
  8
0
  5
2A98
 10
-88.0278
 20
59.5243
 30
-1.96188e-14
  70
    32
  0
VERTEX
  8
0
  5
2A99
 10
-88.0398
 20
59.5186
 30
-1.96221e-14
  70
    32
  0
VERTEX
  8
0
  5
2A9A
 10
-88.0518
 20
59.5128
 30
-1.96254e-14
  70
    32
  0
VERTEX
  8
0
  5
2A9B
 10
-88.0639
 20
59.5070
 30
-1.96287e-14
  70
    32
  0
VERTEX
  8
0
  5
2A9C
 10
-88.0759
 20
59.5012
 30
-1.96320e-14
  70
    32
  0
VERTEX
  8
0
  5
2A9D
 10
-88.0880
 20
59.4953
 30
-1.96353e-14
  70
    32
  0
VERTEX
  8
0
  5
2A9E
 10
-88.1000
 20
59.4894
 30
-1.96385e-14
  70
    32
  0
VERTEX
  8
0
  5
2A9F
 10
-88.1121
 20
59.4834
 30
-1.96417e-14
  70
    32
  0
VERTEX
  8
0
  5
2AA0
 10
-88.1241
 20
59.4774
 30
-1.96449e-14
  70
    32
  0
VERTEX
  8
0
  5
2AA1
 10
-88.1361
 20
59.4714
 30
-1.96481e-14
  70
    32
  0
VERTEX
  8
0
  5
2AA2
 10
-88.1482
 20
59.4654
 30
-1.96513e-14
  70
    32
  0
VERTEX
  8
0
  5
2AA3
 10
-88.1602
 20
59.4593
 30
-1.96545e-14
  70
    32
  0
VERTEX
  8
0
  5
2AA4
 10
-88.1723
 20
59.4532
 30
-1.96576e-14
  70
    32
  0
VERTEX
  8
0
  5
2AA5
 10
-88.1843
 20
59.4470
 30
-1.96607e-14
  70
    32
  0
VERTEX
  8
0
  5
2AA6
 10
-88.1964
 20
59.4409
 30
-1.96638e-14
  70
    32
  0
VERTEX
  8
0
  5
2AA7
 10
-88.2084
 20
59.4347
 30
-1.96669e-14
  70
    32
  0
VERTEX
  8
0
  5
2AA8
 10
-88.2205
 20
59.4284
 30
-1.96700e-14
  70
    32
  0
VERTEX
  8
0
  5
2AA9
 10
-88.2325
 20
59.4221
 30
-1.96730e-14
  70
    32
  0
VERTEX
  8
0
  5
2AAA
 10
-88.2446
 20
59.4158
 30
-1.96761e-14
  70
    32
  0
VERTEX
  8
0
  5
2AAB
 10
-88.2566
 20
59.4095
 30
-1.96791e-14
  70
    32
  0
VERTEX
  8
0
  5
2AAC
 10
-88.2687
 20
59.4031
 30
-1.96821e-14
  70
    32
  0
VERTEX
  8
0
  5
2AAD
 10
-88.2807
 20
59.3967
 30
-1.96851e-14
  70
    32
  0
VERTEX
  8
0
  5
2AAE
 10
-88.2928
 20
59.3902
 30
-1.96881e-14
  70
    32
  0
VERTEX
  8
0
  5
2AAF
 10
-88.3048
 20
59.3837
 30
-1.96910e-14
  70
    32
  0
VERTEX
  8
0
  5
2AB0
 10
-88.3169
 20
59.3772
 30
-1.96940e-14
  70
    32
  0
VERTEX
  8
0
  5
2AB1
 10
-88.3289
 20
59.3707
 30
-1.96969e-14
  70
    32
  0
VERTEX
  8
0
  5
2AB2
 10
-88.3409
 20
59.3641
 30
-1.96998e-14
  70
    32
  0
VERTEX
  8
0
  5
2AB3
 10
-88.3530
 20
59.3574
 30
-1.97027e-14
  70
    32
  0
VERTEX
  8
0
  5
2AB4
 10
-88.3650
 20
59.3508
 30
-1.97056e-14
  70
    32
  0
VERTEX
  8
0
  5
2AB5
 10
-88.3770
 20
59.3441
 30
-1.97085e-14
  70
    32
  0
VERTEX
  8
0
  5
2AB6
 10
-88.3891
 20
59.3374
 30
-1.97113e-14
  70
    32
  0
VERTEX
  8
0
  5
2AB7
 10
-88.4011
 20
59.3306
 30
-1.97142e-14
  70
    32
  0
VERTEX
  8
0
  5
2AB8
 10
-88.4131
 20
59.3238
 30
-1.97170e-14
  70
    32
  0
VERTEX
  8
0
  5
2AB9
 10
-88.4252
 20
59.3170
 30
-1.97198e-14
  70
    32
  0
VERTEX
  8
0
  5
2ABA
 10
-88.4372
 20
59.3101
 30
-1.97226e-14
  70
    32
  0
VERTEX
  8
0
  5
2ABB
 10
-88.4492
 20
59.3032
 30
-1.97254e-14
  70
    32
  0
VERTEX
  8
0
  5
2ABC
 10
-88.4612
 20
59.2962
 30
-1.97282e-14
  70
    32
  0
VERTEX
  8
0
  5
2ABD
 10
-88.4733
 20
59.2893
 30
-1.97309e-14
  70
    32
  0
VERTEX
  8
0
  5
2ABE
 10
-88.4853
 20
59.2823
 30
-1.97337e-14
  70
    32
  0
VERTEX
  8
0
  5
2ABF
 10
-88.4973
 20
59.2752
 30
-1.97364e-14
  70
    32
  0
VERTEX
  8
0
  5
2AC0
 10
-88.5093
 20
59.2681
 30
-1.97391e-14
  70
    32
  0
VERTEX
  8
0
  5
2AC1
 10
-88.5213
 20
59.2610
 30
-1.97418e-14
  70
    32
  0
VERTEX
  8
0
  5
2AC2
 10
-88.5333
 20
59.2538
 30
-1.97445e-14
  70
    32
  0
VERTEX
  8
0
  5
2AC3
 10
-88.5453
 20
59.2466
 30
-1.97472e-14
  70
    32
  0
VERTEX
  8
0
  5
2AC4
 10
-88.5573
 20
59.2394
 30
-1.97499e-14
  70
    32
  0
VERTEX
  8
0
  5
2AC5
 10
-88.5693
 20
59.2322
 30
-1.97525e-14
  70
    32
  0
VERTEX
  8
0
  5
2AC6
 10
-88.5813
 20
59.2248
 30
-1.97552e-14
  70
    32
  0
VERTEX
  8
0
  5
2AC7
 10
-88.5933
 20
59.2175
 30
-1.97578e-14
  70
    32
  0
VERTEX
  8
0
  5
2AC8
 10
-88.6053
 20
59.2101
 30
-1.97604e-14
  70
    32
  0
VERTEX
  8
0
  5
2AC9
 10
-88.6173
 20
59.2027
 30
-1.97630e-14
  70
    32
  0
VERTEX
  8
0
  5
2ACA
 10
-88.6292
 20
59.1953
 30
-1.97656e-14
  70
    32
  0
VERTEX
  8
0
  5
2ACB
 10
-88.6412
 20
59.1878
 30
-1.97682e-14
  70
    32
  0
VERTEX
  8
0
  5
2ACC
 10
-88.6532
 20
59.1803
 30
-1.97707e-14
  70
    32
  0
VERTEX
  8
0
  5
2ACD
 10
-88.6651
 20
59.1727
 30
-1.97733e-14
  70
    32
  0
VERTEX
  8
0
  5
2ACE
 10
-88.6771
 20
59.1651
 30
-1.97758e-14
  70
    32
  0
VERTEX
  8
0
  5
2ACF
 10
-88.6891
 20
59.1575
 30
-1.97784e-14
  70
    32
  0
VERTEX
  8
0
  5
2AD0
 10
-88.7010
 20
59.1498
 30
-1.97809e-14
  70
    32
  0
VERTEX
  8
0
  5
2AD1
 10
-88.7130
 20
59.1421
 30
-1.97834e-14
  70
    32
  0
VERTEX
  8
0
  5
2AD2
 10
-88.7249
 20
59.1343
 30
-1.97859e-14
  70
    32
  0
VERTEX
  8
0
  5
2AD3
 10
-88.7369
 20
59.1266
 30
-1.97884e-14
  70
    32
  0
VERTEX
  8
0
  5
2AD4
 10
-88.7488
 20
59.1187
 30
-1.97909e-14
  70
    32
  0
VERTEX
  8
0
  5
2AD5
 10
-88.7607
 20
59.1109
 30
-1.97933e-14
  70
    32
  0
VERTEX
  8
0
  5
2AD6
 10
-88.7726
 20
59.1030
 30
-1.97958e-14
  70
    32
  0
VERTEX
  8
0
  5
2AD7
 10
-88.7846
 20
59.0950
 30
-1.97982e-14
  70
    32
  0
VERTEX
  8
0
  5
2AD8
 10
-88.7965
 20
59.0871
 30
-1.98007e-14
  70
    32
  0
VERTEX
  8
0
  5
2AD9
 10
-88.8084
 20
59.0791
 30
-1.98031e-14
  70
    32
  0
VERTEX
  8
0
  5
2ADA
 10
-88.8203
 20
59.0710
 30
-1.98055e-14
  70
    32
  0
VERTEX
  8
0
  5
2ADB
 10
-88.8322
 20
59.0629
 30
-1.98079e-14
  70
    32
  0
VERTEX
  8
0
  5
2ADC
 10
-88.8441
 20
59.0548
 30
-1.98103e-14
  70
    32
  0
VERTEX
  8
0
  5
2ADD
 10
-88.8560
 20
59.0466
 30
-1.98127e-14
  70
    32
  0
VERTEX
  8
0
  5
2ADE
 10
-88.8678
 20
59.0384
 30
-1.98151e-14
  70
    32
  0
VERTEX
  8
0
  5
2ADF
 10
-88.8797
 20
59.0302
 30
-1.98175e-14
  70
    32
  0
VERTEX
  8
0
  5
2AE0
 10
-88.8916
 20
59.0219
 30
-1.98198e-14
  70
    32
  0
VERTEX
  8
0
  5
2AE1
 10
-88.9034
 20
59.0136
 30
-1.98222e-14
  70
    32
  0
VERTEX
  8
0
  5
2AE2
 10
-88.9153
 20
59.0052
 30
-1.98245e-14
  70
    32
  0
VERTEX
  8
0
  5
2AE3
 10
-88.9271
 20
58.9968
 30
-1.98268e-14
  70
    32
  0
VERTEX
  8
0
  5
2AE4
 10
-88.9390
 20
58.9884
 30
-1.98292e-14
  70
    32
  0
VERTEX
  8
0
  5
2AE5
 10
-88.9508
 20
58.9799
 30
-1.98315e-14
  70
    32
  0
VERTEX
  8
0
  5
2AE6
 10
-88.9626
 20
58.9714
 30
-1.98338e-14
  70
    32
  0
VERTEX
  8
0
  5
2AE7
 10
-88.9745
 20
58.9628
 30
-1.98361e-14
  70
    32
  0
VERTEX
  8
0
  5
2AE8
 10
-88.9863
 20
58.9542
 30
-1.98384e-14
  70
    32
  0
VERTEX
  8
0
  5
2AE9
 10
-88.9981
 20
58.9456
 30
-1.98407e-14
  70
    32
  0
VERTEX
  8
0
  5
2AEA
 10
-89.0099
 20
58.9369
 30
-1.98429e-14
  70
    32
  0
VERTEX
  8
0
  5
2AEB
 10
-89.0217
 20
58.9282
 30
-1.98452e-14
  70
    32
  0
VERTEX
  8
0
  5
2AEC
 10
-89.0334
 20
58.9195
 30
-1.98475e-14
  70
    32
  0
VERTEX
  8
0
  5
2AED
 10
-89.0452
 20
58.9107
 30
-1.98497e-14
  70
    32
  0
VERTEX
  8
0
  5
2AEE
 10
-89.0570
 20
58.9018
 30
-1.98520e-14
  70
    32
  0
VERTEX
  8
0
  5
2AEF
 10
-89.0688
 20
58.8930
 30
-1.98542e-14
  70
    32
  0
VERTEX
  8
0
  5
2AF0
 10
-89.0805
 20
58.8840
 30
-1.98564e-14
  70
    32
  0
VERTEX
  8
0
  5
2AF1
 10
-89.0923
 20
58.8751
 30
-1.98587e-14
  70
    32
  0
VERTEX
  8
0
  5
2AF2
 10
-89.1040
 20
58.8661
 30
-1.98609e-14
  70
    32
  0
VERTEX
  8
0
  5
2AF3
 10
-89.1157
 20
58.8571
 30
-1.98631e-14
  70
    32
  0
VERTEX
  8
0
  5
2AF4
 10
-89.1274
 20
58.8480
 30
-1.98653e-14
  70
    32
  0
VERTEX
  8
0
  5
2AF5
 10
-89.1392
 20
58.8389
 30
-1.98675e-14
  70
    32
  0
VERTEX
  8
0
  5
2AF6
 10
-89.1509
 20
58.8297
 30
-1.98697e-14
  70
    32
  0
VERTEX
  8
0
  5
2AF7
 10
-89.1626
 20
58.8205
 30
-1.98719e-14
  70
    32
  0
VERTEX
  8
0
  5
2AF8
 10
-89.1742
 20
58.8113
 30
-1.98740e-14
  70
    32
  0
VERTEX
  8
0
  5
2AF9
 10
-89.1859
 20
58.8020
 30
-1.98762e-14
  70
    32
  0
VERTEX
  8
0
  5
2AFA
 10
-89.1976
 20
58.7927
 30
-1.98784e-14
  70
    32
  0
VERTEX
  8
0
  5
2AFB
 10
-89.2092
 20
58.7833
 30
-1.98805e-14
  70
    32
  0
VERTEX
  8
0
  5
2AFC
 10
-89.2209
 20
58.7739
 30
-1.98827e-14
  70
    32
  0
VERTEX
  8
0
  5
2AFD
 10
-89.2325
 20
58.7645
 30
-1.98849e-14
  70
    32
  0
VERTEX
  8
0
  5
2AFE
 10
-89.2442
 20
58.7550
 30
-1.98870e-14
  70
    32
  0
VERTEX
  8
0
  5
2AFF
 10
-89.2558
 20
58.7455
 30
-1.98891e-14
  70
    32
  0
VERTEX
  8
0
  5
2B00
 10
-89.2674
 20
58.7359
 30
-1.98913e-14
  70
    32
  0
VERTEX
  8
0
  5
2B01
 10
-89.2790
 20
58.7263
 30
-1.98934e-14
  70
    32
  0
VERTEX
  8
0
  5
2B02
 10
-89.2906
 20
58.7166
 30
-1.98955e-14
  70
    32
  0
VERTEX
  8
0
  5
2B03
 10
-89.3022
 20
58.7069
 30
-1.98976e-14
  70
    32
  0
VERTEX
  8
0
  5
2B04
 10
-89.3138
 20
58.6972
 30
-1.98998e-14
  70
    32
  0
VERTEX
  8
0
  5
2B05
 10
-89.3253
 20
58.6874
 30
-1.99019e-14
  70
    32
  0
VERTEX
  8
0
  5
2B06
 10
-89.3369
 20
58.6776
 30
-1.99040e-14
  70
    32
  0
VERTEX
  8
0
  5
2B07
 10
-89.3484
 20
58.6678
 30
-1.99061e-14
  70
    32
  0
VERTEX
  8
0
  5
2B08
 10
-89.3600
 20
58.6579
 30
-1.99082e-14
  70
    32
  0
VERTEX
  8
0
  5
2B09
 10
-89.3715
 20
58.6479
 30
-1.99103e-14
  70
    32
  0
VERTEX
  8
0
  5
2B0A
 10
-89.3830
 20
58.6379
 30
-1.99124e-14
  70
    32
  0
VERTEX
  8
0
  5
2B0B
 10
-89.3945
 20
58.6279
 30
-1.99145e-14
  70
    32
  0
VERTEX
  8
0
  5
2B0C
 10
-89.4060
 20
58.6178
 30
-1.99165e-14
  70
    32
  0
VERTEX
  8
0
  5
2B0D
 10
-89.4175
 20
58.6077
 30
-1.99186e-14
  70
    32
  0
VERTEX
  8
0
  5
2B0E
 10
-89.4289
 20
58.5975
 30
-1.99207e-14
  70
    32
  0
VERTEX
  8
0
  5
2B0F
 10
-89.4404
 20
58.5873
 30
-1.99228e-14
  70
    32
  0
VERTEX
  8
0
  5
2B10
 10
-89.4518
 20
58.5771
 30
-1.99249e-14
  70
    32
  0
VERTEX
  8
0
  5
2B11
 10
-89.4633
 20
58.5668
 30
-1.99269e-14
  70
    32
  0
VERTEX
  8
0
  5
2B12
 10
-89.4747
 20
58.5565
 30
-1.99290e-14
  70
    32
  0
VERTEX
  8
0
  5
2B13
 10
-89.4861
 20
58.5461
 30
-1.99311e-14
  70
    32
  0
VERTEX
  8
0
  5
2B14
 10
-89.4975
 20
58.5357
 30
-1.99331e-14
  70
    32
  0
VERTEX
  8
0
  5
2B15
 10
-89.5089
 20
58.5252
 30
-1.99352e-14
  70
    32
  0
VERTEX
  8
0
  5
2B16
 10
-89.5203
 20
58.5147
 30
-1.99372e-14
  70
    32
  0
VERTEX
  8
0
  5
2B17
 10
-89.5316
 20
58.5042
 30
-1.99393e-14
  70
    32
  0
VERTEX
  8
0
  5
2B18
 10
-89.5430
 20
58.4936
 30
-1.99413e-14
  70
    32
  0
VERTEX
  8
0
  5
2B19
 10
-89.5543
 20
58.4830
 30
-1.99434e-14
  70
    32
  0
VERTEX
  8
0
  5
2B1A
 10
-89.5656
 20
58.4723
 30
-1.99455e-14
  70
    32
  0
VERTEX
  8
0
  5
2B1B
 10
-89.5769
 20
58.4616
 30
-1.99475e-14
  70
    32
  0
VERTEX
  8
0
  5
2B1C
 10
-89.5882
 20
58.4508
 30
-1.99495e-14
  70
    32
  0
VERTEX
  8
0
  5
2B1D
 10
-89.5995
 20
58.4400
 30
-1.99516e-14
  70
    32
  0
VERTEX
  8
0
  5
2B1E
 10
-89.6108
 20
58.4291
 30
-1.99536e-14
  70
    32
  0
VERTEX
  8
0
  5
2B1F
 10
-89.6221
 20
58.4182
 30
-1.99557e-14
  70
    32
  0
VERTEX
  8
0
  5
2B20
 10
-89.6333
 20
58.4073
 30
-1.99577e-14
  70
    32
  0
VERTEX
  8
0
  5
2B21
 10
-89.6446
 20
58.3963
 30
-1.99598e-14
  70
    32
  0
VERTEX
  8
0
  5
2B22
 10
-89.6558
 20
58.3853
 30
-1.99618e-14
  70
    32
  0
VERTEX
  8
0
  5
2B23
 10
-89.6670
 20
58.3742
 30
-1.99639e-14
  70
    32
  0
VERTEX
  8
0
  5
2B24
 10
-89.6782
 20
58.3631
 30
-1.99659e-14
  70
    32
  0
VERTEX
  8
0
  5
2B25
 10
-89.6894
 20
58.3519
 30
-1.99679e-14
  70
    32
  0
VERTEX
  8
0
  5
2B26
 10
-89.7005
 20
58.3407
 30
-1.99700e-14
  70
    32
  0
VERTEX
  8
0
  5
2B27
 10
-89.7117
 20
58.3294
 30
-1.99720e-14
  70
    32
  0
VERTEX
  8
0
  5
2B28
 10
-89.7228
 20
58.3181
 30
-1.99741e-14
  70
    32
  0
VERTEX
  8
0
  5
2B29
 10
-89.7340
 20
58.3068
 30
-1.99761e-14
  70
    32
  0
VERTEX
  8
0
  5
2B2A
 10
-89.7451
 20
58.2954
 30
-1.99781e-14
  70
    32
  0
VERTEX
  8
0
  5
2B2B
 10
-89.7562
 20
58.2840
 30
-1.99802e-14
  70
    32
  0
VERTEX
  8
0
  5
2B2C
 10
-89.7673
 20
58.2725
 30
-1.99822e-14
  70
    32
  0
VERTEX
  8
0
  5
2B2D
 10
-89.7783
 20
58.2609
 30
-1.99843e-14
  70
    32
  0
VERTEX
  8
0
  5
2B2E
 10
-89.7894
 20
58.2494
 30
-1.99863e-14
  70
    32
  0
VERTEX
  8
0
  5
2B2F
 10
-89.8004
 20
58.2377
 30
-1.99884e-14
  70
    32
  0
VERTEX
  8
0
  5
2B30
 10
-89.8115
 20
58.2261
 30
-1.99904e-14
  70
    32
  0
VERTEX
  8
0
  5
2B31
 10
-89.8225
 20
58.2144
 30
-1.99925e-14
  70
    32
  0
VERTEX
  8
0
  5
2B32
 10
-89.8335
 20
58.2026
 30
-1.99945e-14
  70
    32
  0
VERTEX
  8
0
  5
2B33
 10
-89.8445
 20
58.1908
 30
-1.99966e-14
  70
    32
  0
VERTEX
  8
0
  5
2B34
 10
-89.8554
 20
58.1790
 30
-1.99986e-14
  70
    32
  0
VERTEX
  8
0
  5
2B35
 10
-89.8664
 20
58.1671
 30
-2.00007e-14
  70
    32
  0
VERTEX
  8
0
  5
2B36
 10
-89.8773
 20
58.1551
 30
-2.00027e-14
  70
    32
  0
VERTEX
  8
0
  5
2B37
 10
-89.8882
 20
58.1431
 30
-2.00048e-14
  70
    32
  0
VERTEX
  8
0
  5
2B38
 10
-89.8991
 20
58.1311
 30
-2.00069e-14
  70
    32
  0
VERTEX
  8
0
  5
2B39
 10
-89.9100
 20
58.1190
 30
-2.00089e-14
  70
    32
  0
VERTEX
  8
0
  5
2B3A
 10
-89.9209
 20
58.1069
 30
-2.00110e-14
  70
    32
  0
VERTEX
  8
0
  5
2B3B
 10
-89.9318
 20
58.0947
 30
-2.00131e-14
  70
    32
  0
VERTEX
  8
0
  5
2B3C
 10
-89.9426
 20
58.0825
 30
-2.00151e-14
  70
    32
  0
VERTEX
  8
0
  5
2B3D
 10
-89.9534
 20
58.0702
 30
-2.00172e-14
  70
    32
  0
VERTEX
  8
0
  5
2B3E
 10
-89.9642
 20
58.0579
 30
-2.00193e-14
  70
    32
  0
VERTEX
  8
0
  5
2B3F
 10
-89.9750
 20
58.0456
 30
-2.00214e-14
  70
    32
  0
VERTEX
  8
0
  5
2B40
 10
-89.9858
 20
58.0332
 30
-2.00235e-14
  70
    32
  0
VERTEX
  8
0
  5
2B41
 10
-89.9966
 20
58.0207
 30
-2.00256e-14
  70
    32
  0
VERTEX
  8
0
  5
2B42
 10
-90.0073
 20
58.0082
 30
-2.00277e-14
  70
    32
  0
VERTEX
  8
0
  5
2B43
 10
-90.0180
 20
57.9957
 30
-2.00298e-14
  70
    32
  0
VERTEX
  8
0
  5
2B44
 10
-90.0287
 20
57.9831
 30
-2.00319e-14
  70
    32
  0
VERTEX
  8
0
  5
2B45
 10
-90.0394
 20
57.9704
 30
-2.00340e-14
  70
    32
  0
VERTEX
  8
0
  5
2B46
 10
-90.0501
 20
57.9577
 30
-2.00361e-14
  70
    32
  0
VERTEX
  8
0
  5
2B47
 10
-90.0607
 20
57.9450
 30
-2.00382e-14
  70
    32
  0
VERTEX
  8
0
  5
2B48
 10
-90.0713
 20
57.9322
 30
-2.00404e-14
  70
    32
  0
VERTEX
  8
0
  5
2B49
 10
-90.0820
 20
57.9194
 30
-2.00425e-14
  70
    32
  0
VERTEX
  8
0
  5
2B4A
 10
-90.0925
 20
57.9065
 30
-2.00446e-14
  70
    32
  0
VERTEX
  8
0
  5
2B4B
 10
-90.1031
 20
57.8936
 30
-2.00468e-14
  70
    32
  0
VERTEX
  8
0
  5
2B4C
 10
-90.1137
 20
57.8806
 30
-2.00489e-14
  70
    32
  0
VERTEX
  8
0
  5
2B4D
 10
-90.1242
 20
57.8676
 30
-2.00511e-14
  70
    32
  0
VERTEX
  8
0
  5
2B4E
 10
-90.1347
 20
57.8545
 30
-2.00532e-14
  70
    32
  0
VERTEX
  8
0
  5
2B4F
 10
-90.1452
 20
57.8414
 30
-2.00554e-14
  70
    32
  0
VERTEX
  8
0
  5
2B50
 10
-90.1556
 20
57.8282
 30
-2.00575e-14
  70
    32
  0
VERTEX
  8
0
  5
2B51
 10
-90.1661
 20
57.8150
 30
-2.00597e-14
  70
    32
  0
VERTEX
  8
0
  5
2B52
 10
-90.1765
 20
57.8018
 30
-2.00619e-14
  70
    32
  0
VERTEX
  8
0
  5
2B53
 10
-90.1869
 20
57.7884
 30
-2.00641e-14
  70
    32
  0
VERTEX
  8
0
  5
2B54
 10
-90.1973
 20
57.7751
 30
-2.00662e-14
  70
    32
  0
VERTEX
  8
0
  5
2B55
 10
-90.2076
 20
57.7617
 30
-2.00684e-14
  70
    32
  0
VERTEX
  8
0
  5
2B56
 10
-90.2179
 20
57.7482
 30
-2.00706e-14
  70
    32
  0
VERTEX
  8
0
  5
2B57
 10
-90.2282
 20
57.7347
 30
-2.00728e-14
  70
    32
  0
VERTEX
  8
0
  5
2B58
 10
-90.2385
 20
57.7212
 30
-2.00750e-14
  70
    32
  0
VERTEX
  8
0
  5
2B59
 10
-90.2488
 20
57.7076
 30
-2.00772e-14
  70
    32
  0
VERTEX
  8
0
  5
2B5A
 10
-90.2590
 20
57.6939
 30
-2.00794e-14
  70
    32
  0
VERTEX
  8
0
  5
2B5B
 10
-90.2692
 20
57.6802
 30
-2.00816e-14
  70
    32
  0
VERTEX
  8
0
  5
2B5C
 10
-90.2794
 20
57.6665
 30
-2.00838e-14
  70
    32
  0
VERTEX
  8
0
  5
2B5D
 10
-90.2896
 20
57.6527
 30
-2.00861e-14
  70
    32
  0
VERTEX
  8
0
  5
2B5E
 10
-90.2997
 20
57.6388
 30
-2.00883e-14
  70
    32
  0
VERTEX
  8
0
  5
2B5F
 10
-90.3098
 20
57.6249
 30
-2.00905e-14
  70
    32
  0
VERTEX
  8
0
  5
2B60
 10
-90.3199
 20
57.6110
 30
-2.00927e-14
  70
    32
  0
VERTEX
  8
0
  5
2B61
 10
-90.3300
 20
57.5970
 30
-2.00950e-14
  70
    32
  0
VERTEX
  8
0
  5
2B62
 10
-90.3400
 20
57.5829
 30
-2.00972e-14
  70
    32
  0
VERTEX
  8
0
  5
2B63
 10
-90.3500
 20
57.5688
 30
-2.00995e-14
  70
    32
  0
VERTEX
  8
0
  5
2B64
 10
-90.3600
 20
57.5547
 30
-2.01017e-14
  70
    32
  0
VERTEX
  8
0
  5
2B65
 10
-90.3699
 20
57.5405
 30
-2.01040e-14
  70
    32
  0
VERTEX
  8
0
  5
2B66
 10
-90.3799
 20
57.5262
 30
-2.01062e-14
  70
    32
  0
VERTEX
  8
0
  5
2B67
 10
-90.3898
 20
57.5119
 30
-2.01085e-14
  70
    32
  0
VERTEX
  8
0
  5
2B68
 10
-90.3996
 20
57.4976
 30
-2.01108e-14
  70
    32
  0
VERTEX
  8
0
  5
2B69
 10
-90.4095
 20
57.4832
 30
-2.01130e-14
  70
    32
  0
VERTEX
  8
0
  5
2B6A
 10
-90.4193
 20
57.4688
 30
-2.01153e-14
  70
    32
  0
VERTEX
  8
0
  5
2B6B
 10
-90.4291
 20
57.4543
 30
-2.01176e-14
  70
    32
  0
VERTEX
  8
0
  5
2B6C
 10
-90.4389
 20
57.4397
 30
-2.01199e-14
  70
    32
  0
VERTEX
  8
0
  5
2B6D
 10
-90.4486
 20
57.4251
 30
-2.01222e-14
  70
    32
  0
VERTEX
  8
0
  5
2B6E
 10
-90.4583
 20
57.4105
 30
-2.01245e-14
  70
    32
  0
VERTEX
  8
0
  5
2B6F
 10
-90.4680
 20
57.3958
 30
-2.01268e-14
  70
    32
  0
VERTEX
  8
0
  5
2B70
 10
-90.4776
 20
57.3810
 30
-2.01291e-14
  70
    32
  0
VERTEX
  8
0
  5
2B71
 10
-90.4872
 20
57.3662
 30
-2.01314e-14
  70
    32
  0
VERTEX
  8
0
  5
2B72
 10
-90.4968
 20
57.3514
 30
-2.01337e-14
  70
    32
  0
VERTEX
  8
0
  5
2B73
 10
-90.5064
 20
57.3365
 30
-2.01360e-14
  70
    32
  0
VERTEX
  8
0
  5
2B74
 10
-90.5159
 20
57.3215
 30
-2.01383e-14
  70
    32
  0
VERTEX
  8
0
  5
2B75
 10
-90.5254
 20
57.3065
 30
-2.01406e-14
  70
    32
  0
VERTEX
  8
0
  5
2B76
 10
-90.5349
 20
57.2915
 30
-2.01430e-14
  70
    32
  0
VERTEX
  8
0
  5
2B77
 10
-90.5443
 20
57.2764
 30
-2.01453e-14
  70
    32
  0
VERTEX
  8
0
  5
2B78
 10
-90.5537
 20
57.2612
 30
-2.01476e-14
  70
    32
  0
VERTEX
  8
0
  5
2B79
 10
-90.5631
 20
57.2460
 30
-2.01500e-14
  70
    32
  0
VERTEX
  8
0
  5
2B7A
 10
-90.5724
 20
57.2307
 30
-2.01523e-14
  70
    32
  0
VERTEX
  8
0
  5
2B7B
 10
-90.5817
 20
57.2154
 30
-2.01547e-14
  70
    32
  0
VERTEX
  8
0
  5
2B7C
 10
-90.5910
 20
57.2000
 30
-2.01570e-14
  70
    32
  0
VERTEX
  8
0
  5
2B7D
 10
-90.6003
 20
57.1846
 30
-2.01594e-14
  70
    32
  0
VERTEX
  8
0
  5
2B7E
 10
-90.6095
 20
57.1692
 30
-2.01618e-14
  70
    32
  0
VERTEX
  8
0
  5
2B7F
 10
-90.6186
 20
57.1536
 30
-2.01641e-14
  70
    32
  0
VERTEX
  8
0
  5
2B80
 10
-90.6278
 20
57.1381
 30
-2.01665e-14
  70
    32
  0
VERTEX
  8
0
  5
2B81
 10
-90.6369
 20
57.1224
 30
-2.01689e-14
  70
    32
  0
VERTEX
  8
0
  5
2B82
 10
-90.6460
 20
57.1068
 30
-2.01713e-14
  70
    32
  0
VERTEX
  8
0
  5
2B83
 10
-90.6550
 20
57.0910
 30
-2.01736e-14
  70
    32
  0
VERTEX
  8
0
  5
2B84
 10
-90.6640
 20
57.0753
 30
-2.01760e-14
  70
    32
  0
VERTEX
  8
0
  5
2B85
 10
-90.6730
 20
57.0594
 30
-2.01784e-14
  70
    32
  0
VERTEX
  8
0
  5
2B86
 10
-90.6819
 20
57.0435
 30
-2.01808e-14
  70
    32
  0
VERTEX
  8
0
  5
2B87
 10
-90.6908
 20
57.0276
 30
-2.01832e-14
  70
    32
  0
VERTEX
  8
0
  5
2B88
 10
-90.6997
 20
57.0116
 30
-2.01856e-14
  70
    32
  0
VERTEX
  8
0
  5
2B89
 10
-90.7085
 20
56.9956
 30
-2.01880e-14
  70
    32
  0
VERTEX
  8
0
  5
2B8A
 10
-90.7173
 20
56.9795
 30
-2.01905e-14
  70
    32
  0
VERTEX
  8
0
  5
2B8B
 10
-90.7261
 20
56.9633
 30
-2.01929e-14
  70
    32
  0
VERTEX
  8
0
  5
2B8C
 10
-90.7348
 20
56.9471
 30
-2.01953e-14
  70
    32
  0
VERTEX
  8
0
  5
2B8D
 10
-90.7435
 20
56.9308
 30
-2.01977e-14
  70
    32
  0
VERTEX
  8
0
  5
2B8E
 10
-90.7522
 20
56.9145
 30
-2.02002e-14
  70
    32
  0
VERTEX
  8
0
  5
2B8F
 10
-90.7608
 20
56.8982
 30
-2.02026e-14
  70
    32
  0
VERTEX
  8
0
  5
2B90
 10
-90.7694
 20
56.8818
 30
-2.02051e-14
  70
    32
  0
VERTEX
  8
0
  5
2B91
 10
-90.7779
 20
56.8653
 30
-2.02075e-14
  70
    32
  0
VERTEX
  8
0
  5
2B92
 10
-90.7864
 20
56.8488
 30
-2.02100e-14
  70
    32
  0
VERTEX
  8
0
  5
2B93
 10
-90.7949
 20
56.8322
 30
-2.02124e-14
  70
    32
  0
VERTEX
  8
0
  5
2B94
 10
-90.8033
 20
56.8155
 30
-2.02149e-14
  70
    32
  0
VERTEX
  8
0
  5
2B95
 10
-90.8117
 20
56.7989
 30
-2.02173e-14
  70
    32
  0
VERTEX
  8
0
  5
2B96
 10
-90.8200
 20
56.7821
 30
-2.02198e-14
  70
    32
  0
VERTEX
  8
0
  5
2B97
 10
-90.8284
 20
56.7653
 30
-2.02223e-14
  70
    32
  0
VERTEX
  8
0
  5
2B98
 10
-90.8366
 20
56.7485
 30
-2.02248e-14
  70
    32
  0
VERTEX
  8
0
  5
2B99
 10
-90.8449
 20
56.7316
 30
-2.02272e-14
  70
    32
  0
VERTEX
  8
0
  5
2B9A
 10
-90.8531
 20
56.7146
 30
-2.02297e-14
  70
    32
  0
VERTEX
  8
0
  5
2B9B
 10
-90.8612
 20
56.6976
 30
-2.02322e-14
  70
    32
  0
VERTEX
  8
0
  5
2B9C
 10
-90.8693
 20
56.6806
 30
-2.02347e-14
  70
    32
  0
VERTEX
  8
0
  5
2B9D
 10
-90.8774
 20
56.6634
 30
-2.02372e-14
  70
    32
  0
VERTEX
  8
0
  5
2B9E
 10
-90.8854
 20
56.6463
 30
-2.02397e-14
  70
    32
  0
VERTEX
  8
0
  5
2B9F
 10
-90.8934
 20
56.6290
 30
-2.02422e-14
  70
    32
  0
VERTEX
  8
0
  5
2BA0
 10
-90.9014
 20
56.6117
 30
-2.02447e-14
  70
    32
  0
VERTEX
  8
0
  5
2BA1
 10
-90.9093
 20
56.5944
 30
-2.02472e-14
  70
    32
  0
VERTEX
  8
0
  5
2BA2
 10
-90.9171
 20
56.5770
 30
-2.02498e-14
  70
    32
  0
VERTEX
  8
0
  5
2BA3
 10
-90.9250
 20
56.5596
 30
-2.02523e-14
  70
    32
  0
VERTEX
  8
0
  5
2BA4
 10
-90.9327
 20
56.5421
 30
-2.02548e-14
  70
    32
  0
VERTEX
  8
0
  5
2BA5
 10
-90.9405
 20
56.5245
 30
-2.02574e-14
  70
    32
  0
VERTEX
  8
0
  5
2BA6
 10
-90.9482
 20
56.5069
 30
-2.02599e-14
  70
    32
  0
VERTEX
  8
0
  5
2BA7
 10
-90.9558
 20
56.4892
 30
-2.02624e-14
  70
    32
  0
VERTEX
  8
0
  5
2BA8
 10
-90.9635
 20
56.4715
 30
-2.02650e-14
  70
    32
  0
VERTEX
  8
0
  5
2BA9
 10
-90.9710
 20
56.4537
 30
-2.02675e-14
  70
    32
  0
VERTEX
  8
0
  5
2BAA
 10
-90.9785
 20
56.4359
 30
-2.02701e-14
  70
    32
  0
VERTEX
  8
0
  5
2BAB
 10
-90.9860
 20
56.4180
 30
-2.02727e-14
  70
    32
  0
VERTEX
  8
0
  5
2BAC
 10
-90.9935
 20
56.4000
 30
-2.02752e-14
  70
    32
  0
VERTEX
  8
0
  5
2BAD
 10
-91.0009
 20
56.3820
 30
-2.02778e-14
  70
    32
  0
VERTEX
  8
0
  5
2BAE
 10
-91.0082
 20
56.3640
 30
-2.02804e-14
  70
    32
  0
VERTEX
  8
0
  5
2BAF
 10
-91.0155
 20
56.3459
 30
-2.02829e-14
  70
    32
  0
VERTEX
  8
0
  5
2BB0
 10
-91.0228
 20
56.3277
 30
-2.02855e-14
  70
    32
  0
VERTEX
  8
0
  5
2BB1
 10
-91.0300
 20
56.3095
 30
-2.02881e-14
  70
    32
  0
VERTEX
  8
0
  5
2BB2
 10
-91.0371
 20
56.2912
 30
-2.02907e-14
  70
    32
  0
VERTEX
  8
0
  5
2BB3
 10
-91.0443
 20
56.2729
 30
-2.02933e-14
  70
    32
  0
VERTEX
  8
0
  5
2BB4
 10
-91.0513
 20
56.2545
 30
-2.02959e-14
  70
    32
  0
VERTEX
  8
0
  5
2BB5
 10
-91.0584
 20
56.2360
 30
-2.02985e-14
  70
    32
  0
VERTEX
  8
0
  5
2BB6
 10
-91.0653
 20
56.2175
 30
-2.03011e-14
  70
    32
  0
VERTEX
  8
0
  5
2BB7
 10
-91.0723
 20
56.1989
 30
-2.03037e-14
  70
    32
  0
VERTEX
  8
0
  5
2BB8
 10
-91.0792
 20
56.1803
 30
-2.03063e-14
  70
    32
  0
VERTEX
  8
0
  5
2BB9
 10
-91.0860
 20
56.1616
 30
-2.03090e-14
  70
    32
  0
VERTEX
  8
0
  5
2BBA
 10
-91.0928
 20
56.1429
 30
-2.03116e-14
  70
    32
  0
VERTEX
  8
0
  5
2BBB
 10
-91.0995
 20
56.1241
 30
-2.03142e-14
  70
    32
  0
VERTEX
  8
0
  5
2BBC
 10
-91.1062
 20
56.1053
 30
-2.03167e-14
  70
    32
  0
VERTEX
  8
0
  5
2BBD
 10
-91.1129
 20
56.0864
 30
-2.03192e-14
  70
    32
  0
VERTEX
  8
0
  5
2BBE
 10
-91.1195
 20
56.0674
 30
-2.03217e-14
  70
    32
  0
VERTEX
  8
0
  5
2BBF
 10
-91.1260
 20
56.0484
 30
-2.03241e-14
  70
    32
  0
VERTEX
  8
0
  5
2BC0
 10
-91.1325
 20
56.0293
 30
-2.03265e-14
  70
    32
  0
VERTEX
  8
0
  5
2BC1
 10
-91.1390
 20
56.0102
 30
-2.03288e-14
  70
    32
  0
VERTEX
  8
0
  5
2BC2
 10
-91.1454
 20
55.9910
 30
-2.03310e-14
  70
    32
  0
VERTEX
  8
0
  5
2BC3
 10
-91.1517
 20
55.9717
 30
-2.03332e-14
  70
    32
  0
VERTEX
  8
0
  5
2BC4
 10
-91.1580
 20
55.9524
 30
-2.03354e-14
  70
    32
  0
VERTEX
  8
0
  5
2BC5
 10
-91.1642
 20
55.9331
 30
-2.03375e-14
  70
    32
  0
VERTEX
  8
0
  5
2BC6
 10
-91.1704
 20
55.9137
 30
-2.03396e-14
  70
    32
  0
VERTEX
  8
0
  5
2BC7
 10
-91.1766
 20
55.8942
 30
-2.03416e-14
  70
    32
  0
VERTEX
  8
0
  5
2BC8
 10
-91.1826
 20
55.8747
 30
-2.03436e-14
  70
    32
  0
VERTEX
  8
0
  5
2BC9
 10
-91.1887
 20
55.8551
 30
-2.03455e-14
  70
    32
  0
VERTEX
  8
0
  5
2BCA
 10
-91.1946
 20
55.8354
 30
-2.03474e-14
  70
    32
  0
VERTEX
  8
0
  5
2BCB
 10
-91.2005
 20
55.8158
 30
-2.03492e-14
  70
    32
  0
VERTEX
  8
0
  5
2BCC
 10
-91.2064
 20
55.7960
 30
-2.03510e-14
  70
    32
  0
VERTEX
  8
0
  5
2BCD
 10
-91.2122
 20
55.7762
 30
-2.03528e-14
  70
    32
  0
VERTEX
  8
0
  5
2BCE
 10
-91.2179
 20
55.7563
 30
-2.03545e-14
  70
    32
  0
VERTEX
  8
0
  5
2BCF
 10
-91.2236
 20
55.7364
 30
-2.03561e-14
  70
    32
  0
VERTEX
  8
0
  5
2BD0
 10
-91.2292
 20
55.7164
 30
-2.03578e-14
  70
    32
  0
VERTEX
  8
0
  5
2BD1
 10
-91.2348
 20
55.6964
 30
-2.03594e-14
  70
    32
  0
VERTEX
  8
0
  5
2BD2
 10
-91.2403
 20
55.6763
 30
-2.03609e-14
  70
    32
  0
VERTEX
  8
0
  5
2BD3
 10
-91.2457
 20
55.6562
 30
-2.03624e-14
  70
    32
  0
VERTEX
  8
0
  5
2BD4
 10
-91.2511
 20
55.6360
 30
-2.03639e-14
  70
    32
  0
VERTEX
  8
0
  5
2BD5
 10
-91.2564
 20
55.6157
 30
-2.03653e-14
  70
    32
  0
VERTEX
  8
0
  5
2BD6
 10
-91.2617
 20
55.5954
 30
-2.03667e-14
  70
    32
  0
VERTEX
  8
0
  5
2BD7
 10
-91.2669
 20
55.5750
 30
-2.03681e-14
  70
    32
  0
VERTEX
  8
0
  5
2BD8
 10
-91.2720
 20
55.5546
 30
-2.03694e-14
  70
    32
  0
VERTEX
  8
0
  5
2BD9
 10
-91.2771
 20
55.5341
 30
-2.03707e-14
  70
    32
  0
VERTEX
  8
0
  5
2BDA
 10
-91.2821
 20
55.5136
 30
-2.03719e-14
  70
    32
  0
VERTEX
  8
0
  5
2BDB
 10
-91.2871
 20
55.4930
 30
-2.03731e-14
  70
    32
  0
VERTEX
  8
0
  5
2BDC
 10
-91.2920
 20
55.4723
 30
-2.03743e-14
  70
    32
  0
VERTEX
  8
0
  5
2BDD
 10
-91.2968
 20
55.4516
 30
-2.03754e-14
  70
    32
  0
VERTEX
  8
0
  5
2BDE
 10
-91.3015
 20
55.4309
 30
-2.03765e-14
  70
    32
  0
VERTEX
  8
0
  5
2BDF
 10
-91.3062
 20
55.4100
 30
-2.03776e-14
  70
    32
  0
VERTEX
  8
0
  5
2BE0
 10
-91.3109
 20
55.3892
 30
-2.03786e-14
  70
    32
  0
VERTEX
  8
0
  5
2BE1
 10
-91.3154
 20
55.3682
 30
-2.03796e-14
  70
    32
  0
VERTEX
  8
0
  5
2BE2
 10
-91.3199
 20
55.3472
 30
-2.03806e-14
  70
    32
  0
VERTEX
  8
0
  5
2BE3
 10
-91.3243
 20
55.3262
 30
-2.03816e-14
  70
    32
  0
VERTEX
  8
0
  5
2BE4
 10
-91.3287
 20
55.3051
 30
-2.03825e-14
  70
    32
  0
VERTEX
  8
0
  5
2BE5
 10
-91.3330
 20
55.2839
 30
-2.03833e-14
  70
    32
  0
VERTEX
  8
0
  5
2BE6
 10
-91.3372
 20
55.2627
 30
-2.03842e-14
  70
    32
  0
VERTEX
  8
0
  5
2BE7
 10
-91.3413
 20
55.2415
 30
-2.03850e-14
  70
    32
  0
VERTEX
  8
0
  5
2BE8
 10
-91.3454
 20
55.2201
 30
-2.03858e-14
  70
    32
  0
VERTEX
  8
0
  5
2BE9
 10
-91.3494
 20
55.1988
 30
-2.03866e-14
  70
    32
  0
VERTEX
  8
0
  5
2BEA
 10
-91.3533
 20
55.1773
 30
-2.03873e-14
  70
    32
  0
VERTEX
  8
0
  5
2BEB
 10
-91.3572
 20
55.1558
 30
-2.03880e-14
  70
    32
  0
VERTEX
  8
0
  5
2BEC
 10
-91.3610
 20
55.1343
 30
-2.03887e-14
  70
    32
  0
VERTEX
  8
0
  5
2BED
 10
-91.3647
 20
55.1127
 30
-2.03894e-14
  70
    32
  0
VERTEX
  8
0
  5
2BEE
 10
-91.3683
 20
55.0910
 30
-2.03900e-14
  70
    32
  0
VERTEX
  8
0
  5
2BEF
 10
-91.3719
 20
55.0693
 30
-2.03906e-14
  70
    32
  0
VERTEX
  8
0
  5
2BF0
 10
-91.3754
 20
55.0475
 30
-2.03912e-14
  70
    32
  0
VERTEX
  8
0
  5
2BF1
 10
-91.3788
 20
55.0257
 30
-2.03917e-14
  70
    32
  0
VERTEX
  8
0
  5
2BF2
 10
-91.3822
 20
55.0038
 30
-2.03922e-14
  70
    32
  0
VERTEX
  8
0
  5
2BF3
 10
-91.3854
 20
54.9819
 30
-2.03928e-14
  70
    32
  0
VERTEX
  8
0
  5
2BF4
 10
-91.3886
 20
54.9599
 30
-2.03932e-14
  70
    32
  0
VERTEX
  8
0
  5
2BF5
 10
-91.3918
 20
54.9379
 30
-2.03937e-14
  70
    32
  0
VERTEX
  8
0
  5
2BF6
 10
-91.3948
 20
54.9158
 30
-2.03941e-14
  70
    32
  0
VERTEX
  8
0
  5
2BF7
 10
-91.3978
 20
54.8936
 30
-2.03946e-14
  70
    32
  0
VERTEX
  8
0
  5
2BF8
 10
-91.4006
 20
54.8714
 30
-2.03950e-14
  70
    32
  0
VERTEX
  8
0
  5
2BF9
 10
-91.4034
 20
54.8491
 30
-2.03953e-14
  70
    32
  0
VERTEX
  8
0
  5
2BFA
 10
-91.4062
 20
54.8268
 30
-2.03957e-14
  70
    32
  0
VERTEX
  8
0
  5
2BFB
 10
-91.4088
 20
54.8044
 30
-2.03960e-14
  70
    32
  0
VERTEX
  8
0
  5
2BFC
 10
-91.4114
 20
54.7820
 30
-2.03964e-14
  70
    32
  0
VERTEX
  8
0
  5
2BFD
 10
-91.4139
 20
54.7595
 30
-2.03967e-14
  70
    32
  0
VERTEX
  8
0
  5
2BFE
 10
-91.4163
 20
54.7369
 30
-2.03970e-14
  70
    32
  0
VERTEX
  8
0
  5
2BFF
 10
-91.4186
 20
54.7143
 30
-2.03972e-14
  70
    32
  0
VERTEX
  8
0
  5
2C00
 10
-91.4209
 20
54.6916
 30
-2.03975e-14
  70
    32
  0
VERTEX
  8
0
  5
2C01
 10
-91.4230
 20
54.6689
 30
-2.03977e-14
  70
    32
  0
VERTEX
  8
0
  5
2C02
 10
-91.4251
 20
54.6461
 30
-2.03979e-14
  70
    32
  0
VERTEX
  8
0
  5
2C03
 10
-91.4271
 20
54.6233
 30
-2.03982e-14
  70
    32
  0
VERTEX
  8
0
  5
2C04
 10
-91.4290
 20
54.6004
 30
-2.03983e-14
  70
    32
  0
VERTEX
  8
0
  5
2C05
 10
-91.4308
 20
54.5775
 30
-2.03985e-14
  70
    32
  0
VERTEX
  8
0
  5
2C06
 10
-91.4326
 20
54.5545
 30
-2.03987e-14
  70
    32
  0
VERTEX
  8
0
  5
2C07
 10
-91.4342
 20
54.5314
 30
-2.03988e-14
  70
    32
  0
VERTEX
  8
0
  5
2C08
 10
-91.4358
 20
54.5083
 30
-2.03990e-14
  70
    32
  0
VERTEX
  8
0
  5
2C09
 10
-91.4373
 20
54.4852
 30
-2.03991e-14
  70
    32
  0
VERTEX
  8
0
  5
2C0A
 10
-91.4387
 20
54.4620
 30
-2.03992e-14
  70
    32
  0
VERTEX
  8
0
  5
2C0B
 10
-91.4400
 20
54.4387
 30
-2.03993e-14
  70
    32
  0
VERTEX
  8
0
  5
2C0C
 10
-91.4412
 20
54.4154
 30
-2.03994e-14
  70
    32
  0
VERTEX
  8
0
  5
2C0D
 10
-91.4423
 20
54.3920
 30
-2.03995e-14
  70
    32
  0
VERTEX
  8
0
  5
2C0E
 10
-91.4434
 20
54.3685
 30
-2.03996e-14
  70
    32
  0
VERTEX
  8
0
  5
2C0F
 10
-91.4443
 20
54.3450
 30
-2.03997e-14
  70
    32
  0
VERTEX
  8
0
  5
2C10
 10
-91.4452
 20
54.3215
 30
-2.03997e-14
  70
    32
  0
VERTEX
  8
0
  5
2C11
 10
-91.4460
 20
54.2979
 30
-2.03998e-14
  70
    32
  0
VERTEX
  8
0
  5
2C12
 10
-91.4467
 20
54.2742
 30
-2.03998e-14
  70
    32
  0
VERTEX
  8
0
  5
2C13
 10
-91.4473
 20
54.2505
 30
-2.03999e-14
  70
    32
  0
VERTEX
  8
0
  5
2C14
 10
-91.4478
 20
54.2267
 30
-2.03999e-14
  70
    32
  0
VERTEX
  8
0
  5
2C15
 10
-91.4482
 20
54.2029
 30
-2.03999e-14
  70
    32
  0
VERTEX
  8
0
  5
2C16
 10
-91.4485
 20
54.1790
 30
-2.03999e-14
  70
    32
  0
VERTEX
  8
0
  5
2C17
 10
-91.4487
 20
54.1551
 30
-2.04000e-14
  70
    32
  0
VERTEX
  8
0
  5
2C18
 10
-91.4488
 20
54.1311
 30
-2.04000e-14
  70
    32
  0
VERTEX
  8
0
  5
2C19
 10
-91.4489
 20
54.1070
 30
-2.04000e-14
  70
    32
  0
VERTEX
  8
0
  5
2C1A
 10
-91.4488
 20
54.0829
 30
-2.04000e-14
  70
    32
  0
VERTEX
  8
0
  5
2C1B
 10
-91.4486
 20
54.0588
 30
-2.04000e-14
  70
    32
  0
VERTEX
  8
0
  5
2C1C
 10
-91.4484
 20
54.0346
 30
-2.04000e-14
  70
    32
  0
VERTEX
  8
0
  5
2C1D
 10
-91.4480
 20
54.0103
 30
-2.04000e-14
  70
    32
  0
VERTEX
  8
0
  5
2C1E
 10
-91.4476
 20
53.9860
 30
-2.04000e-14
  70
    32
  0
VERTEX
  8
0
  5
2C1F
 10
-91.4471
 20
53.9616
 30
-2.04000e-14
  70
    32
  0
VERTEX
  8
0
  5
2C20
 10
-91.4464
 20
53.9372
 30
-2.03999e-14
  70
    32
  0
VERTEX
  8
0
  5
2C21
 10
-91.4457
 20
53.9127
 30
-2.03998e-14
  70
    32
  0
VERTEX
  8
0
  5
2C22
 10
-91.4448
 20
53.8881
 30
-2.03996e-14
  70
    32
  0
VERTEX
  8
0
  5
2C23
 10
-91.4439
 20
53.8636
 30
-2.03993e-14
  70
    32
  0
VERTEX
  8
0
  5
2C24
 10
-91.4429
 20
53.8389
 30
-2.03990e-14
  70
    32
  0
VERTEX
  8
0
  5
2C25
 10
-91.4417
 20
53.8143
 30
-2.03985e-14
  70
    32
  0
VERTEX
  8
0
  5
2C26
 10
-91.4405
 20
53.7896
 30
-2.03981e-14
  70
    32
  0
VERTEX
  8
0
  5
2C27
 10
-91.4391
 20
53.7648
 30
-2.03975e-14
  70
    32
  0
VERTEX
  8
0
  5
2C28
 10
-91.4377
 20
53.7400
 30
-2.03969e-14
  70
    32
  0
VERTEX
  8
0
  5
2C29
 10
-91.4361
 20
53.7151
 30
-2.03962e-14
  70
    32
  0
VERTEX
  8
0
  5
2C2A
 10
-91.4345
 20
53.6902
 30
-2.03954e-14
  70
    32
  0
VERTEX
  8
0
  5
2C2B
 10
-91.4327
 20
53.6653
 30
-2.03946e-14
  70
    32
  0
VERTEX
  8
0
  5
2C2C
 10
-91.4308
 20
53.6403
 30
-2.03937e-14
  70
    32
  0
VERTEX
  8
0
  5
2C2D
 10
-91.4289
 20
53.6153
 30
-2.03928e-14
  70
    32
  0
VERTEX
  8
0
  5
2C2E
 10
-91.4268
 20
53.5902
 30
-2.03918e-14
  70
    32
  0
VERTEX
  8
0
  5
2C2F
 10
-91.4246
 20
53.5651
 30
-2.03907e-14
  70
    32
  0
VERTEX
  8
0
  5
2C30
 10
-91.4223
 20
53.5399
 30
-2.03896e-14
  70
    32
  0
VERTEX
  8
0
  5
2C31
 10
-91.4199
 20
53.5147
 30
-2.03884e-14
  70
    32
  0
VERTEX
  8
0
  5
2C32
 10
-91.4173
 20
53.4894
 30
-2.03872e-14
  70
    32
  0
VERTEX
  8
0
  5
2C33
 10
-91.4147
 20
53.4641
 30
-2.03859e-14
  70
    32
  0
VERTEX
  8
0
  5
2C34
 10
-91.4119
 20
53.4388
 30
-2.03846e-14
  70
    32
  0
VERTEX
  8
0
  5
2C35
 10
-91.4091
 20
53.4134
 30
-2.03832e-14
  70
    32
  0
VERTEX
  8
0
  5
2C36
 10
-91.4061
 20
53.3880
 30
-2.03818e-14
  70
    32
  0
VERTEX
  8
0
  5
2C37
 10
-91.4030
 20
53.3626
 30
-2.03803e-14
  70
    32
  0
VERTEX
  8
0
  5
2C38
 10
-91.3998
 20
53.3371
 30
-2.03788e-14
  70
    32
  0
VERTEX
  8
0
  5
2C39
 10
-91.3964
 20
53.3115
 30
-2.03772e-14
  70
    32
  0
VERTEX
  8
0
  5
2C3A
 10
-91.3930
 20
53.2859
 30
-2.03756e-14
  70
    32
  0
VERTEX
  8
0
  5
2C3B
 10
-91.3894
 20
53.2603
 30
-2.03740e-14
  70
    32
  0
VERTEX
  8
0
  5
2C3C
 10
-91.3857
 20
53.2347
 30
-2.03723e-14
  70
    32
  0
VERTEX
  8
0
  5
2C3D
 10
-91.3819
 20
53.2090
 30
-2.03705e-14
  70
    32
  0
VERTEX
  8
0
  5
2C3E
 10
-91.3780
 20
53.1833
 30
-2.03687e-14
  70
    32
  0
VERTEX
  8
0
  5
2C3F
 10
-91.3740
 20
53.1575
 30
-2.03669e-14
  70
    32
  0
VERTEX
  8
0
  5
2C40
 10
-91.3698
 20
53.1317
 30
-2.03651e-14
  70
    32
  0
VERTEX
  8
0
  5
2C41
 10
-91.3655
 20
53.1058
 30
-2.03632e-14
  70
    32
  0
VERTEX
  8
0
  5
2C42
 10
-91.3611
 20
53.0800
 30
-2.03613e-14
  70
    32
  0
VERTEX
  8
0
  5
2C43
 10
-91.3565
 20
53.0541
 30
-2.03593e-14
  70
    32
  0
VERTEX
  8
0
  5
2C44
 10
-91.3519
 20
53.0281
 30
-2.03574e-14
  70
    32
  0
VERTEX
  8
0
  5
2C45
 10
-91.3471
 20
53.0021
 30
-2.03554e-14
  70
    32
  0
VERTEX
  8
0
  5
2C46
 10
-91.3422
 20
52.9761
 30
-2.03533e-14
  70
    32
  0
VERTEX
  8
0
  5
2C47
 10
-91.3371
 20
52.9501
 30
-2.03512e-14
  70
    32
  0
VERTEX
  8
0
  5
2C48
 10
-91.3319
 20
52.9240
 30
-2.03492e-14
  70
    32
  0
VERTEX
  8
0
  5
2C49
 10
-91.3266
 20
52.8978
 30
-2.03470e-14
  70
    32
  0
VERTEX
  8
0
  5
2C4A
 10
-91.3212
 20
52.8717
 30
-2.03449e-14
  70
    32
  0
VERTEX
  8
0
  5
2C4B
 10
-91.3156
 20
52.8455
 30
-2.03427e-14
  70
    32
  0
VERTEX
  8
0
  5
2C4C
 10
-91.3099
 20
52.8193
 30
-2.03406e-14
  70
    32
  0
VERTEX
  8
0
  5
2C4D
 10
-91.3041
 20
52.7930
 30
-2.03383e-14
  70
    32
  0
VERTEX
  8
0
  5
2C4E
 10
-91.2982
 20
52.7667
 30
-2.03361e-14
  70
    32
  0
VERTEX
  8
0
  5
2C4F
 10
-91.2921
 20
52.7404
 30
-2.03339e-14
  70
    32
  0
VERTEX
  8
0
  5
2C50
 10
-91.2858
 20
52.7141
 30
-2.03316e-14
  70
    32
  0
VERTEX
  8
0
  5
2C51
 10
-91.2795
 20
52.6877
 30
-2.03294e-14
  70
    32
  0
VERTEX
  8
0
  5
2C52
 10
-91.2730
 20
52.6613
 30
-2.03271e-14
  70
    32
  0
VERTEX
  8
0
  5
2C53
 10
-91.2663
 20
52.6349
 30
-2.03248e-14
  70
    32
  0
VERTEX
  8
0
  5
2C54
 10
-91.2596
 20
52.6084
 30
-2.03225e-14
  70
    32
  0
VERTEX
  8
0
  5
2C55
 10
-91.2527
 20
52.5819
 30
-2.03202e-14
  70
    32
  0
VERTEX
  8
0
  5
2C56
 10
-91.2456
 20
52.5554
 30
-2.03178e-14
  70
    32
  0
VERTEX
  8
0
  5
2C57
 10
-91.2384
 20
52.5288
 30
-2.03155e-14
  70
    32
  0
VERTEX
  8
0
  5
2C58
 10
-91.2311
 20
52.5022
 30
-2.03132e-14
  70
    32
  0
VERTEX
  8
0
  5
2C59
 10
-91.2236
 20
52.4756
 30
-2.03108e-14
  70
    32
  0
VERTEX
  8
0
  5
2C5A
 10
-91.2160
 20
52.4490
 30
-2.03085e-14
  70
    32
  0
VERTEX
  8
0
  5
2C5B
 10
-91.2082
 20
52.4223
 30
-2.03062e-14
  70
    32
  0
VERTEX
  8
0
  5
2C5C
 10
-91.2003
 20
52.3956
 30
-2.03038e-14
  70
    32
  0
VERTEX
  8
0
  5
2C5D
 10
-91.1923
 20
52.3689
 30
-2.03015e-14
  70
    32
  0
VERTEX
  8
0
  5
2C5E
 10
-91.1841
 20
52.3422
 30
-2.02991e-14
  70
    32
  0
VERTEX
  8
0
  5
2C5F
 10
-91.1758
 20
52.3154
 30
-2.02968e-14
  70
    32
  0
VERTEX
  8
0
  5
2C60
 10
-91.1673
 20
52.2886
 30
-2.02945e-14
  70
    32
  0
VERTEX
  8
0
  5
2C61
 10
-91.1587
 20
52.2618
 30
-2.02921e-14
  70
    32
  0
VERTEX
  8
0
  5
2C62
 10
-91.1499
 20
52.2350
 30
-2.02898e-14
  70
    32
  0
VERTEX
  8
0
  5
2C63
 10
-91.1410
 20
52.2081
 30
-2.02875e-14
  70
    32
  0
VERTEX
  8
0
  5
2C64
 10
-91.1319
 20
52.1812
 30
-2.02852e-14
  70
    32
  0
VERTEX
  8
0
  5
2C65
 10
-91.1227
 20
52.1543
 30
-2.02829e-14
  70
    32
  0
VERTEX
  8
0
  5
2C66
 10
-91.1133
 20
52.1274
 30
-2.02806e-14
  70
    32
  0
VERTEX
  8
0
  5
2C67
 10
-91.1038
 20
52.1004
 30
-2.02783e-14
  70
    32
  0
VERTEX
  8
0
  5
2C68
 10
-91.0941
 20
52.0734
 30
-2.02761e-14
  70
    32
  0
VERTEX
  8
0
  5
2C69
 10
-91.0842
 20
52.0464
 30
-2.02739e-14
  70
    32
  0
VERTEX
  8
0
  5
2C6A
 10
-91.0743
 20
52.0194
 30
-2.02716e-14
  70
    32
  0
VERTEX
  8
0
  5
2C6B
 10
-91.0641
 20
51.9923
 30
-2.02694e-14
  70
    32
  0
VERTEX
  8
0
  5
2C6C
 10
-91.0538
 20
51.9653
 30
-2.02673e-14
  70
    32
  0
VERTEX
  8
0
  5
2C6D
 10
-91.0434
 20
51.9382
 30
-2.02651e-14
  70
    32
  0
VERTEX
  8
0
  5
2C6E
 10
-91.0327
 20
51.9111
 30
-2.02630e-14
  70
    32
  0
VERTEX
  8
0
  5
2C6F
 10
-91.0220
 20
51.8840
 30
-2.02608e-14
  70
    32
  0
VERTEX
  8
0
  5
2C70
 10
-91.0110
 20
51.8568
 30
-2.02588e-14
  70
    32
  0
VERTEX
  8
0
  5
2C71
 10
-91.0000
 20
51.8297
 30
-2.02567e-14
  70
    32
  0
VERTEX
  8
0
  5
2C72
 10
-90.9887
 20
51.8025
 30
-2.02547e-14
  70
    32
  0
VERTEX
  8
0
  5
2C73
 10
-90.9773
 20
51.7753
 30
-2.02527e-14
  70
    32
  0
VERTEX
  8
0
  5
2C74
 10
-90.9657
 20
51.7481
 30
-2.02507e-14
  70
    32
  0
VERTEX
  8
0
  5
2C75
 10
-90.9540
 20
51.7208
 30
-2.02487e-14
  70
    32
  0
VERTEX
  8
0
  5
2C76
 10
-90.9421
 20
51.6936
 30
-2.02468e-14
  70
    32
  0
VERTEX
  8
0
  5
2C77
 10
-90.9300
 20
51.6663
 30
-2.02449e-14
  70
    32
  0
VERTEX
  8
0
  5
2C78
 10
-90.9178
 20
51.6390
 30
-2.02430e-14
  70
    32
  0
VERTEX
  8
0
  5
2C79
 10
-90.9054
 20
51.6117
 30
-2.02411e-14
  70
    32
  0
VERTEX
  8
0
  5
2C7A
 10
-90.8929
 20
51.5844
 30
-2.02390e-14
  70
    32
  0
VERTEX
  8
0
  5
2C7B
 10
-90.8801
 20
51.5571
 30
-2.02369e-14
  70
    32
  0
VERTEX
  8
0
  5
2C7C
 10
-90.8673
 20
51.5298
 30
-2.02348e-14
  70
    32
  0
VERTEX
  8
0
  5
2C7D
 10
-90.8542
 20
51.5025
 30
-2.02326e-14
  70
    32
  0
VERTEX
  8
0
  5
2C7E
 10
-90.8410
 20
51.4752
 30
-2.02303e-14
  70
    32
  0
VERTEX
  8
0
  5
2C7F
 10
-90.8276
 20
51.4479
 30
-2.02279e-14
  70
    32
  0
VERTEX
  8
0
  5
2C80
 10
-90.8140
 20
51.4205
 30
-2.02255e-14
  70
    32
  0
VERTEX
  8
0
  5
2C81
 10
-90.8003
 20
51.3932
 30
-2.02231e-14
  70
    32
  0
VERTEX
  8
0
  5
2C82
 10
-90.7864
 20
51.3659
 30
-2.02205e-14
  70
    32
  0
VERTEX
  8
0
  5
2C83
 10
-90.7723
 20
51.3386
 30
-2.02179e-14
  70
    32
  0
VERTEX
  8
0
  5
2C84
 10
-90.7580
 20
51.3113
 30
-2.02152e-14
  70
    32
  0
VERTEX
  8
0
  5
2C85
 10
-90.7436
 20
51.2839
 30
-2.02125e-14
  70
    32
  0
VERTEX
  8
0
  5
2C86
 10
-90.7290
 20
51.2566
 30
-2.02097e-14
  70
    32
  0
VERTEX
  8
0
  5
2C87
 10
-90.7142
 20
51.2293
 30
-2.02069e-14
  70
    32
  0
VERTEX
  8
0
  5
2C88
 10
-90.6992
 20
51.2020
 30
-2.02039e-14
  70
    32
  0
VERTEX
  8
0
  5
2C89
 10
-90.6841
 20
51.1747
 30
-2.02009e-14
  70
    32
  0
VERTEX
  8
0
  5
2C8A
 10
-90.6688
 20
51.1475
 30
-2.01979e-14
  70
    32
  0
VERTEX
  8
0
  5
2C8B
 10
-90.6533
 20
51.1202
 30
-2.01947e-14
  70
    32
  0
VERTEX
  8
0
  5
2C8C
 10
-90.6376
 20
51.0930
 30
-2.01915e-14
  70
    32
  0
VERTEX
  8
0
  5
2C8D
 10
-90.6217
 20
51.0657
 30
-2.01883e-14
  70
    32
  0
VERTEX
  8
0
  5
2C8E
 10
-90.6056
 20
51.0385
 30
-2.01850e-14
  70
    32
  0
VERTEX
  8
0
  5
2C8F
 10
-90.5894
 20
51.0113
 30
-2.01816e-14
  70
    32
  0
VERTEX
  8
0
  5
2C90
 10
-90.5729
 20
50.9841
 30
-2.01781e-14
  70
    32
  0
VERTEX
  8
0
  5
2C91
 10
-90.5563
 20
50.9569
 30
-2.01746e-14
  70
    32
  0
VERTEX
  8
0
  5
2C92
 10
-90.5395
 20
50.9298
 30
-2.01710e-14
  70
    32
  0
VERTEX
  8
0
  5
2C93
 10
-90.5225
 20
50.9026
 30
-2.01673e-14
  70
    32
  0
VERTEX
  8
0
  5
2C94
 10
-90.5053
 20
50.8755
 30
-2.01636e-14
  70
    32
  0
VERTEX
  8
0
  5
2C95
 10
-90.4879
 20
50.8484
 30
-2.01598e-14
  70
    32
  0
VERTEX
  8
0
  5
2C96
 10
-90.4703
 20
50.8214
 30
-2.01559e-14
  70
    32
  0
VERTEX
  8
0
  5
2C97
 10
-90.4526
 20
50.7943
 30
-2.01520e-14
  70
    32
  0
VERTEX
  8
0
  5
2C98
 10
-90.4346
 20
50.7673
 30
-2.01480e-14
  70
    32
  0
VERTEX
  8
0
  5
2C99
 10
-90.4164
 20
50.7403
 30
-2.01439e-14
  70
    32
  0
VERTEX
  8
0
  5
2C9A
 10
-90.3981
 20
50.7134
 30
-2.01398e-14
  70
    32
  0
VERTEX
  8
0
  5
2C9B
 10
-90.3795
 20
50.6865
 30
-2.01356e-14
  70
    32
  0
VERTEX
  8
0
  5
2C9C
 10
-90.3607
 20
50.6596
 30
-2.01313e-14
  70
    32
  0
VERTEX
  8
0
  5
2C9D
 10
-90.3418
 20
50.6327
 30
-2.01269e-14
  70
    32
  0
VERTEX
  8
0
  5
2C9E
 10
-90.3226
 20
50.6059
 30
-2.01225e-14
  70
    32
  0
VERTEX
  8
0
  5
2C9F
 10
-90.3033
 20
50.5791
 30
-2.01180e-14
  70
    32
  0
VERTEX
  8
0
  5
2CA0
 10
-90.2837
 20
50.5523
 30
-2.01134e-14
  70
    32
  0
VERTEX
  8
0
  5
2CA1
 10
-90.2639
 20
50.5256
 30
-2.01088e-14
  70
    32
  0
VERTEX
  8
0
  5
2CA2
 10
-90.2440
 20
50.4989
 30
-2.01041e-14
  70
    32
  0
VERTEX
  8
0
  5
2CA3
 10
-90.2238
 20
50.4723
 30
-2.00993e-14
  70
    32
  0
VERTEX
  8
0
  5
2CA4
 10
-90.2034
 20
50.4457
 30
-2.00945e-14
  70
    32
  0
VERTEX
  8
0
  5
2CA5
 10
-90.1828
 20
50.4191
 30
-2.00896e-14
  70
    32
  0
VERTEX
  8
0
  5
2CA6
 10
-90.1620
 20
50.3926
 30
-2.00846e-14
  70
    32
  0
VERTEX
  8
0
  5
2CA7
 10
-90.1410
 20
50.3661
 30
-2.00795e-14
  70
    32
  0
VERTEX
  8
0
  5
2CA8
 10
-90.1198
 20
50.3397
 30
-2.00744e-14
  70
    32
  0
VERTEX
  8
0
  5
2CA9
 10
-90.0983
 20
50.3133
 30
-2.00692e-14
  70
    32
  0
VERTEX
  8
0
  5
2CAA
 10
-90.0767
 20
50.2870
 30
-2.00639e-14
  70
    32
  0
VERTEX
  8
0
  5
2CAB
 10
-90.0548
 20
50.2607
 30
-2.00586e-14
  70
    32
  0
VERTEX
  8
0
  5
2CAC
 10
-90.0327
 20
50.2345
 30
-2.00531e-14
  70
    32
  0
VERTEX
  8
0
  5
2CAD
 10
-90.0104
 20
50.2083
 30
-2.00476e-14
  70
    32
  0
VERTEX
  8
0
  5
2CAE
 10
-89.9879
 20
50.1822
 30
-2.00421e-14
  70
    32
  0
VERTEX
  8
0
  5
2CAF
 10
-89.9652
 20
50.1561
 30
-2.00364e-14
  70
    32
  0
VERTEX
  8
0
  5
2CB0
 10
-89.9422
 20
50.1301
 30
-2.00307e-14
  70
    32
  0
VERTEX
  8
0
  5
2CB1
 10
-89.9191
 20
50.1041
 30
-2.00249e-14
  70
    32
  0
VERTEX
  8
0
  5
2CB2
 10
-89.8957
 20
50.0782
 30
-2.00190e-14
  70
    32
  0
VERTEX
  8
0
  5
2CB3
 10
-89.8720
 20
50.0523
 30
-2.00131e-14
  70
    32
  0
VERTEX
  8
0
  5
2CB4
 10
-89.8482
 20
50.0265
 30
-2.00071e-14
  70
    32
  0
VERTEX
  8
0
  5
2CB5
 10
-89.8241
 20
50.0008
 30
-2.00010e-14
  70
    32
  0
VERTEX
  8
0
  5
2CB6
 10
-89.7999
 20
49.9751
 30
-1.99948e-14
  70
    32
  0
VERTEX
  8
0
  5
2CB7
 10
-89.7753
 20
49.9495
 30
-1.99886e-14
  70
    32
  0
VERTEX
  8
0
  5
2CB8
 10
-89.7506
 20
49.9240
 30
-1.99823e-14
  70
    32
  0
VERTEX
  8
0
  5
2CB9
 10
-89.7256
 20
49.8985
 30
-1.99759e-14
  70
    32
  0
VERTEX
  8
0
  5
2CBA
 10
-89.7004
 20
49.8731
 30
-1.99694e-14
  70
    32
  0
VERTEX
  8
0
  5
2CBB
 10
-89.6750
 20
49.8477
 30
-1.99629e-14
  70
    32
  0
VERTEX
  8
0
  5
2CBC
 10
-89.6494
 20
49.8225
 30
-1.99563e-14
  70
    32
  0
VERTEX
  8
0
  5
2CBD
 10
-89.6235
 20
49.7973
 30
-1.99496e-14
  70
    32
  0
VERTEX
  8
0
  5
2CBE
 10
-89.5973
 20
49.7721
 30
-1.99428e-14
  70
    32
  0
VERTEX
  8
0
  5
2CBF
 10
-89.5710
 20
49.7471
 30
-1.99360e-14
  70
    32
  0
VERTEX
  8
0
  5
2CC0
 10
-89.5444
 20
49.7221
 30
-1.99290e-14
  70
    32
  0
VERTEX
  8
0
  5
2CC1
 10
-89.5176
 20
49.6972
 30
-1.99222e-14
  70
    32
  0
VERTEX
  8
0
  5
2CC2
 10
-89.4905
 20
49.6723
 30
-1.99154e-14
  70
    32
  0
VERTEX
  8
0
  5
2CC3
 10
-89.4632
 20
49.6476
 30
-1.99086e-14
  70
    32
  0
VERTEX
  8
0
  5
2CC4
 10
-89.4356
 20
49.6229
 30
-1.99019e-14
  70
    32
  0
VERTEX
  8
0
  5
2CC5
 10
-89.4079
 20
49.5983
 30
-1.98952e-14
  70
    32
  0
VERTEX
  8
0
  5
2CC6
 10
-89.3799
 20
49.5738
 30
-1.98885e-14
  70
    32
  0
VERTEX
  8
0
  5
2CC7
 10
-89.3516
 20
49.5494
 30
-1.98819e-14
  70
    32
  0
VERTEX
  8
0
  5
2CC8
 10
-89.3231
 20
49.5251
 30
-1.98754e-14
  70
    32
  0
VERTEX
  8
0
  5
2CC9
 10
-89.2944
 20
49.5009
 30
-1.98688e-14
  70
    32
  0
VERTEX
  8
0
  5
2CCA
 10
-89.2654
 20
49.4768
 30
-1.98623e-14
  70
    32
  0
VERTEX
  8
0
  5
2CCB
 10
-89.2361
 20
49.4529
 30
-1.98559e-14
  70
    32
  0
VERTEX
  8
0
  5
2CCC
 10
-89.2067
 20
49.4290
 30
-1.98494e-14
  70
    32
  0
VERTEX
  8
0
  5
2CCD
 10
-89.1769
 20
49.4052
 30
-1.98430e-14
  70
    32
  0
VERTEX
  8
0
  5
2CCE
 10
-89.1470
 20
49.3815
 30
-1.98366e-14
  70
    32
  0
VERTEX
  8
0
  5
2CCF
 10
-89.1168
 20
49.3580
 30
-1.98301e-14
  70
    32
  0
VERTEX
  8
0
  5
2CD0
 10
-89.0863
 20
49.3346
 30
-1.98237e-14
  70
    32
  0
VERTEX
  8
0
  5
2CD1
 10
-89.0556
 20
49.3112
 30
-1.98174e-14
  70
    32
  0
VERTEX
  8
0
  5
2CD2
 10
-89.0246
 20
49.2881
 30
-1.98110e-14
  70
    32
  0
VERTEX
  8
0
  5
2CD3
 10
-88.9934
 20
49.2650
 30
-1.98046e-14
  70
    32
  0
VERTEX
  8
0
  5
2CD4
 10
-88.9619
 20
49.2421
 30
-1.97982e-14
  70
    32
  0
VERTEX
  8
0
  5
2CD5
 10
-88.9302
 20
49.2193
 30
-1.97918e-14
  70
    32
  0
VERTEX
  8
0
  5
2CD6
 10
-88.8982
 20
49.1966
 30
-1.97854e-14
  70
    32
  0
VERTEX
  8
0
  5
2CD7
 10
-88.8660
 20
49.1741
 30
-1.97789e-14
  70
    32
  0
VERTEX
  8
0
  5
2CD8
 10
-88.8335
 20
49.1517
 30
-1.97725e-14
  70
    32
  0
VERTEX
  8
0
  5
2CD9
 10
-88.8007
 20
49.1295
 30
-1.97660e-14
  70
    32
  0
VERTEX
  8
0
  5
2CDA
 10
-88.7677
 20
49.1074
 30
-1.97596e-14
  70
    32
  0
VERTEX
  8
0
  5
2CDB
 10
-88.7344
 20
49.0854
 30
-1.97531e-14
  70
    32
  0
VERTEX
  8
0
  5
2CDC
 10
-88.7009
 20
49.0636
 30
-1.97465e-14
  70
    32
  0
VERTEX
  8
0
  5
2CDD
 10
-88.6671
 20
49.0420
 30
-1.97399e-14
  70
    32
  0
VERTEX
  8
0
  5
2CDE
 10
-88.6330
 20
49.0205
 30
-1.97333e-14
  70
    32
  0
VERTEX
  8
0
  5
2CDF
 10
-88.5987
 20
48.9992
 30
-1.97267e-14
  70
    32
  0
VERTEX
  8
0
  5
2CE0
 10
-88.5641
 20
48.9780
 30
-1.97200e-14
  70
    32
  0
VERTEX
  8
0
  5
2CE1
 10
-88.5292
 20
48.9570
 30
-1.97133e-14
  70
    32
  0
VERTEX
  8
0
  5
2CE2
 10
-88.4941
 20
48.9362
 30
-1.97065e-14
  70
    32
  0
VERTEX
  8
0
  5
2CE3
 10
-88.4587
 20
48.9155
 30
-1.96997e-14
  70
    32
  0
VERTEX
  8
0
  5
2CE4
 10
-88.4230
 20
48.8950
 30
-1.96928e-14
  70
    32
  0
VERTEX
  8
0
  5
2CE5
 10
-88.3871
 20
48.8747
 30
-1.96859e-14
  70
    32
  0
VERTEX
  8
0
  5
2CE6
 10
-88.3509
 20
48.8546
 30
-1.96788e-14
  70
    32
  0
VERTEX
  8
0
  5
2CE7
 10
-88.3144
 20
48.8346
 30
-1.96718e-14
  70
    32
  0
VERTEX
  8
0
  5
2CE8
 10
-88.2777
 20
48.8149
 30
-1.96646e-14
  70
    32
  0
VERTEX
  8
0
  5
2CE9
 10
-88.2406
 20
48.7953
 30
-1.96574e-14
  70
    32
  0
VERTEX
  8
0
  5
2CEA
 10
-88.2033
 20
48.7759
 30
-1.96502e-14
  70
    32
  0
VERTEX
  8
0
  5
2CEB
 10
-88.1658
 20
48.7567
 30
-1.96428e-14
  70
    32
  0
VERTEX
  8
0
  5
2CEC
 10
-88.1279
 20
48.7377
 30
-1.96354e-14
  70
    32
  0
VERTEX
  8
0
  5
2CED
 10
-88.0898
 20
48.7189
 30
-1.96278e-14
  70
    32
  0
VERTEX
  8
0
  5
2CEE
 10
-88.0514
 20
48.7003
 30
-1.96202e-14
  70
    32
  0
VERTEX
  8
0
  5
2CEF
 10
-88.0127
 20
48.6819
 30
-1.96125e-14
  70
    32
  0
VERTEX
  8
0
  5
2CF0
 10
-87.9737
 20
48.6637
 30
-1.96047e-14
  70
    32
  0
VERTEX
  8
0
  5
2CF1
 10
-87.9344
 20
48.6457
 30
-1.95969e-14
  70
    32
  0
VERTEX
  8
0
  5
2CF2
 10
-87.8949
 20
48.6279
 30
-1.95889e-14
  70
    32
  0
VERTEX
  8
0
  5
2CF3
 10
-87.8551
 20
48.6104
 30
-1.95808e-14
  70
    32
  0
VERTEX
  8
0
  5
2CF4
 10
-87.8150
 20
48.5930
 30
-1.95726e-14
  70
    32
  0
VERTEX
  8
0
  5
2CF5
 10
-87.7746
 20
48.5759
 30
-1.95643e-14
  70
    32
  0
VERTEX
  8
0
  5
2CF6
 10
-87.7339
 20
48.5590
 30
-1.95559e-14
  70
    32
  0
VERTEX
  8
0
  5
2CF7
 10
-87.6929
 20
48.5423
 30
-1.95473e-14
  70
    32
  0
VERTEX
  8
0
  5
2CF8
 10
-87.6517
 20
48.5259
 30
-1.95387e-14
  70
    32
  0
VERTEX
  8
0
  5
2CF9
 10
-87.6101
 20
48.5096
 30
-1.95299e-14
  70
    32
  0
VERTEX
  8
0
  5
2CFA
 10
-87.5683
 20
48.4937
 30
-1.95209e-14
  70
    32
  0
VERTEX
  8
0
  5
2CFB
 10
-87.5262
 20
48.4779
 30
-1.95118e-14
  70
    32
  0
VERTEX
  8
0
  5
2CFC
 10
-87.4837
 20
48.4624
 30
-1.95024e-14
  70
    32
  0
VERTEX
  8
0
  5
2CFD
 10
-87.4410
 20
48.4472
 30
-1.94929e-14
  70
    32
  0
VERTEX
  8
0
  5
2CFE
 10
-87.3981
 20
48.4322
 30
-1.94832e-14
  70
    32
  0
VERTEX
  8
0
  5
2CFF
 10
-87.3548
 20
48.4175
 30
-1.94733e-14
  70
    32
  0
VERTEX
  8
0
  5
2D00
 10
-87.3112
 20
48.4030
 30
-1.94633e-14
  70
    32
  0
VERTEX
  8
0
  5
2D01
 10
-87.2673
 20
48.3888
 30
-1.94531e-14
  70
    32
  0
VERTEX
  8
0
  5
2D02
 10
-87.2232
 20
48.3749
 30
-1.94427e-14
  70
    32
  0
VERTEX
  8
0
  5
2D03
 10
-87.1788
 20
48.3613
 30
-1.94321e-14
  70
    32
  0
VERTEX
  8
0
  5
2D04
 10
-87.1340
 20
48.3480
 30
-1.94215e-14
  70
    32
  0
VERTEX
  8
0
  5
2D05
 10
-87.0890
 20
48.3349
 30
-1.94106e-14
  70
    32
  0
VERTEX
  8
0
  5
2D06
 10
-87.0437
 20
48.3222
 30
-1.93996e-14
  70
    32
  0
VERTEX
  8
0
  5
2D07
 10
-86.9981
 20
48.3098
 30
-1.93885e-14
  70
    32
  0
VERTEX
  8
0
  5
2D08
 10
-86.9523
 20
48.2977
 30
-1.93772e-14
  70
    32
  0
VERTEX
  8
0
  5
2D09
 10
-86.9061
 20
48.2859
 30
-1.93659e-14
  70
    32
  0
VERTEX
  8
0
  5
2D0A
 10
-86.8596
 20
48.2744
 30
-1.93543e-14
  70
    32
  0
VERTEX
  8
0
  5
2D0B
 10
-86.8129
 20
48.2633
 30
-1.93427e-14
  70
    32
  0
VERTEX
  8
0
  5
2D0C
 10
-86.7659
 20
48.2525
 30
-1.93310e-14
  70
    32
  0
VERTEX
  8
0
  5
2D0D
 10
-86.7186
 20
48.2420
 30
-1.93191e-14
  70
    32
  0
VERTEX
  8
0
  5
2D0E
 10
-86.6710
 20
48.2319
 30
-1.93071e-14
  70
    32
  0
VERTEX
  8
0
  5
2D0F
 10
-86.6231
 20
48.2221
 30
-1.92951e-14
  70
    32
  0
VERTEX
  8
0
  5
2D10
 10
-86.5749
 20
48.2127
 30
-1.92829e-14
  70
    32
  0
VERTEX
  8
0
  5
2D11
 10
-86.5264
 20
48.2036
 30
-1.92706e-14
  70
    32
  0
VERTEX
  8
0
  5
2D12
 10
-86.4776
 20
48.1949
 30
-1.92583e-14
  70
    32
  0
VERTEX
  8
0
  5
2D13
 10
-86.4286
 20
48.1866
 30
-1.92458e-14
  70
    32
  0
VERTEX
  8
0
  5
2D14
 10
-86.3793
 20
48.1787
 30
-1.92333e-14
  70
    32
  0
VERTEX
  8
0
  5
2D15
 10
-86.3296
 20
48.1711
 30
-1.92207e-14
  70
    32
  0
VERTEX
  8
0
  5
2D16
 10
-86.2797
 20
48.1640
 30
-1.92081e-14
  70
    32
  0
VERTEX
  8
0
  5
2D17
 10
-86.2295
 20
48.1572
 30
-1.91953e-14
  70
    32
  0
VERTEX
  8
0
  5
2D18
 10
-86.1790
 20
48.1508
 30
-1.91826e-14
  70
    32
  0
VERTEX
  8
0
  5
2D19
 10
-86.1283
 20
48.1449
 30
-1.91697e-14
  70
    32
  0
VERTEX
  8
0
  5
2D1A
 10
-86.0772
 20
48.1393
 30
-1.91568e-14
  70
    32
  0
VERTEX
  8
0
  5
2D1B
 10
-86.0258
 20
48.1342
 30
-1.91439e-14
  70
    32
  0
VERTEX
  8
0
  5
2D1C
 10
-85.9742
 20
48.1295
 30
-1.91309e-14
  70
    32
  0
VERTEX
  8
0
  5
2D1D
 10
-85.9223
 20
48.1252
 30
-1.91179e-14
  70
    32
  0
VERTEX
  8
0
  5
2D1E
 10
-85.8701
 20
48.1214
 30
-1.91048e-14
  70
    32
  0
VERTEX
  8
0
  5
2D1F
 10
-85.8176
 20
48.1180
 30
-1.90917e-14
  70
    32
  0
VERTEX
  8
0
  5
2D20
 10
-85.7648
 20
48.1150
 30
-1.90786e-14
  70
    32
  0
VERTEX
  8
0
  5
2D21
 10
-85.7117
 20
48.1125
 30
-1.90655e-14
  70
    32
  0
VERTEX
  8
0
  5
2D22
 10
-85.6583
 20
48.1104
 30
-1.90523e-14
  70
    32
  0
VERTEX
  8
0
  5
2D23
 10
-85.6047
 20
48.1088
 30
-1.90392e-14
  70
    32
  0
VERTEX
  8
0
  5
2D24
 10
-85.5507
 20
48.1077
 30
-1.90260e-14
  70
    32
  0
VERTEX
  8
0
  5
2D25
 10
-85.4965
 20
48.1070
 30
-1.90128e-14
  70
    32
  0
VERTEX
  8
0
  5
2D26
 10
-85.4416
 20
48.1069
 30
-1.90004e-14
  70
    32
  0
VERTEX
  8
0
  5
2D27
 10
-85.3761
 20
48.1069
 30
-1.89874e-14
  70
    32
  0
VERTEX
  8
0
  5
2D28
 10
-85.3093
 20
48.1069
 30
-1.89727e-14
  70
    32
  0
VERTEX
  8
0
  5
2D29
 10
-85.2425
 20
48.1069
 30
-1.89579e-14
  70
    32
  0
VERTEX
  8
0
  5
2D2A
 10
-85.1757
 20
48.1069
 30
-1.89432e-14
  70
    32
  0
VERTEX
  8
0
  5
2D2B
 10
-85.1090
 20
48.1069
 30
-1.89284e-14
  70
    32
  0
VERTEX
  8
0
  5
2D2C
 10
-85.0422
 20
48.1069
 30
-1.89137e-14
  70
    32
  0
VERTEX
  8
0
  5
2D2D
 10
-84.9754
 20
48.1069
 30
-1.88989e-14
  70
    32
  0
VERTEX
  8
0
  5
2D2E
 10
-84.9086
 20
48.1069
 30
-1.88842e-14
  70
    32
  0
VERTEX
  8
0
  5
2D2F
 10
-84.8418
 20
48.1069
 30
-1.88694e-14
  70
    32
  0
VERTEX
  8
0
  5
2D30
 10
-84.7750
 20
48.1069
 30
-1.88546e-14
  70
    32
  0
VERTEX
  8
0
  5
2D31
 10
-84.7082
 20
48.1069
 30
-1.88399e-14
  70
    32
  0
VERTEX
  8
0
  5
2D32
 10
-84.6415
 20
48.1069
 30
-1.88251e-14
  70
    32
  0
VERTEX
  8
0
  5
2D33
 10
-84.5747
 20
48.1069
 30
-1.88104e-14
  70
    32
  0
VERTEX
  8
0
  5
2D34
 10
-84.5079
 20
48.1069
 30
-1.87956e-14
  70
    32
  0
VERTEX
  8
0
  5
2D35
 10
-84.4411
 20
48.1069
 30
-1.87808e-14
  70
    32
  0
VERTEX
  8
0
  5
2D36
 10
-84.3743
 20
48.1069
 30
-1.87661e-14
  70
    32
  0
VERTEX
  8
0
  5
2D37
 10
-84.3075
 20
48.1069
 30
-1.87513e-14
  70
    32
  0
VERTEX
  8
0
  5
2D38
 10
-84.2407
 20
48.1069
 30
-1.87365e-14
  70
    32
  0
VERTEX
  8
0
  5
2D39
 10
-84.1740
 20
48.1069
 30
-1.87218e-14
  70
    32
  0
VERTEX
  8
0
  5
2D3A
 10
-84.1072
 20
48.1069
 30
-1.87070e-14
  70
    32
  0
VERTEX
  8
0
  5
2D3B
 10
-84.0404
 20
48.1069
 30
-1.86922e-14
  70
    32
  0
VERTEX
  8
0
  5
2D3C
 10
-83.9736
 20
48.1069
 30
-1.86775e-14
  70
    32
  0
VERTEX
  8
0
  5
2D3D
 10
-83.9068
 20
48.1069
 30
-1.86627e-14
  70
    32
  0
VERTEX
  8
0
  5
2D3E
 10
-83.8400
 20
48.1069
 30
-1.86479e-14
  70
    32
  0
VERTEX
  8
0
  5
2D3F
 10
-83.7732
 20
48.1069
 30
-1.86332e-14
  70
    32
  0
VERTEX
  8
0
  5
2D40
 10
-83.7064
 20
48.1069
 30
-1.86184e-14
  70
    32
  0
VERTEX
  8
0
  5
2D41
 10
-83.6397
 20
48.1069
 30
-1.86036e-14
  70
    32
  0
VERTEX
  8
0
  5
2D42
 10
-83.5729
 20
48.1069
 30
-1.85889e-14
  70
    32
  0
VERTEX
  8
0
  5
2D43
 10
-83.5061
 20
48.1069
 30
-1.85741e-14
  70
    32
  0
VERTEX
  8
0
  5
2D44
 10
-83.4393
 20
48.1069
 30
-1.85593e-14
  70
    32
  0
VERTEX
  8
0
  5
2D45
 10
-83.3725
 20
48.1069
 30
-1.85445e-14
  70
    32
  0
VERTEX
  8
0
  5
2D46
 10
-83.3057
 20
48.1069
 30
-1.85298e-14
  70
    32
  0
VERTEX
  8
0
  5
2D47
 10
-83.2389
 20
48.1069
 30
-1.85150e-14
  70
    32
  0
VERTEX
  8
0
  5
2D48
 10
-83.1722
 20
48.1069
 30
-1.85002e-14
  70
    32
  0
VERTEX
  8
0
  5
2D49
 10
-83.1054
 20
48.1069
 30
-1.84855e-14
  70
    32
  0
VERTEX
  8
0
  5
2D4A
 10
-83.0386
 20
48.1069
 30
-1.84707e-14
  70
    32
  0
VERTEX
  8
0
  5
2D4B
 10
-82.9718
 20
48.1069
 30
-1.84559e-14
  70
    32
  0
VERTEX
  8
0
  5
2D4C
 10
-82.9050
 20
48.1069
 30
-1.84411e-14
  70
    32
  0
VERTEX
  8
0
  5
2D4D
 10
-82.8382
 20
48.1069
 30
-1.84263e-14
  70
    32
  0
VERTEX
  8
0
  5
2D4E
 10
-82.7714
 20
48.1069
 30
-1.84116e-14
  70
    32
  0
VERTEX
  8
0
  5
2D4F
 10
-82.7047
 20
48.1069
 30
-1.83968e-14
  70
    32
  0
VERTEX
  8
0
  5
2D50
 10
-82.6379
 20
48.1069
 30
-1.83820e-14
  70
    32
  0
VERTEX
  8
0
  5
2D51
 10
-82.5711
 20
48.1069
 30
-1.83672e-14
  70
    32
  0
VERTEX
  8
0
  5
2D52
 10
-82.5043
 20
48.1069
 30
-1.83525e-14
  70
    32
  0
VERTEX
  8
0
  5
2D53
 10
-82.4375
 20
48.1069
 30
-1.83377e-14
  70
    32
  0
VERTEX
  8
0
  5
2D54
 10
-82.3707
 20
48.1069
 30
-1.83229e-14
  70
    32
  0
VERTEX
  8
0
  5
2D55
 10
-82.3039
 20
48.1069
 30
-1.83081e-14
  70
    32
  0
VERTEX
  8
0
  5
2D56
 10
-82.2372
 20
48.1069
 30
-1.82933e-14
  70
    32
  0
VERTEX
  8
0
  5
2D57
 10
-82.1704
 20
48.1069
 30
-1.82785e-14
  70
    32
  0
VERTEX
  8
0
  5
2D58
 10
-82.1036
 20
48.1069
 30
-1.82638e-14
  70
    32
  0
VERTEX
  8
0
  5
2D59
 10
-82.0368
 20
48.1069
 30
-1.82490e-14
  70
    32
  0
VERTEX
  8
0
  5
2D5A
 10
-81.9700
 20
48.1069
 30
-1.82342e-14
  70
    32
  0
VERTEX
  8
0
  5
2D5B
 10
-81.9032
 20
48.1069
 30
-1.82194e-14
  70
    32
  0
VERTEX
  8
0
  5
2D5C
 10
-81.8364
 20
48.1069
 30
-1.82046e-14
  70
    32
  0
VERTEX
  8
0
  5
2D5D
 10
-81.7697
 20
48.1069
 30
-1.81898e-14
  70
    32
  0
VERTEX
  8
0
  5
2D5E
 10
-81.7029
 20
48.1069
 30
-1.81751e-14
  70
    32
  0
VERTEX
  8
0
  5
2D5F
 10
-81.6361
 20
48.1069
 30
-1.81603e-14
  70
    32
  0
VERTEX
  8
0
  5
2D60
 10
-81.5693
 20
48.1069
 30
-1.81455e-14
  70
    32
  0
VERTEX
  8
0
  5
2D61
 10
-81.5025
 20
48.1069
 30
-1.81307e-14
  70
    32
  0
VERTEX
  8
0
  5
2D62
 10
-81.4357
 20
48.1069
 30
-1.81159e-14
  70
    32
  0
VERTEX
  8
0
  5
2D63
 10
-81.3689
 20
48.1069
 30
-1.81011e-14
  70
    32
  0
VERTEX
  8
0
  5
2D64
 10
-81.3021
 20
48.1069
 30
-1.80863e-14
  70
    32
  0
VERTEX
  8
0
  5
2D65
 10
-81.2354
 20
48.1069
 30
-1.80715e-14
  70
    32
  0
VERTEX
  8
0
  5
2D66
 10
-81.1686
 20
48.1069
 30
-1.80568e-14
  70
    32
  0
VERTEX
  8
0
  5
2D67
 10
-81.1018
 20
48.1069
 30
-1.80420e-14
  70
    32
  0
VERTEX
  8
0
  5
2D68
 10
-81.0350
 20
48.1069
 30
-1.80272e-14
  70
    32
  0
VERTEX
  8
0
  5
2D69
 10
-80.9682
 20
48.1069
 30
-1.80124e-14
  70
    32
  0
VERTEX
  8
0
  5
2D6A
 10
-80.9014
 20
48.1069
 30
-1.79976e-14
  70
    32
  0
VERTEX
  8
0
  5
2D6B
 10
-80.8346
 20
48.1069
 30
-1.79828e-14
  70
    32
  0
VERTEX
  8
0
  5
2D6C
 10
-80.7679
 20
48.1069
 30
-1.79680e-14
  70
    32
  0
VERTEX
  8
0
  5
2D6D
 10
-80.7011
 20
48.1069
 30
-1.79532e-14
  70
    32
  0
VERTEX
  8
0
  5
2D6E
 10
-80.6343
 20
48.1069
 30
-1.79384e-14
  70
    32
  0
VERTEX
  8
0
  5
2D6F
 10
-80.5675
 20
48.1069
 30
-1.79236e-14
  70
    32
  0
VERTEX
  8
0
  5
2D70
 10
-80.5007
 20
48.1069
 30
-1.79088e-14
  70
    32
  0
VERTEX
  8
0
  5
2D71
 10
-80.4339
 20
48.1069
 30
-1.78940e-14
  70
    32
  0
VERTEX
  8
0
  5
2D72
 10
-80.3671
 20
48.1069
 30
-1.78793e-14
  70
    32
  0
VERTEX
  8
0
  5
2D73
 10
-80.3004
 20
48.1069
 30
-1.78645e-14
  70
    32
  0
VERTEX
  8
0
  5
2D74
 10
-80.2336
 20
48.1069
 30
-1.78497e-14
  70
    32
  0
VERTEX
  8
0
  5
2D75
 10
-80.1668
 20
48.1069
 30
-1.78349e-14
  70
    32
  0
VERTEX
  8
0
  5
2D76
 10
-80.1000
 20
48.1069
 30
-1.78201e-14
  70
    32
  0
VERTEX
  8
0
  5
2D77
 10
-80.0332
 20
48.1069
 30
-1.78053e-14
  70
    32
  0
VERTEX
  8
0
  5
2D78
 10
-79.9664
 20
48.1069
 30
-1.77905e-14
  70
    32
  0
VERTEX
  8
0
  5
2D79
 10
-79.8996
 20
48.1069
 30
-1.77757e-14
  70
    32
  0
VERTEX
  8
0
  5
2D7A
 10
-79.8329
 20
48.1069
 30
-1.77609e-14
  70
    32
  0
VERTEX
  8
0
  5
2D7B
 10
-79.7661
 20
48.1069
 30
-1.77461e-14
  70
    32
  0
VERTEX
  8
0
  5
2D7C
 10
-79.6993
 20
48.1069
 30
-1.77313e-14
  70
    32
  0
VERTEX
  8
0
  5
2D7D
 10
-79.6325
 20
48.1069
 30
-1.77165e-14
  70
    32
  0
VERTEX
  8
0
  5
2D7E
 10
-79.5657
 20
48.1069
 30
-1.77017e-14
  70
    32
  0
VERTEX
  8
0
  5
2D7F
 10
-79.4989
 20
48.1069
 30
-1.76869e-14
  70
    32
  0
VERTEX
  8
0
  5
2D80
 10
-79.4321
 20
48.1069
 30
-1.76721e-14
  70
    32
  0
VERTEX
  8
0
  5
2D81
 10
-79.3654
 20
48.1069
 30
-1.76573e-14
  70
    32
  0
VERTEX
  8
0
  5
2D82
 10
-79.2986
 20
48.1069
 30
-1.76425e-14
  70
    32
  0
VERTEX
  8
0
  5
2D83
 10
-79.2318
 20
48.1069
 30
-1.76277e-14
  70
    32
  0
VERTEX
  8
0
  5
2D84
 10
-79.1650
 20
48.1069
 30
-1.76129e-14
  70
    32
  0
VERTEX
  8
0
  5
2D85
 10
-79.0982
 20
48.1069
 30
-1.75981e-14
  70
    32
  0
VERTEX
  8
0
  5
2D86
 10
-79.0314
 20
48.1069
 30
-1.75833e-14
  70
    32
  0
VERTEX
  8
0
  5
2D87
 10
-78.9646
 20
48.1069
 30
-1.75685e-14
  70
    32
  0
VERTEX
  8
0
  5
2D88
 10
-78.8978
 20
48.1069
 30
-1.75537e-14
  70
    32
  0
VERTEX
  8
0
  5
2D89
 10
-78.8311
 20
48.1069
 30
-1.75389e-14
  70
    32
  0
VERTEX
  8
0
  5
2D8A
 10
-78.7643
 20
48.1069
 30
-1.75241e-14
  70
    32
  0
VERTEX
  8
0
  5
2D8B
 10
-78.6975
 20
48.1069
 30
-1.75093e-14
  70
    32
  0
VERTEX
  8
0
  5
2D8C
 10
-78.6307
 20
48.1069
 30
-1.74945e-14
  70
    32
  0
VERTEX
  8
0
  5
2D8D
 10
-78.5639
 20
48.1069
 30
-1.74797e-14
  70
    32
  0
VERTEX
  8
0
  5
2D8E
 10
-78.4971
 20
48.1069
 30
-1.74649e-14
  70
    32
  0
VERTEX
  8
0
  5
2D8F
 10
-78.4303
 20
48.1069
 30
-1.74501e-14
  70
    32
  0
VERTEX
  8
0
  5
2D90
 10
-78.3636
 20
48.1069
 30
-1.74353e-14
  70
    32
  0
VERTEX
  8
0
  5
2D91
 10
-78.2968
 20
48.1069
 30
-1.74205e-14
  70
    32
  0
VERTEX
  8
0
  5
2D92
 10
-78.2300
 20
48.1069
 30
-1.74057e-14
  70
    32
  0
VERTEX
  8
0
  5
2D93
 10
-78.1632
 20
48.1069
 30
-1.73909e-14
  70
    32
  0
VERTEX
  8
0
  5
2D94
 10
-78.0964
 20
48.1069
 30
-1.73761e-14
  70
    32
  0
VERTEX
  8
0
  5
2D95
 10
-78.0296
 20
48.1069
 30
-1.73613e-14
  70
    32
  0
VERTEX
  8
0
  5
2D96
 10
-77.9628
 20
48.1069
 30
-1.73465e-14
  70
    32
  0
VERTEX
  8
0
  5
2D97
 10
-77.8961
 20
48.1069
 30
-1.73317e-14
  70
    32
  0
VERTEX
  8
0
  5
2D98
 10
-77.8293
 20
48.1069
 30
-1.73169e-14
  70
    32
  0
VERTEX
  8
0
  5
2D99
 10
-77.7625
 20
48.1069
 30
-1.73021e-14
  70
    32
  0
VERTEX
  8
0
  5
2D9A
 10
-77.6957
 20
48.1069
 30
-1.72873e-14
  70
    32
  0
VERTEX
  8
0
  5
2D9B
 10
-77.6289
 20
48.1069
 30
-1.72725e-14
  70
    32
  0
VERTEX
  8
0
  5
2D9C
 10
-77.5621
 20
48.1069
 30
-1.72576e-14
  70
    32
  0
VERTEX
  8
0
  5
2D9D
 10
-77.4953
 20
48.1069
 30
-1.72428e-14
  70
    32
  0
VERTEX
  8
0
  5
2D9E
 10
-77.4286
 20
48.1069
 30
-1.72280e-14
  70
    32
  0
VERTEX
  8
0
  5
2D9F
 10
-77.3618
 20
48.1069
 30
-1.72132e-14
  70
    32
  0
VERTEX
  8
0
  5
2DA0
 10
-77.2950
 20
48.1069
 30
-1.71984e-14
  70
    32
  0
VERTEX
  8
0
  5
2DA1
 10
-77.2282
 20
48.1069
 30
-1.71836e-14
  70
    32
  0
VERTEX
  8
0
  5
2DA2
 10
-77.1614
 20
48.1069
 30
-1.71688e-14
  70
    32
  0
VERTEX
  8
0
  5
2DA3
 10
-77.0946
 20
48.1069
 30
-1.71540e-14
  70
    32
  0
VERTEX
  8
0
  5
2DA4
 10
-77.0278
 20
48.1069
 30
-1.71392e-14
  70
    32
  0
VERTEX
  8
0
  5
2DA5
 10
-76.9611
 20
48.1069
 30
-1.71244e-14
  70
    32
  0
VERTEX
  8
0
  5
2DA6
 10
-76.8943
 20
48.1069
 30
-1.71096e-14
  70
    32
  0
VERTEX
  8
0
  5
2DA7
 10
-76.8275
 20
48.1069
 30
-1.70948e-14
  70
    32
  0
VERTEX
  8
0
  5
2DA8
 10
-76.7607
 20
48.1069
 30
-1.70800e-14
  70
    32
  0
VERTEX
  8
0
  5
2DA9
 10
-76.6939
 20
48.1069
 30
-1.70652e-14
  70
    32
  0
VERTEX
  8
0
  5
2DAA
 10
-76.6271
 20
48.1069
 30
-1.70504e-14
  70
    32
  0
VERTEX
  8
0
  5
2DAB
 10
-76.5603
 20
48.1069
 30
-1.70356e-14
  70
    32
  0
VERTEX
  8
0
  5
2DAC
 10
-76.4935
 20
48.1069
 30
-1.70208e-14
  70
    32
  0
VERTEX
  8
0
  5
2DAD
 10
-76.4268
 20
48.1069
 30
-1.70060e-14
  70
    32
  0
VERTEX
  8
0
  5
2DAE
 10
-76.3600
 20
48.1069
 30
-1.69912e-14
  70
    32
  0
VERTEX
  8
0
  5
2DAF
 10
-76.2932
 20
48.1069
 30
-1.69763e-14
  70
    32
  0
VERTEX
  8
0
  5
2DB0
 10
-76.2264
 20
48.1069
 30
-1.69615e-14
  70
    32
  0
VERTEX
  8
0
  5
2DB1
 10
-76.1596
 20
48.1069
 30
-1.69467e-14
  70
    32
  0
VERTEX
  8
0
  5
2DB2
 10
-76.0928
 20
48.1069
 30
-1.69319e-14
  70
    32
  0
VERTEX
  8
0
  5
2DB3
 10
-76.0260
 20
48.1069
 30
-1.69171e-14
  70
    32
  0
VERTEX
  8
0
  5
2DB4
 10
-75.9593
 20
48.1069
 30
-1.69023e-14
  70
    32
  0
VERTEX
  8
0
  5
2DB5
 10
-75.8923
 20
48.1069
 30
-1.68909e-14
  70
    32
  0
VERTEX
  8
0
  5
2DB6
 10
-75.8250
 20
48.1069
 30
-1.68794e-14
  70
    32
  0
VERTEX
  8
0
  5
2DB7
 10
-75.7572
 20
48.1069
 30
-1.68672e-14
  70
    32
  0
VERTEX
  8
0
  5
2DB8
 10
-75.6890
 20
48.1069
 30
-1.68544e-14
  70
    32
  0
VERTEX
  8
0
  5
2DB9
 10
-75.6204
 20
48.1069
 30
-1.68410e-14
  70
    32
  0
VERTEX
  8
0
  5
2DBA
 10
-75.5513
 20
48.1069
 30
-1.68271e-14
  70
    32
  0
VERTEX
  8
0
  5
2DBB
 10
-75.4818
 20
48.1069
 30
-1.68126e-14
  70
    32
  0
VERTEX
  8
0
  5
2DBC
 10
-75.4118
 20
48.1069
 30
-1.67977e-14
  70
    32
  0
VERTEX
  8
0
  5
2DBD
 10
-75.3414
 20
48.1069
 30
-1.67823e-14
  70
    32
  0
VERTEX
  8
0
  5
2DBE
 10
-75.2705
 20
48.1069
 30
-1.67665e-14
  70
    32
  0
VERTEX
  8
0
  5
2DBF
 10
-75.1991
 20
48.1069
 30
-1.67504e-14
  70
    32
  0
VERTEX
  8
0
  5
2DC0
 10
-75.1273
 20
48.1069
 30
-1.67340e-14
  70
    32
  0
VERTEX
  8
0
  5
2DC1
 10
-75.0550
 20
48.1069
 30
-1.67172e-14
  70
    32
  0
VERTEX
  8
0
  5
2DC2
 10
-74.9823
 20
48.1069
 30
-1.67002e-14
  70
    32
  0
VERTEX
  8
0
  5
2DC3
 10
-74.9090
 20
48.1069
 30
-1.66830e-14
  70
    32
  0
VERTEX
  8
0
  5
2DC4
 10
-74.8353
 20
48.1069
 30
-1.66657e-14
  70
    32
  0
VERTEX
  8
0
  5
2DC5
 10
-74.7611
 20
48.1069
 30
-1.66482e-14
  70
    32
  0
VERTEX
  8
0
  5
2DC6
 10
-74.6863
 20
48.1069
 30
-1.66306e-14
  70
    32
  0
VERTEX
  8
0
  5
2DC7
 10
-74.6111
 20
48.1069
 30
-1.66129e-14
  70
    32
  0
VERTEX
  8
0
  5
2DC8
 10
-74.5354
 20
48.1069
 30
-1.65953e-14
  70
    32
  0
VERTEX
  8
0
  5
2DC9
 10
-74.4592
 20
48.1069
 30
-1.65776e-14
  70
    32
  0
VERTEX
  8
0
  5
2DCA
 10
-74.3824
 20
48.1069
 30
-1.65601e-14
  70
    32
  0
VERTEX
  8
0
  5
2DCB
 10
-74.3051
 20
48.1069
 30
-1.65426e-14
  70
    32
  0
VERTEX
  8
0
  5
2DCC
 10
-74.2273
 20
48.1069
 30
-1.65252e-14
  70
    32
  0
VERTEX
  8
0
  5
2DCD
 10
-74.1490
 20
48.1069
 30
-1.65081e-14
  70
    32
  0
VERTEX
  8
0
  5
2DCE
 10
-74.0701
 20
48.1069
 30
-1.64911e-14
  70
    32
  0
VERTEX
  8
0
  5
2DCF
 10
-73.9907
 20
48.1069
 30
-1.64744e-14
  70
    32
  0
VERTEX
  8
0
  5
2DD0
 10
-73.9108
 20
48.1069
 30
-1.64580e-14
  70
    32
  0
VERTEX
  8
0
  5
2DD1
 10
-73.8302
 20
48.1069
 30
-1.64422e-14
  70
    32
  0
VERTEX
  8
0
  5
2DD2
 10
-73.7482
 20
48.1069
 30
-1.64288e-14
  70
    32
  0
VERTEX
  8
0
  5
2DD3
 10
-73.6645
 20
48.1069
 30
-1.64173e-14
  70
    32
  0
VERTEX
  8
0
  5
2DD4
 10
-73.5792
 20
48.1069
 30
-1.64067e-14
  70
    32
  0
VERTEX
  8
0
  5
2DD5
 10
-73.4920
 20
48.1069
 30
-1.63956e-14
  70
    32
  0
VERTEX
  8
0
  5
2DD6
 10
-73.4029
 20
48.1069
 30
-1.63830e-14
  70
    32
  0
VERTEX
  8
0
  5
2DD7
 10
-73.3120
 20
48.1069
 30
-1.63677e-14
  70
    32
  0
VERTEX
  8
0
  5
2DD8
 10
-73.2191
 20
48.1069
 30
-1.63484e-14
  70
    32
  0
VERTEX
  8
0
  5
2DD9
 10
-73.1241
 20
48.1069
 30
-1.63240e-14
  70
    32
  0
VERTEX
  8
0
  5
2DDA
 10
-73.0280
 20
48.1069
 30
-1.62943e-14
  70
    32
  0
VERTEX
  8
0
  5
2DDB
 10
-72.9383
 20
48.1068
 30
-1.62659e-14
  70
    32
  0
VERTEX
  8
0
  5
2DDC
 10
-72.8563
 20
48.1068
 30
-1.62403e-14
  70
    32
  0
VERTEX
  8
0
  5
2DDD
 10
-72.7814
 20
48.1067
 30
-1.62175e-14
  70
    32
  0
VERTEX
  8
0
  5
2DDE
 10
-72.7132
 20
48.1066
 30
-1.61971e-14
  70
    32
  0
VERTEX
  8
0
  5
2DDF
 10
-72.6511
 20
48.1066
 30
-1.61789e-14
  70
    32
  0
VERTEX
  8
0
  5
2DE0
 10
-72.5946
 20
48.1065
 30
-1.61629e-14
  70
    32
  0
VERTEX
  8
0
  5
2DE1
 10
-72.5432
 20
48.1066
 30
-1.61488e-14
  70
    32
  0
VERTEX
  8
0
  5
2DE2
 10
-72.4964
 20
48.1066
 30
-1.61363e-14
  70
    32
  0
VERTEX
  8
0
  5
2DE3
 10
-72.4536
 20
48.1068
 30
-1.61254e-14
  70
    32
  0
VERTEX
  8
0
  5
2DE4
 10
-72.4142
 20
48.1070
 30
-1.61158e-14
  70
    32
  0
VERTEX
  8
0
  5
2DE5
 10
-72.3779
 20
48.1074
 30
-1.61073e-14
  70
    32
  0
VERTEX
  8
0
  5
2DE6
 10
-72.3440
 20
48.1078
 30
-1.60997e-14
  70
    32
  0
VERTEX
  8
0
  5
2DE7
 10
-72.3121
 20
48.1084
 30
-1.60929e-14
  70
    32
  0
VERTEX
  8
0
  5
2DE8
 10
-72.2815
 20
48.1091
 30
-1.60866e-14
  70
    32
  0
VERTEX
  8
0
  5
2DE9
 10
-72.2519
 20
48.1100
 30
-1.60807e-14
  70
    32
  0
VERTEX
  8
0
  5
2DEA
 10
-72.2226
 20
48.1110
 30
-1.60750e-14
  70
    32
  0
VERTEX
  8
0
  5
2DEB
 10
-72.1931
 20
48.1122
 30
-1.60692e-14
  70
    32
  0
VERTEX
  8
0
  5
2DEC
 10
-72.1629
 20
48.1136
 30
-1.60632e-14
  70
    32
  0
VERTEX
  8
0
  5
2DED
 10
-72.1316
 20
48.1152
 30
-1.60567e-14
  70
    32
  0
VERTEX
  8
0
  5
2DEE
 10
-72.0987
 20
48.1171
 30
-1.60498e-14
  70
    32
  0
VERTEX
  8
0
  5
2DEF
 10
-72.0655
 20
48.1191
 30
-1.60427e-14
  70
    32
  0
VERTEX
  8
0
  5
2DF0
 10
-72.0323
 20
48.1213
 30
-1.60355e-14
  70
    32
  0
VERTEX
  8
0
  5
2DF1
 10
-71.9990
 20
48.1237
 30
-1.60283e-14
  70
    32
  0
VERTEX
  8
0
  5
2DF2
 10
-71.9656
 20
48.1263
 30
-1.60210e-14
  70
    32
  0
VERTEX
  8
0
  5
2DF3
 10
-71.9321
 20
48.1291
 30
-1.60136e-14
  70
    32
  0
VERTEX
  8
0
  5
2DF4
 10
-71.8986
 20
48.1321
 30
-1.60062e-14
  70
    32
  0
VERTEX
  8
0
  5
2DF5
 10
-71.8650
 20
48.1352
 30
-1.59988e-14
  70
    32
  0
VERTEX
  8
0
  5
2DF6
 10
-71.8313
 20
48.1386
 30
-1.59913e-14
  70
    32
  0
VERTEX
  8
0
  5
2DF7
 10
-71.7975
 20
48.1421
 30
-1.59837e-14
  70
    32
  0
VERTEX
  8
0
  5
2DF8
 10
-71.7637
 20
48.1459
 30
-1.59761e-14
  70
    32
  0
VERTEX
  8
0
  5
2DF9
 10
-71.7298
 20
48.1499
 30
-1.59685e-14
  70
    32
  0
VERTEX
  8
0
  5
2DFA
 10
-71.6959
 20
48.1540
 30
-1.59608e-14
  70
    32
  0
VERTEX
  8
0
  5
2DFB
 10
-71.6619
 20
48.1584
 30
-1.59530e-14
  70
    32
  0
VERTEX
  8
0
  5
2DFC
 10
-71.6278
 20
48.1630
 30
-1.59452e-14
  70
    32
  0
VERTEX
  8
0
  5
2DFD
 10
-71.5937
 20
48.1678
 30
-1.59374e-14
  70
    32
  0
VERTEX
  8
0
  5
2DFE
 10
-71.5595
 20
48.1727
 30
-1.59296e-14
  70
    32
  0
VERTEX
  8
0
  5
2DFF
 10
-71.5252
 20
48.1779
 30
-1.59217e-14
  70
    32
  0
VERTEX
  8
0
  5
2E00
 10
-71.4909
 20
48.1834
 30
-1.59137e-14
  70
    32
  0
VERTEX
  8
0
  5
2E01
 10
-71.4565
 20
48.1890
 30
-1.59058e-14
  70
    32
  0
VERTEX
  8
0
  5
2E02
 10
-71.4221
 20
48.1948
 30
-1.58978e-14
  70
    32
  0
VERTEX
  8
0
  5
2E03
 10
-71.3876
 20
48.2009
 30
-1.58897e-14
  70
    32
  0
VERTEX
  8
0
  5
2E04
 10
-71.3530
 20
48.2072
 30
-1.58817e-14
  70
    32
  0
VERTEX
  8
0
  5
2E05
 10
-71.3184
 20
48.2137
 30
-1.58736e-14
  70
    32
  0
VERTEX
  8
0
  5
2E06
 10
-71.2838
 20
48.2204
 30
-1.58655e-14
  70
    32
  0
VERTEX
  8
0
  5
2E07
 10
-71.2491
 20
48.2274
 30
-1.58574e-14
  70
    32
  0
VERTEX
  8
0
  5
2E08
 10
-71.2143
 20
48.2345
 30
-1.58493e-14
  70
    32
  0
VERTEX
  8
0
  5
2E09
 10
-71.1795
 20
48.2419
 30
-1.58411e-14
  70
    32
  0
VERTEX
  8
0
  5
2E0A
 10
-71.1446
 20
48.2496
 30
-1.58329e-14
  70
    32
  0
VERTEX
  8
0
  5
2E0B
 10
-71.1097
 20
48.2574
 30
-1.58247e-14
  70
    32
  0
VERTEX
  8
0
  5
2E0C
 10
-71.0748
 20
48.2655
 30
-1.58165e-14
  70
    32
  0
VERTEX
  8
0
  5
2E0D
 10
-71.0398
 20
48.2739
 30
-1.58083e-14
  70
    32
  0
VERTEX
  8
0
  5
2E0E
 10
-71.0047
 20
48.2825
 30
-1.58001e-14
  70
    32
  0
VERTEX
  8
0
  5
2E0F
 10
-70.9696
 20
48.2913
 30
-1.57919e-14
  70
    32
  0
VERTEX
  8
0
  5
2E10
 10
-70.9345
 20
48.3003
 30
-1.57836e-14
  70
    32
  0
VERTEX
  8
0
  5
2E11
 10
-70.8993
 20
48.3096
 30
-1.57754e-14
  70
    32
  0
VERTEX
  8
0
  5
2E12
 10
-70.8641
 20
48.3191
 30
-1.57671e-14
  70
    32
  0
VERTEX
  8
0
  5
2E13
 10
-70.8288
 20
48.3289
 30
-1.57589e-14
  70
    32
  0
VERTEX
  8
0
  5
2E14
 10
-70.7935
 20
48.3389
 30
-1.57506e-14
  70
    32
  0
VERTEX
  8
0
  5
2E15
 10
-70.7582
 20
48.3492
 30
-1.57424e-14
  70
    32
  0
VERTEX
  8
0
  5
2E16
 10
-70.7228
 20
48.3597
 30
-1.57342e-14
  70
    32
  0
VERTEX
  8
0
  5
2E17
 10
-70.6874
 20
48.3705
 30
-1.57259e-14
  70
    32
  0
VERTEX
  8
0
  5
2E18
 10
-70.6519
 20
48.3815
 30
-1.57177e-14
  70
    32
  0
VERTEX
  8
0
  5
2E19
 10
-70.6164
 20
48.3928
 30
-1.57095e-14
  70
    32
  0
VERTEX
  8
0
  5
2E1A
 10
-70.5809
 20
48.4044
 30
-1.57013e-14
  70
    32
  0
VERTEX
  8
0
  5
2E1B
 10
-70.5454
 20
48.4162
 30
-1.56931e-14
  70
    32
  0
VERTEX
  8
0
  5
2E1C
 10
-70.5098
 20
48.4282
 30
-1.56850e-14
  70
    32
  0
VERTEX
  8
0
  5
2E1D
 10
-70.4742
 20
48.4405
 30
-1.56768e-14
  70
    32
  0
VERTEX
  8
0
  5
2E1E
 10
-70.4385
 20
48.4531
 30
-1.56687e-14
  70
    32
  0
VERTEX
  8
0
  5
2E1F
 10
-70.4029
 20
48.4660
 30
-1.56606e-14
  70
    32
  0
VERTEX
  8
0
  5
2E20
 10
-70.3672
 20
48.4791
 30
-1.56525e-14
  70
    32
  0
VERTEX
  8
0
  5
2E21
 10
-70.3314
 20
48.4925
 30
-1.56444e-14
  70
    32
  0
VERTEX
  8
0
  5
2E22
 10
-70.2957
 20
48.5061
 30
-1.56364e-14
  70
    32
  0
VERTEX
  8
0
  5
2E23
 10
-70.2599
 20
48.5200
 30
-1.56284e-14
  70
    32
  0
VERTEX
  8
0
  5
2E24
 10
-70.2241
 20
48.5342
 30
-1.56204e-14
  70
    32
  0
VERTEX
  8
0
  5
2E25
 10
-70.1883
 20
48.5487
 30
-1.56125e-14
  70
    32
  0
VERTEX
  8
0
  5
2E26
 10
-70.1525
 20
48.5635
 30
-1.56046e-14
  70
    32
  0
VERTEX
  8
0
  5
2E27
 10
-70.1166
 20
48.5785
 30
-1.55967e-14
  70
    32
  0
VERTEX
  8
0
  5
2E28
 10
-70.0807
 20
48.5938
 30
-1.55888e-14
  70
    32
  0
VERTEX
  8
0
  5
2E29
 10
-70.0448
 20
48.6094
 30
-1.55810e-14
  70
    32
  0
VERTEX
  8
0
  5
2E2A
 10
-70.0089
 20
48.6253
 30
-1.55733e-14
  70
    32
  0
VERTEX
  8
0
  5
2E2B
 10
-69.9730
 20
48.6414
 30
-1.55656e-14
  70
    32
  0
VERTEX
  8
0
  5
2E2C
 10
-69.9370
 20
48.6579
 30
-1.55579e-14
  70
    32
  0
VERTEX
  8
0
  5
2E2D
 10
-69.9011
 20
48.6746
 30
-1.55503e-14
  70
    32
  0
VERTEX
  8
0
  5
2E2E
 10
-69.8651
 20
48.6917
 30
-1.55427e-14
  70
    32
  0
VERTEX
  8
0
  5
2E2F
 10
-69.8291
 20
48.7090
 30
-1.55352e-14
  70
    32
  0
VERTEX
  8
0
  5
2E30
 10
-69.7931
 20
48.7266
 30
-1.55277e-14
  70
    32
  0
VERTEX
  8
0
  5
2E31
 10
-69.7571
 20
48.7445
 30
-1.55203e-14
  70
    32
  0
VERTEX
  8
0
  5
2E32
 10
-69.7212
 20
48.7627
 30
-1.55130e-14
  70
    32
  0
VERTEX
  8
0
  5
2E33
 10
-69.6852
 20
48.7812
 30
-1.55057e-14
  70
    32
  0
VERTEX
  8
0
  5
2E34
 10
-69.6492
 20
48.8000
 30
-1.54985e-14
  70
    32
  0
VERTEX
  8
0
  5
2E35
 10
-69.6133
 20
48.8191
 30
-1.54913e-14
  70
    32
  0
VERTEX
  8
0
  5
2E36
 10
-69.5773
 20
48.8384
 30
-1.54842e-14
  70
    32
  0
VERTEX
  8
0
  5
2E37
 10
-69.5414
 20
48.8581
 30
-1.54772e-14
  70
    32
  0
VERTEX
  8
0
  5
2E38
 10
-69.5055
 20
48.8781
 30
-1.54701e-14
  70
    32
  0
VERTEX
  8
0
  5
2E39
 10
-69.4697
 20
48.8984
 30
-1.54632e-14
  70
    32
  0
VERTEX
  8
0
  5
2E3A
 10
-69.4338
 20
48.9191
 30
-1.54562e-14
  70
    32
  0
VERTEX
  8
0
  5
2E3B
 10
-69.3980
 20
48.9400
 30
-1.54493e-14
  70
    32
  0
VERTEX
  8
0
  5
2E3C
 10
-69.3622
 20
48.9612
 30
-1.54424e-14
  70
    32
  0
VERTEX
  8
0
  5
2E3D
 10
-69.3265
 20
48.9828
 30
-1.54355e-14
  70
    32
  0
VERTEX
  8
0
  5
2E3E
 10
-69.2908
 20
49.0047
 30
-1.54287e-14
  70
    32
  0
VERTEX
  8
0
  5
2E3F
 10
-69.2551
 20
49.0269
 30
-1.54219e-14
  70
    32
  0
VERTEX
  8
0
  5
2E40
 10
-69.2195
 20
49.0494
 30
-1.54150e-14
  70
    32
  0
VERTEX
  8
0
  5
2E41
 10
-69.1840
 20
49.0722
 30
-1.54082e-14
  70
    32
  0
VERTEX
  8
0
  5
2E42
 10
-69.1484
 20
49.0954
 30
-1.54014e-14
  70
    32
  0
VERTEX
  8
0
  5
2E43
 10
-69.1130
 20
49.1189
 30
-1.53946e-14
  70
    32
  0
VERTEX
  8
0
  5
2E44
 10
-69.0776
 20
49.1427
 30
-1.53878e-14
  70
    32
  0
VERTEX
  8
0
  5
2E45
 10
-69.0422
 20
49.1669
 30
-1.53810e-14
  70
    32
  0
VERTEX
  8
0
  5
2E46
 10
-69.0069
 20
49.1914
 30
-1.53742e-14
  70
    32
  0
VERTEX
  8
0
  5
2E47
 10
-68.9717
 20
49.2162
 30
-1.53673e-14
  70
    32
  0
VERTEX
  8
0
  5
2E48
 10
-68.9365
 20
49.2414
 30
-1.53605e-14
  70
    32
  0
VERTEX
  8
0
  5
2E49
 10
-68.9015
 20
49.2669
 30
-1.53536e-14
  70
    32
  0
VERTEX
  8
0
  5
2E4A
 10
-68.8664
 20
49.2927
 30
-1.53466e-14
  70
    32
  0
VERTEX
  8
0
  5
2E4B
 10
-68.8315
 20
49.3189
 30
-1.53397e-14
  70
    32
  0
VERTEX
  8
0
  5
2E4C
 10
-68.7966
 20
49.3455
 30
-1.53327e-14
  70
    32
  0
VERTEX
  8
0
  5
2E4D
 10
-68.7618
 20
49.3724
 30
-1.53257e-14
  70
    32
  0
VERTEX
  8
0
  5
2E4E
 10
-68.7271
 20
49.3996
 30
-1.53186e-14
  70
    32
  0
VERTEX
  8
0
  5
2E4F
 10
-68.6925
 20
49.4272
 30
-1.53115e-14
  70
    32
  0
VERTEX
  8
0
  5
2E50
 10
-68.6580
 20
49.4551
 30
-1.53044e-14
  70
    32
  0
VERTEX
  8
0
  5
2E51
 10
-68.6236
 20
49.4834
 30
-1.52972e-14
  70
    32
  0
VERTEX
  8
0
  5
2E52
 10
-68.5892
 20
49.5121
 30
-1.52899e-14
  70
    32
  0
VERTEX
  8
0
  5
2E53
 10
-68.5550
 20
49.5411
 30
-1.52826e-14
  70
    32
  0
VERTEX
  8
0
  5
2E54
 10
-68.5208
 20
49.5705
 30
-1.52752e-14
  70
    32
  0
VERTEX
  8
0
  5
2E55
 10
-68.4868
 20
49.6003
 30
-1.52677e-14
  70
    32
  0
VERTEX
  8
0
  5
2E56
 10
-68.4528
 20
49.6304
 30
-1.52602e-14
  70
    32
  0
VERTEX
  8
0
  5
2E57
 10
-68.4190
 20
49.6609
 30
-1.52526e-14
  70
    32
  0
VERTEX
  8
0
  5
2E58
 10
-68.3853
 20
49.6917
 30
-1.52449e-14
  70
    32
  0
VERTEX
  8
0
  5
2E59
 10
-68.3517
 20
49.7230
 30
-1.52371e-14
  70
    32
  0
VERTEX
  8
0
  5
2E5A
 10
-68.3182
 20
49.7546
 30
-1.52293e-14
  70
    32
  0
VERTEX
  8
0
  5
2E5B
 10
-68.2848
 20
49.7865
 30
-1.52213e-14
  70
    32
  0
VERTEX
  8
0
  5
2E5C
 10
-68.2516
 20
49.8189
 30
-1.52132e-14
  70
    32
  0
VERTEX
  8
0
  5
2E5D
 10
-68.2185
 20
49.8516
 30
-1.52051e-14
  70
    32
  0
VERTEX
  8
0
  5
2E5E
 10
-68.1855
 20
49.8848
 30
-1.51968e-14
  70
    32
  0
VERTEX
  8
0
  5
2E5F
 10
-68.1526
 20
49.9183
 30
-1.51885e-14
  70
    32
  0
VERTEX
  8
0
  5
2E60
 10
-68.1199
 20
49.9522
 30
-1.51800e-14
  70
    32
  0
VERTEX
  8
0
  5
2E61
 10
-68.0873
 20
49.9864
 30
-1.51714e-14
  70
    32
  0
VERTEX
  8
0
  5
2E62
 10
-68.0548
 20
50.0211
 30
-1.51627e-14
  70
    32
  0
VERTEX
  8
0
  5
2E63
 10
-68.0225
 20
50.0562
 30
-1.51539e-14
  70
    32
  0
VERTEX
  8
0
  5
2E64
 10
-67.9903
 20
50.0916
 30
-1.51449e-14
  70
    32
  0
VERTEX
  8
0
  5
2E65
 10
-67.9583
 20
50.1275
 30
-1.51358e-14
  70
    32
  0
VERTEX
  8
0
  5
2E66
 10
-67.9264
 20
50.1638
 30
-1.51268e-14
  70
    32
  0
VERTEX
  8
0
  5
2E67
 10
-67.8947
 20
50.2004
 30
-1.51181e-14
  70
    32
  0
VERTEX
  8
0
  5
2E68
 10
-67.8632
 20
50.2375
 30
-1.51097e-14
  70
    32
  0
VERTEX
  8
0
  5
2E69
 10
-67.8318
 20
50.2749
 30
-1.51018e-14
  70
    32
  0
VERTEX
  8
0
  5
2E6A
 10
-67.8006
 20
50.3128
 30
-1.50942e-14
  70
    32
  0
VERTEX
  8
0
  5
2E6B
 10
-67.7696
 20
50.3510
 30
-1.50870e-14
  70
    32
  0
VERTEX
  8
0
  5
2E6C
 10
-67.7388
 20
50.3897
 30
-1.50801e-14
  70
    32
  0
VERTEX
  8
0
  5
2E6D
 10
-67.7082
 20
50.4287
 30
-1.50735e-14
  70
    32
  0
VERTEX
  8
0
  5
2E6E
 10
-67.6777
 20
50.4682
 30
-1.50671e-14
  70
    32
  0
VERTEX
  8
0
  5
2E6F
 10
-67.6475
 20
50.5081
 30
-1.50611e-14
  70
    32
  0
VERTEX
  8
0
  5
2E70
 10
-67.6175
 20
50.5484
 30
-1.50552e-14
  70
    32
  0
VERTEX
  8
0
  5
2E71
 10
-67.5878
 20
50.5891
 30
-1.50497e-14
  70
    32
  0
VERTEX
  8
0
  5
2E72
 10
-67.5582
 20
50.6302
 30
-1.50443e-14
  70
    32
  0
VERTEX
  8
0
  5
2E73
 10
-67.5289
 20
50.6717
 30
-1.50391e-14
  70
    32
  0
VERTEX
  8
0
  5
2E74
 10
-67.4998
 20
50.7136
 30
-1.50341e-14
  70
    32
  0
VERTEX
  8
0
  5
2E75
 10
-67.4710
 20
50.7560
 30
-1.50292e-14
  70
    32
  0
VERTEX
  8
0
  5
2E76
 10
-67.4424
 20
50.7988
 30
-1.50245e-14
  70
    32
  0
VERTEX
  8
0
  5
2E77
 10
-67.4141
 20
50.8420
 30
-1.50199e-14
  70
    32
  0
VERTEX
  8
0
  5
2E78
 10
-67.3861
 20
50.8856
 30
-1.50154e-14
  70
    32
  0
VERTEX
  8
0
  5
2E79
 10
-67.3583
 20
50.9296
 30
-1.50110e-14
  70
    32
  0
VERTEX
  8
0
  5
2E7A
 10
-67.3308
 20
50.9741
 30
-1.50067e-14
  70
    32
  0
VERTEX
  8
0
  5
2E7B
 10
-67.3035
 20
51.0190
 30
-1.50024e-14
  70
    32
  0
VERTEX
  8
0
  5
2E7C
 10
-67.2766
 20
51.0644
 30
-1.49981e-14
  70
    32
  0
VERTEX
  8
0
  5
2E7D
 10
-67.2499
 20
51.1101
 30
-1.49938e-14
  70
    32
  0
VERTEX
  8
0
  5
2E7E
 10
-67.2236
 20
51.1563
 30
-1.49896e-14
  70
    32
  0
VERTEX
  8
0
  5
2E7F
 10
-67.1976
 20
51.2030
 30
-1.49853e-14
  70
    32
  0
VERTEX
  8
0
  5
2E80
 10
-67.1718
 20
51.2500
 30
-1.49809e-14
  70
    32
  0
VERTEX
  8
0
  5
2E81
 10
-67.1464
 20
51.2976
 30
-1.49765e-14
  70
    32
  0
VERTEX
  8
0
  5
2E82
 10
-67.1213
 20
51.3455
 30
-1.49721e-14
  70
    32
  0
VERTEX
  8
0
  5
2E83
 10
-67.0965
 20
51.3939
 30
-1.49675e-14
  70
    32
  0
VERTEX
  8
0
  5
2E84
 10
-67.0721
 20
51.4427
 30
-1.49628e-14
  70
    32
  0
VERTEX
  8
0
  5
2E85
 10
-67.0480
 20
51.4920
 30
-1.49580e-14
  70
    32
  0
VERTEX
  8
0
  5
2E86
 10
-67.0243
 20
51.5417
 30
-1.49530e-14
  70
    32
  0
VERTEX
  8
0
  5
2E87
 10
-67.0009
 20
51.5919
 30
-1.49479e-14
  70
    32
  0
VERTEX
  8
0
  5
2E88
 10
-66.9779
 20
51.6425
 30
-1.49425e-14
  70
    32
  0
VERTEX
  8
0
  5
2E89
 10
-66.9552
 20
51.6936
 30
-1.49370e-14
  70
    32
  0
VERTEX
  8
0
  5
2E8A
 10
-66.9329
 20
51.7452
 30
-1.49312e-14
  70
    32
  0
VERTEX
  8
0
  5
2E8B
 10
-66.9110
 20
51.7971
 30
-1.49252e-14
  70
    32
  0
VERTEX
  8
0
  5
2E8C
 10
-66.8895
 20
51.8496
 30
-1.49190e-14
  70
    32
  0
VERTEX
  8
0
  5
2E8D
 10
-66.8683
 20
51.9025
 30
-1.49124e-14
  70
    32
  0
VERTEX
  8
0
  5
2E8E
 10
-66.8476
 20
51.9558
 30
-1.49056e-14
  70
    32
  0
VERTEX
  8
0
  5
2E8F
 10
-66.8273
 20
52.0097
 30
-1.48984e-14
  70
    32
  0
VERTEX
  8
0
  5
2E90
 10
-66.8073
 20
52.0639
 30
-1.48909e-14
  70
    32
  0
VERTEX
  8
0
  5
2E91
 10
-66.7878
 20
52.1187
 30
-1.48831e-14
  70
    32
  0
VERTEX
  8
0
  5
2E92
 10
-66.7687
 20
52.1739
 30
-1.48756e-14
  70
    32
  0
VERTEX
  8
0
  5
2E93
 10
-66.7500
 20
52.2296
 30
-1.48685e-14
  70
    32
  0
VERTEX
  8
0
  5
2E94
 10
-66.7318
 20
52.2857
 30
-1.48619e-14
  70
    32
  0
VERTEX
  8
0
  5
2E95
 10
-66.7141
 20
52.3423
 30
-1.48557e-14
  70
    32
  0
VERTEX
  8
0
  5
2E96
 10
-66.6968
 20
52.3993
 30
-1.48499e-14
  70
    32
  0
VERTEX
  8
0
  5
2E97
 10
-66.6800
 20
52.4568
 30
-1.48446e-14
  70
    32
  0
VERTEX
  8
0
  5
2E98
 10
-66.6637
 20
52.5147
 30
-1.48396e-14
  70
    32
  0
VERTEX
  8
0
  5
2E99
 10
-66.6479
 20
52.5731
 30
-1.48351e-14
  70
    32
  0
VERTEX
  8
0
  5
2E9A
 10
-66.6326
 20
52.6319
 30
-1.48309e-14
  70
    32
  0
VERTEX
  8
0
  5
2E9B
 10
-66.6178
 20
52.6912
 30
-1.48270e-14
  70
    32
  0
VERTEX
  8
0
  5
2E9C
 10
-66.6036
 20
52.7509
 30
-1.48235e-14
  70
    32
  0
VERTEX
  8
0
  5
2E9D
 10
-66.5899
 20
52.8111
 30
-1.48203e-14
  70
    32
  0
VERTEX
  8
0
  5
2E9E
 10
-66.5768
 20
52.8717
 30
-1.48174e-14
  70
    32
  0
VERTEX
  8
0
  5
2E9F
 10
-66.5642
 20
52.9327
 30
-1.48148e-14
  70
    32
  0
VERTEX
  8
0
  5
2EA0
 10
-66.5522
 20
52.9942
 30
-1.48125e-14
  70
    32
  0
VERTEX
  8
0
  5
2EA1
 10
-66.5409
 20
53.0562
 30
-1.48104e-14
  70
    32
  0
VERTEX
  8
0
  5
2EA2
 10
-66.5301
 20
53.1186
 30
-1.48086e-14
  70
    32
  0
VERTEX
  8
0
  5
2EA3
 10
-66.5200
 20
53.1814
 30
-1.48070e-14
  70
    32
  0
VERTEX
  8
0
  5
2EA4
 10
-66.5104
 20
53.2447
 30
-1.48056e-14
  70
    32
  0
VERTEX
  8
0
  5
2EA5
 10
-66.5015
 20
53.3084
 30
-1.48044e-14
  70
    32
  0
VERTEX
  8
0
  5
2EA6
 10
-66.4933
 20
53.3725
 30
-1.48034e-14
  70
    32
  0
VERTEX
  8
0
  5
2EA7
 10
-66.4857
 20
53.4371
 30
-1.48025e-14
  70
    32
  0
VERTEX
  8
0
  5
2EA8
 10
-66.4788
 20
53.5022
 30
-1.48018e-14
  70
    32
  0
VERTEX
  8
0
  5
2EA9
 10
-66.4726
 20
53.5676
 30
-1.48013e-14
  70
    32
  0
VERTEX
  8
0
  5
2EAA
 10
-66.4671
 20
53.6335
 30
-1.48009e-14
  70
    32
  0
VERTEX
  8
0
  5
2EAB
 10
-66.4623
 20
53.6998
 30
-1.48005e-14
  70
    32
  0
VERTEX
  8
0
  5
2EAC
 10
-66.4582
 20
53.7666
 30
-1.48003e-14
  70
    32
  0
VERTEX
  8
0
  5
2EAD
 10
-66.4548
 20
53.8338
 30
-1.48002e-14
  70
    32
  0
VERTEX
  8
0
  5
2EAE
 10
-66.4522
 20
53.9014
 30
-1.48001e-14
  70
    32
  0
VERTEX
  8
0
  5
2EAF
 10
-66.4503
 20
53.9695
 30
-1.48000e-14
  70
    32
  0
VERTEX
  8
0
  5
2EB0
 10
-66.4492
 20
54.0379
 30
-1.48000e-14
  70
    32
  0
VERTEX
  8
0
  5
2EB1
 10
-66.4488
 20
54.1069
 30
-1.48000e-14
  70
    32
  0
SEQEND
  8
0
  5
2EB2
  0
LINE
  5
27A0
  8
0
  6
CONTINUOUS
 62
     3
 10
-47.7025965874531011
 20
24.1068579008937505
 30
0.0
 11
-98.898820910378106
 21
24.1068579008937505
 31
-0.0000000000000114
  0
LINE
  5
27A1
  8
0
  6
CONTINUOUS
 62
     3
 10
-98.898820910378106
 20
24.1068579008937505
 30
0.0
 11
-98.898820910378106
 21
84.1068579008937576
 31
0.0
  0
CIRCLE
  5
27A2
  8
0
  6
CONTINUOUS
 62
     3
 10
22.1257652260038213
 20
54.1068560156145679
 30
0.0
 40
63.0124070244750811
  0
CIRCLE
  5
27A3
  8
0
  6
CONTINUOUS
 62
     3
 10
22.1257652260040416
 20
54.1068560156145892
 30
0.0
 40
63.9999999999997726
  0
CIRCLE
  5
27A4
  8
0
  6
CONTINUOUS
 62
     3
 10
22.12576522600407
 20
54.1068560156146035
 30
0.0
 40
72.7584447974061135
  0
CIRCLE
  5
27A5
  8
0
  6
CONTINUOUS
 62
     3
 10
22.12576522600407
 20
54.1068560156146035
 30
0.0
 40
70.4926753298144035
  0
CIRCLE
  5
27A6
  8
0
  6
CONTINUOUS
 62
     3
 10
22.1257652260040594
 20
54.1068560156146035
 30
0.0
 40
76.0000000028576324
  0
CIRCLE
  5
27A7
  8
0
  6
CONTINUOUS
 62
     3
 10
22.1257652260040487
 20
54.1068560156146035
 30
0.0
 40
68.9999999808323139
  0
LINE
  5
27A8
  8
0
  6
CONTINUOUS
 62
     3
 10
143.1503513623862034
 20
84.1068579008937576
 30
0.0000000000000568
 11
91.9541254195356288
 21
84.1068579008937576
 31
0.0000000000000454
  0
POLYLINE
  8
0
  5
2EB3
  62
3
  66
     1
 10
0.000000
 20
0.000000
 30
0.000000
  70
     8
  0
VERTEX
  8
0
  5
2EB4
 10
110.700
 20
54.1069
 30
2.47000e-14
  70
    32
  0
VERTEX
  8
0
  5
2EB5
 10
110.701
 20
54.1762
 30
2.47000e-14
  70
    32
  0
VERTEX
  8
0
  5
2EB6
 10
110.702
 20
54.2460
 30
2.47000e-14
  70
    32
  0
VERTEX
  8
0
  5
2EB7
 10
110.704
 20
54.3161
 30
2.47000e-14
  70
    32
  0
VERTEX
  8
0
  5
2EB8
 10
110.707
 20
54.3867
 30
2.47000e-14
  70
    32
  0
VERTEX
  8
0
  5
2EB9
 10
110.711
 20
54.4576
 30
2.47001e-14
  70
    32
  0
VERTEX
  8
0
  5
2EBA
 10
110.715
 20
54.5288
 30
2.47002e-14
  70
    32
  0
VERTEX
  8
0
  5
2EBB
 10
110.721
 20
54.6004
 30
2.47003e-14
  70
    32
  0
VERTEX
  8
0
  5
2EBC
 10
110.727
 20
54.6724
 30
2.47006e-14
  70
    32
  0
VERTEX
  8
0
  5
2EBD
 10
110.734
 20
54.7446
 30
2.47010e-14
  70
    32
  0
VERTEX
  8
0
  5
2EBE
 10
110.742
 20
54.8171
 30
2.47016e-14
  70
    32
  0
VERTEX
  8
0
  5
2EBF
 10
110.751
 20
54.8900
 30
2.47023e-14
  70
    32
  0
VERTEX
  8
0
  5
2EC0
 10
110.761
 20
54.9631
 30
2.47032e-14
  70
    32
  0
VERTEX
  8
0
  5
2EC1
 10
110.772
 20
55.0365
 30
2.47043e-14
  70
    32
  0
VERTEX
  8
0
  5
2EC2
 10
110.784
 20
55.1102
 30
2.47057e-14
  70
    32
  0
VERTEX
  8
0
  5
2EC3
 10
110.797
 20
55.1842
 30
2.47073e-14
  70
    32
  0
VERTEX
  8
0
  5
2EC4
 10
110.811
 20
55.2584
 30
2.47092e-14
  70
    32
  0
VERTEX
  8
0
  5
2EC5
 10
110.826
 20
55.3329
 30
2.47114e-14
  70
    32
  0
VERTEX
  8
0
  5
2EC6
 10
110.842
 20
55.4076
 30
2.47139e-14
  70
    32
  0
VERTEX
  8
0
  5
2EC7
 10
110.859
 20
55.4825
 30
2.47168e-14
  70
    32
  0
VERTEX
  8
0
  5
2EC8
 10
110.878
 20
55.5576
 30
2.47200e-14
  70
    32
  0
VERTEX
  8
0
  5
2EC9
 10
110.897
 20
55.6330
 30
2.47236e-14
  70
    32
  0
VERTEX
  8
0
  5
2ECA
 10
110.917
 20
55.7085
 30
2.47277e-14
  70
    32
  0
VERTEX
  8
0
  5
2ECB
 10
110.939
 20
55.7842
 30
2.47321e-14
  70
    32
  0
VERTEX
  8
0
  5
2ECC
 10
110.962
 20
55.8602
 30
2.47371e-14
  70
    32
  0
VERTEX
  8
0
  5
2ECD
 10
110.985
 20
55.9363
 30
2.47425e-14
  70
    32
  0
VERTEX
  8
0
  5
2ECE
 10
111.011
 20
56.0125
 30
2.47484e-14
  70
    32
  0
VERTEX
  8
0
  5
2ECF
 10
111.037
 20
56.0889
 30
2.47548e-14
  70
    32
  0
VERTEX
  8
0
  5
2ED0
 10
111.064
 20
56.1655
 30
2.47618e-14
  70
    32
  0
VERTEX
  8
0
  5
2ED1
 10
111.093
 20
56.2421
 30
2.47694e-14
  70
    32
  0
VERTEX
  8
0
  5
2ED2
 10
111.123
 20
56.3190
 30
2.47775e-14
  70
    32
  0
VERTEX
  8
0
  5
2ED3
 10
111.154
 20
56.3959
 30
2.47863e-14
  70
    32
  0
VERTEX
  8
0
  5
2ED4
 10
111.187
 20
56.4729
 30
2.47957e-14
  70
    32
  0
VERTEX
  8
0
  5
2ED5
 10
111.220
 20
56.5501
 30
2.48057e-14
  70
    32
  0
VERTEX
  8
0
  5
2ED6
 10
111.255
 20
56.6273
 30
2.48163e-14
  70
    32
  0
VERTEX
  8
0
  5
2ED7
 10
111.292
 20
56.7045
 30
2.48270e-14
  70
    32
  0
VERTEX
  8
0
  5
2ED8
 10
111.329
 20
56.7817
 30
2.48378e-14
  70
    32
  0
VERTEX
  8
0
  5
2ED9
 10
111.369
 20
56.8589
 30
2.48486e-14
  70
    32
  0
VERTEX
  8
0
  5
2EDA
 10
111.409
 20
56.9361
 30
2.48596e-14
  70
    32
  0
VERTEX
  8
0
  5
2EDB
 10
111.451
 20
57.0131
 30
2.48706e-14
  70
    32
  0
VERTEX
  8
0
  5
2EDC
 10
111.494
 20
57.0900
 30
2.48817e-14
  70
    32
  0
VERTEX
  8
0
  5
2EDD
 10
111.539
 20
57.1668
 30
2.48929e-14
  70
    32
  0
VERTEX
  8
0
  5
2EDE
 10
111.585
 20
57.2435
 30
2.49042e-14
  70
    32
  0
VERTEX
  8
0
  5
2EDF
 10
111.632
 20
57.3199
 30
2.49156e-14
  70
    32
  0
VERTEX
  8
0
  5
2EE0
 10
111.681
 20
57.3962
 30
2.49270e-14
  70
    32
  0
VERTEX
  8
0
  5
2EE1
 10
111.732
 20
57.4722
 30
2.49386e-14
  70
    32
  0
VERTEX
  8
0
  5
2EE2
 10
111.784
 20
57.5479
 30
2.49502e-14
  70
    32
  0
VERTEX
  8
0
  5
2EE3
 10
111.838
 20
57.6233
 30
2.49620e-14
  70
    32
  0
VERTEX
  8
0
  5
2EE4
 10
111.893
 20
57.6984
 30
2.49738e-14
  70
    32
  0
VERTEX
  8
0
  5
2EE5
 10
111.950
 20
57.7732
 30
2.49857e-14
  70
    32
  0
VERTEX
  8
0
  5
2EE6
 10
112.008
 20
57.8476
 30
2.49977e-14
  70
    32
  0
VERTEX
  8
0
  5
2EE7
 10
112.068
 20
57.9216
 30
2.50098e-14
  70
    32
  0
VERTEX
  8
0
  5
2EE8
 10
112.130
 20
57.9952
 30
2.50220e-14
  70
    32
  0
VERTEX
  8
0
  5
2EE9
 10
112.193
 20
58.0684
 30
2.50343e-14
  70
    32
  0
VERTEX
  8
0
  5
2EEA
 10
112.259
 20
58.1410
 30
2.50467e-14
  70
    32
  0
VERTEX
  8
0
  5
2EEB
 10
112.325
 20
58.2132
 30
2.50592e-14
  70
    32
  0
VERTEX
  8
0
  5
2EEC
 10
112.394
 20
58.2848
 30
2.50718e-14
  70
    32
  0
VERTEX
  8
0
  5
2EED
 10
112.464
 20
58.3559
 30
2.50845e-14
  70
    32
  0
VERTEX
  8
0
  5
2EEE
 10
112.536
 20
58.4264
 30
2.50973e-14
  70
    32
  0
VERTEX
  8
0
  5
2EEF
 10
112.610
 20
58.4964
 30
2.51102e-14
  70
    32
  0
VERTEX
  8
0
  5
2EF0
 10
112.685
 20
58.5656
 30
2.51238e-14
  70
    32
  0
VERTEX
  8
0
  5
2EF1
 10
112.763
 20
58.6342
 30
2.51388e-14
  70
    32
  0
VERTEX
  8
0
  5
2EF2
 10
112.842
 20
58.7020
 30
2.51553e-14
  70
    32
  0
VERTEX
  8
0
  5
2EF3
 10
112.923
 20
58.7690
 30
2.51731e-14
  70
    32
  0
VERTEX
  8
0
  5
2EF4
 10
113.006
 20
58.8350
 30
2.51921e-14
  70
    32
  0
VERTEX
  8
0
  5
2EF5
 10
113.091
 20
58.9002
 30
2.52122e-14
  70
    32
  0
VERTEX
  8
0
  5
2EF6
 10
113.177
 20
58.9644
 30
2.52334e-14
  70
    32
  0
VERTEX
  8
0
  5
2EF7
 10
113.266
 20
59.0275
 30
2.52554e-14
  70
    32
  0
VERTEX
  8
0
  5
2EF8
 10
113.356
 20
59.0895
 30
2.52783e-14
  70
    32
  0
VERTEX
  8
0
  5
2EF9
 10
113.449
 20
59.1503
 30
2.53019e-14
  70
    32
  0
VERTEX
  8
0
  5
2EFA
 10
113.543
 20
59.2099
 30
2.53262e-14
  70
    32
  0
VERTEX
  8
0
  5
2EFB
 10
113.640
 20
59.2683
 30
2.53510e-14
  70
    32
  0
VERTEX
  8
0
  5
2EFC
 10
113.738
 20
59.3253
 30
2.53763e-14
  70
    32
  0
VERTEX
  8
0
  5
2EFD
 10
113.838
 20
59.3809
 30
2.54019e-14
  70
    32
  0
VERTEX
  8
0
  5
2EFE
 10
113.941
 20
59.4350
 30
2.54278e-14
  70
    32
  0
VERTEX
  8
0
  5
2EFF
 10
114.045
 20
59.4877
 30
2.54538e-14
  70
    32
  0
VERTEX
  8
0
  5
2F00
 10
114.151
 20
59.5388
 30
2.54799e-14
  70
    32
  0
VERTEX
  8
0
  5
2F01
 10
114.260
 20
59.5883
 30
2.55060e-14
  70
    32
  0
VERTEX
  8
0
  5
2F02
 10
114.371
 20
59.6361
 30
2.55320e-14
  70
    32
  0
VERTEX
  8
0
  5
2F03
 10
114.483
 20
59.6822
 30
2.55578e-14
  70
    32
  0
VERTEX
  8
0
  5
2F04
 10
114.598
 20
59.7264
 30
2.55832e-14
  70
    32
  0
VERTEX
  8
0
  5
2F05
 10
114.712
 20
59.7677
 30
2.56085e-14
  70
    32
  0
VERTEX
  8
0
  5
2F06
 10
114.824
 20
59.8059
 30
2.56334e-14
  70
    32
  0
VERTEX
  8
0
  5
2F07
 10
114.935
 20
59.8411
 30
2.56581e-14
  70
    32
  0
VERTEX
  8
0
  5
2F08
 10
115.044
 20
59.8735
 30
2.56824e-14
  70
    32
  0
VERTEX
  8
0
  5
2F09
 10
115.152
 20
59.9031
 30
2.57063e-14
  70
    32
  0
VERTEX
  8
0
  5
2F0A
 10
115.257
 20
59.9301
 30
2.57299e-14
  70
    32
  0
VERTEX
  8
0
  5
2F0B
 10
115.360
 20
59.9546
 30
2.57530e-14
  70
    32
  0
VERTEX
  8
0
  5
2F0C
 10
115.461
 20
59.9767
 30
2.57757e-14
  70
    32
  0
VERTEX
  8
0
  5
2F0D
 10
115.559
 20
59.9966
 30
2.57979e-14
  70
    32
  0
VERTEX
  8
0
  5
2F0E
 10
115.656
 20
60.0143
 30
2.58195e-14
  70
    32
  0
VERTEX
  8
0
  5
2F0F
 10
115.749
 20
60.0300
 30
2.58406e-14
  70
    32
  0
VERTEX
  8
0
  5
2F10
 10
115.840
 20
60.0439
 30
2.58611e-14
  70
    32
  0
VERTEX
  8
0
  5
2F11
 10
115.927
 20
60.0559
 30
2.58810e-14
  70
    32
  0
VERTEX
  8
0
  5
2F12
 10
116.012
 20
60.0664
 30
2.59002e-14
  70
    32
  0
VERTEX
  8
0
  5
2F13
 10
116.094
 20
60.0752
 30
2.59187e-14
  70
    32
  0
VERTEX
  8
0
  5
2F14
 10
116.172
 20
60.0827
 30
2.59365e-14
  70
    32
  0
VERTEX
  8
0
  5
2F15
 10
116.248
 20
60.0889
 30
2.59535e-14
  70
    32
  0
VERTEX
  8
0
  5
2F16
 10
116.319
 20
60.0940
 30
2.59698e-14
  70
    32
  0
VERTEX
  8
0
  5
2F17
 10
116.387
 20
60.0980
 30
2.59852e-14
  70
    32
  0
VERTEX
  8
0
  5
2F18
 10
116.451
 20
60.1010
 30
2.59998e-14
  70
    32
  0
VERTEX
  8
0
  5
2F19
 10
116.512
 20
60.1033
 30
2.60134e-14
  70
    32
  0
VERTEX
  8
0
  5
2F1A
 10
116.568
 20
60.1049
 30
2.60262e-14
  70
    32
  0
VERTEX
  8
0
  5
2F1B
 10
116.620
 20
60.1059
 30
2.60380e-14
  70
    32
  0
VERTEX
  8
0
  5
2F1C
 10
116.668
 20
60.1065
 30
2.60488e-14
  70
    32
  0
VERTEX
  8
0
  5
2F1D
 10
116.711
 20
60.1068
 30
2.60585e-14
  70
    32
  0
VERTEX
  8
0
  5
2F1E
 10
116.750
 20
60.1069
 30
2.60673e-14
  70
    32
  0
VERTEX
  8
0
  5
2F1F
 10
116.786
 20
60.1069
 30
2.60752e-14
  70
    32
  0
VERTEX
  8
0
  5
2F20
 10
116.821
 20
60.1069
 30
2.60830e-14
  70
    32
  0
VERTEX
  8
0
  5
2F21
 10
116.857
 20
60.1069
 30
2.60908e-14
  70
    32
  0
VERTEX
  8
0
  5
2F22
 10
116.892
 20
60.1069
 30
2.60987e-14
  70
    32
  0
VERTEX
  8
0
  5
2F23
 10
116.927
 20
60.1069
 30
2.61065e-14
  70
    32
  0
VERTEX
  8
0
  5
2F24
 10
116.963
 20
60.1069
 30
2.61143e-14
  70
    32
  0
VERTEX
  8
0
  5
2F25
 10
116.998
 20
60.1069
 30
2.61221e-14
  70
    32
  0
VERTEX
  8
0
  5
2F26
 10
117.034
 20
60.1069
 30
2.61299e-14
  70
    32
  0
VERTEX
  8
0
  5
2F27
 10
117.069
 20
60.1069
 30
2.61378e-14
  70
    32
  0
VERTEX
  8
0
  5
2F28
 10
117.105
 20
60.1069
 30
2.61456e-14
  70
    32
  0
VERTEX
  8
0
  5
2F29
 10
117.140
 20
60.1069
 30
2.61534e-14
  70
    32
  0
VERTEX
  8
0
  5
2F2A
 10
117.176
 20
60.1069
 30
2.61612e-14
  70
    32
  0
VERTEX
  8
0
  5
2F2B
 10
117.212
 20
60.1069
 30
2.61690e-14
  70
    32
  0
VERTEX
  8
0
  5
2F2C
 10
117.247
 20
60.1069
 30
2.61768e-14
  70
    32
  0
VERTEX
  8
0
  5
2F2D
 10
117.283
 20
60.1069
 30
2.61846e-14
  70
    32
  0
VERTEX
  8
0
  5
2F2E
 10
117.319
 20
60.1069
 30
2.61924e-14
  70
    32
  0
VERTEX
  8
0
  5
2F2F
 10
117.355
 20
60.1069
 30
2.62002e-14
  70
    32
  0
VERTEX
  8
0
  5
2F30
 10
117.391
 20
60.1069
 30
2.62080e-14
  70
    32
  0
VERTEX
  8
0
  5
2F31
 10
117.427
 20
60.1069
 30
2.62158e-14
  70
    32
  0
VERTEX
  8
0
  5
2F32
 10
117.462
 20
60.1069
 30
2.62235e-14
  70
    32
  0
VERTEX
  8
0
  5
2F33
 10
117.498
 20
60.1069
 30
2.62313e-14
  70
    32
  0
VERTEX
  8
0
  5
2F34
 10
117.534
 20
60.1069
 30
2.62391e-14
  70
    32
  0
VERTEX
  8
0
  5
2F35
 10
117.570
 20
60.1069
 30
2.62469e-14
  70
    32
  0
VERTEX
  8
0
  5
2F36
 10
117.606
 20
60.1069
 30
2.62547e-14
  70
    32
  0
VERTEX
  8
0
  5
2F37
 10
117.642
 20
60.1069
 30
2.62625e-14
  70
    32
  0
VERTEX
  8
0
  5
2F38
 10
117.679
 20
60.1069
 30
2.62703e-14
  70
    32
  0
VERTEX
  8
0
  5
2F39
 10
117.715
 20
60.1069
 30
2.62781e-14
  70
    32
  0
VERTEX
  8
0
  5
2F3A
 10
117.751
 20
60.1069
 30
2.62858e-14
  70
    32
  0
VERTEX
  8
0
  5
2F3B
 10
117.787
 20
60.1069
 30
2.62936e-14
  70
    32
  0
VERTEX
  8
0
  5
2F3C
 10
117.823
 20
60.1069
 30
2.63014e-14
  70
    32
  0
VERTEX
  8
0
  5
2F3D
 10
117.860
 20
60.1069
 30
2.63092e-14
  70
    32
  0
VERTEX
  8
0
  5
2F3E
 10
117.896
 20
60.1069
 30
2.63170e-14
  70
    32
  0
VERTEX
  8
0
  5
2F3F
 10
117.932
 20
60.1069
 30
2.63248e-14
  70
    32
  0
VERTEX
  8
0
  5
2F40
 10
117.969
 20
60.1069
 30
2.63326e-14
  70
    32
  0
VERTEX
  8
0
  5
2F41
 10
118.005
 20
60.1069
 30
2.63404e-14
  70
    32
  0
VERTEX
  8
0
  5
2F42
 10
118.042
 20
60.1069
 30
2.63482e-14
  70
    32
  0
VERTEX
  8
0
  5
2F43
 10
118.078
 20
60.1069
 30
2.63560e-14
  70
    32
  0
VERTEX
  8
0
  5
2F44
 10
118.115
 20
60.1069
 30
2.63637e-14
  70
    32
  0
VERTEX
  8
0
  5
2F45
 10
118.151
 20
60.1069
 30
2.63715e-14
  70
    32
  0
VERTEX
  8
0
  5
2F46
 10
118.188
 20
60.1069
 30
2.63793e-14
  70
    32
  0
VERTEX
  8
0
  5
2F47
 10
118.224
 20
60.1069
 30
2.63871e-14
  70
    32
  0
VERTEX
  8
0
  5
2F48
 10
118.261
 20
60.1069
 30
2.63950e-14
  70
    32
  0
VERTEX
  8
0
  5
2F49
 10
118.298
 20
60.1069
 30
2.64028e-14
  70
    32
  0
VERTEX
  8
0
  5
2F4A
 10
118.335
 20
60.1069
 30
2.64106e-14
  70
    32
  0
VERTEX
  8
0
  5
2F4B
 10
118.371
 20
60.1069
 30
2.64184e-14
  70
    32
  0
VERTEX
  8
0
  5
2F4C
 10
118.408
 20
60.1069
 30
2.64262e-14
  70
    32
  0
VERTEX
  8
0
  5
2F4D
 10
118.445
 20
60.1069
 30
2.64340e-14
  70
    32
  0
VERTEX
  8
0
  5
2F4E
 10
118.482
 20
60.1069
 30
2.64418e-14
  70
    32
  0
VERTEX
  8
0
  5
2F4F
 10
118.519
 20
60.1069
 30
2.64497e-14
  70
    32
  0
VERTEX
  8
0
  5
2F50
 10
118.556
 20
60.1069
 30
2.64575e-14
  70
    32
  0
VERTEX
  8
0
  5
2F51
 10
118.593
 20
60.1069
 30
2.64653e-14
  70
    32
  0
VERTEX
  8
0
  5
2F52
 10
118.630
 20
60.1069
 30
2.64732e-14
  70
    32
  0
VERTEX
  8
0
  5
2F53
 10
118.667
 20
60.1069
 30
2.64810e-14
  70
    32
  0
VERTEX
  8
0
  5
2F54
 10
118.704
 20
60.1069
 30
2.64889e-14
  70
    32
  0
VERTEX
  8
0
  5
2F55
 10
118.741
 20
60.1069
 30
2.64967e-14
  70
    32
  0
VERTEX
  8
0
  5
2F56
 10
118.778
 20
60.1069
 30
2.65046e-14
  70
    32
  0
VERTEX
  8
0
  5
2F57
 10
118.816
 20
60.1069
 30
2.65124e-14
  70
    32
  0
VERTEX
  8
0
  5
2F58
 10
118.853
 20
60.1069
 30
2.65203e-14
  70
    32
  0
VERTEX
  8
0
  5
2F59
 10
118.890
 20
60.1069
 30
2.65282e-14
  70
    32
  0
VERTEX
  8
0
  5
2F5A
 10
118.927
 20
60.1069
 30
2.65360e-14
  70
    32
  0
VERTEX
  8
0
  5
2F5B
 10
118.965
 20
60.1069
 30
2.65439e-14
  70
    32
  0
VERTEX
  8
0
  5
2F5C
 10
119.002
 20
60.1069
 30
2.65518e-14
  70
    32
  0
VERTEX
  8
0
  5
2F5D
 10
119.040
 20
60.1069
 30
2.65597e-14
  70
    32
  0
VERTEX
  8
0
  5
2F5E
 10
119.077
 20
60.1069
 30
2.65676e-14
  70
    32
  0
VERTEX
  8
0
  5
2F5F
 10
119.114
 20
60.1069
 30
2.65755e-14
  70
    32
  0
VERTEX
  8
0
  5
2F60
 10
119.152
 20
60.1069
 30
2.65834e-14
  70
    32
  0
VERTEX
  8
0
  5
2F61
 10
119.190
 20
60.1069
 30
2.65914e-14
  70
    32
  0
VERTEX
  8
0
  5
2F62
 10
119.227
 20
60.1069
 30
2.65993e-14
  70
    32
  0
VERTEX
  8
0
  5
2F63
 10
119.265
 20
60.1069
 30
2.66072e-14
  70
    32
  0
VERTEX
  8
0
  5
2F64
 10
119.303
 20
60.1069
 30
2.66152e-14
  70
    32
  0
VERTEX
  8
0
  5
2F65
 10
119.340
 20
60.1069
 30
2.66231e-14
  70
    32
  0
VERTEX
  8
0
  5
2F66
 10
119.378
 20
60.1069
 30
2.66311e-14
  70
    32
  0
VERTEX
  8
0
  5
2F67
 10
119.416
 20
60.1069
 30
2.66390e-14
  70
    32
  0
VERTEX
  8
0
  5
2F68
 10
119.454
 20
60.1069
 30
2.66470e-14
  70
    32
  0
VERTEX
  8
0
  5
2F69
 10
119.492
 20
60.1069
 30
2.66550e-14
  70
    32
  0
VERTEX
  8
0
  5
2F6A
 10
119.529
 20
60.1069
 30
2.66630e-14
  70
    32
  0
VERTEX
  8
0
  5
2F6B
 10
119.567
 20
60.1069
 30
2.66710e-14
  70
    32
  0
VERTEX
  8
0
  5
2F6C
 10
119.605
 20
60.1069
 30
2.66790e-14
  70
    32
  0
VERTEX
  8
0
  5
2F6D
 10
119.643
 20
60.1069
 30
2.66870e-14
  70
    32
  0
VERTEX
  8
0
  5
2F6E
 10
119.681
 20
60.1069
 30
2.66950e-14
  70
    32
  0
VERTEX
  8
0
  5
2F6F
 10
119.720
 20
60.1069
 30
2.67030e-14
  70
    32
  0
VERTEX
  8
0
  5
2F70
 10
119.758
 20
60.1069
 30
2.67111e-14
  70
    32
  0
VERTEX
  8
0
  5
2F71
 10
119.796
 20
60.1069
 30
2.67191e-14
  70
    32
  0
VERTEX
  8
0
  5
2F72
 10
119.834
 20
60.1069
 30
2.67272e-14
  70
    32
  0
VERTEX
  8
0
  5
2F73
 10
119.872
 20
60.1069
 30
2.67352e-14
  70
    32
  0
VERTEX
  8
0
  5
2F74
 10
119.911
 20
60.1069
 30
2.67433e-14
  70
    32
  0
VERTEX
  8
0
  5
2F75
 10
119.949
 20
60.1069
 30
2.67514e-14
  70
    32
  0
VERTEX
  8
0
  5
2F76
 10
119.987
 20
60.1069
 30
2.67595e-14
  70
    32
  0
VERTEX
  8
0
  5
2F77
 10
120.026
 20
60.1069
 30
2.67676e-14
  70
    32
  0
VERTEX
  8
0
  5
2F78
 10
120.064
 20
60.1069
 30
2.67757e-14
  70
    32
  0
VERTEX
  8
0
  5
2F79
 10
120.103
 20
60.1069
 30
2.67839e-14
  70
    32
  0
VERTEX
  8
0
  5
2F7A
 10
120.141
 20
60.1069
 30
2.67920e-14
  70
    32
  0
VERTEX
  8
0
  5
2F7B
 10
120.180
 20
60.1069
 30
2.68002e-14
  70
    32
  0
VERTEX
  8
0
  5
2F7C
 10
120.218
 20
60.1069
 30
2.68083e-14
  70
    32
  0
VERTEX
  8
0
  5
2F7D
 10
120.257
 20
60.1069
 30
2.68165e-14
  70
    32
  0
VERTEX
  8
0
  5
2F7E
 10
120.295
 20
60.1069
 30
2.68247e-14
  70
    32
  0
VERTEX
  8
0
  5
2F7F
 10
120.334
 20
60.1069
 30
2.68329e-14
  70
    32
  0
VERTEX
  8
0
  5
2F80
 10
120.373
 20
60.1069
 30
2.68411e-14
  70
    32
  0
VERTEX
  8
0
  5
2F81
 10
120.412
 20
60.1069
 30
2.68493e-14
  70
    32
  0
VERTEX
  8
0
  5
2F82
 10
120.451
 20
60.1069
 30
2.68575e-14
  70
    32
  0
VERTEX
  8
0
  5
2F83
 10
120.489
 20
60.1069
 30
2.68658e-14
  70
    32
  0
VERTEX
  8
0
  5
2F84
 10
120.528
 20
60.1069
 30
2.68740e-14
  70
    32
  0
VERTEX
  8
0
  5
2F85
 10
120.567
 20
60.1069
 30
2.68823e-14
  70
    32
  0
VERTEX
  8
0
  5
2F86
 10
120.606
 20
60.1069
 30
2.68906e-14
  70
    32
  0
VERTEX
  8
0
  5
2F87
 10
120.645
 20
60.1069
 30
2.68989e-14
  70
    32
  0
VERTEX
  8
0
  5
2F88
 10
120.684
 20
60.1069
 30
2.69072e-14
  70
    32
  0
VERTEX
  8
0
  5
2F89
 10
120.723
 20
60.1069
 30
2.69155e-14
  70
    32
  0
VERTEX
  8
0
  5
2F8A
 10
120.762
 20
60.1069
 30
2.69239e-14
  70
    32
  0
VERTEX
  8
0
  5
2F8B
 10
120.802
 20
60.1069
 30
2.69322e-14
  70
    32
  0
VERTEX
  8
0
  5
2F8C
 10
120.841
 20
60.1069
 30
2.69406e-14
  70
    32
  0
VERTEX
  8
0
  5
2F8D
 10
120.880
 20
60.1069
 30
2.69490e-14
  70
    32
  0
VERTEX
  8
0
  5
2F8E
 10
120.919
 20
60.1069
 30
2.69573e-14
  70
    32
  0
VERTEX
  8
0
  5
2F8F
 10
120.959
 20
60.1069
 30
2.69657e-14
  70
    32
  0
VERTEX
  8
0
  5
2F90
 10
120.998
 20
60.1069
 30
2.69742e-14
  70
    32
  0
VERTEX
  8
0
  5
2F91
 10
121.037
 20
60.1069
 30
2.69826e-14
  70
    32
  0
VERTEX
  8
0
  5
2F92
 10
121.077
 20
60.1069
 30
2.69911e-14
  70
    32
  0
VERTEX
  8
0
  5
2F93
 10
121.116
 20
60.1069
 30
2.69995e-14
  70
    32
  0
VERTEX
  8
0
  5
2F94
 10
121.156
 20
60.1069
 30
2.70080e-14
  70
    32
  0
VERTEX
  8
0
  5
2F95
 10
121.195
 20
60.1069
 30
2.70165e-14
  70
    32
  0
VERTEX
  8
0
  5
2F96
 10
121.235
 20
60.1069
 30
2.70250e-14
  70
    32
  0
VERTEX
  8
0
  5
2F97
 10
121.275
 20
60.1069
 30
2.70335e-14
  70
    32
  0
VERTEX
  8
0
  5
2F98
 10
121.314
 20
60.1069
 30
2.70421e-14
  70
    32
  0
VERTEX
  8
0
  5
2F99
 10
121.354
 20
60.1069
 30
2.70506e-14
  70
    32
  0
VERTEX
  8
0
  5
2F9A
 10
121.394
 20
60.1069
 30
2.70592e-14
  70
    32
  0
VERTEX
  8
0
  5
2F9B
 10
121.434
 20
60.1069
 30
2.70678e-14
  70
    32
  0
VERTEX
  8
0
  5
2F9C
 10
121.474
 20
60.1069
 30
2.70764e-14
  70
    32
  0
VERTEX
  8
0
  5
2F9D
 10
121.513
 20
60.1069
 30
2.70850e-14
  70
    32
  0
VERTEX
  8
0
  5
2F9E
 10
121.553
 20
60.1069
 30
2.70937e-14
  70
    32
  0
VERTEX
  8
0
  5
2F9F
 10
121.593
 20
60.1069
 30
2.71024e-14
  70
    32
  0
VERTEX
  8
0
  5
2FA0
 10
121.633
 20
60.1069
 30
2.71110e-14
  70
    32
  0
VERTEX
  8
0
  5
2FA1
 10
121.673
 20
60.1069
 30
2.71197e-14
  70
    32
  0
VERTEX
  8
0
  5
2FA2
 10
121.713
 20
60.1069
 30
2.71284e-14
  70
    32
  0
VERTEX
  8
0
  5
2FA3
 10
121.754
 20
60.1069
 30
2.71372e-14
  70
    32
  0
VERTEX
  8
0
  5
2FA4
 10
121.794
 20
60.1069
 30
2.71459e-14
  70
    32
  0
VERTEX
  8
0
  5
2FA5
 10
121.834
 20
60.1069
 30
2.71547e-14
  70
    32
  0
VERTEX
  8
0
  5
2FA6
 10
121.874
 20
60.1069
 30
2.71635e-14
  70
    32
  0
VERTEX
  8
0
  5
2FA7
 10
121.914
 20
60.1069
 30
2.71723e-14
  70
    32
  0
VERTEX
  8
0
  5
2FA8
 10
121.955
 20
60.1069
 30
2.71811e-14
  70
    32
  0
VERTEX
  8
0
  5
2FA9
 10
121.995
 20
60.1069
 30
2.71899e-14
  70
    32
  0
VERTEX
  8
0
  5
2FAA
 10
122.036
 20
60.1069
 30
2.71988e-14
  70
    32
  0
VERTEX
  8
0
  5
2FAB
 10
122.076
 20
60.1069
 30
2.72077e-14
  70
    32
  0
VERTEX
  8
0
  5
2FAC
 10
122.117
 20
60.1069
 30
2.72166e-14
  70
    32
  0
VERTEX
  8
0
  5
2FAD
 10
122.157
 20
60.1069
 30
2.72255e-14
  70
    32
  0
VERTEX
  8
0
  5
2FAE
 10
122.198
 20
60.1069
 30
2.72344e-14
  70
    32
  0
VERTEX
  8
0
  5
2FAF
 10
122.238
 20
60.1069
 30
2.72434e-14
  70
    32
  0
VERTEX
  8
0
  5
2FB0
 10
122.279
 20
60.1069
 30
2.72523e-14
  70
    32
  0
VERTEX
  8
0
  5
2FB1
 10
122.320
 20
60.1069
 30
2.72613e-14
  70
    32
  0
VERTEX
  8
0
  5
2FB2
 10
122.360
 20
60.1069
 30
2.72703e-14
  70
    32
  0
VERTEX
  8
0
  5
2FB3
 10
122.401
 20
60.1069
 30
2.72794e-14
  70
    32
  0
VERTEX
  8
0
  5
2FB4
 10
122.442
 20
60.1069
 30
2.72884e-14
  70
    32
  0
VERTEX
  8
0
  5
2FB5
 10
122.483
 20
60.1069
 30
2.72975e-14
  70
    32
  0
VERTEX
  8
0
  5
2FB6
 10
122.524
 20
60.1069
 30
2.73066e-14
  70
    32
  0
VERTEX
  8
0
  5
2FB7
 10
122.565
 20
60.1069
 30
2.73157e-14
  70
    32
  0
VERTEX
  8
0
  5
2FB8
 10
122.606
 20
60.1069
 30
2.73249e-14
  70
    32
  0
VERTEX
  8
0
  5
2FB9
 10
122.647
 20
60.1069
 30
2.73340e-14
  70
    32
  0
VERTEX
  8
0
  5
2FBA
 10
122.688
 20
60.1069
 30
2.73432e-14
  70
    32
  0
VERTEX
  8
0
  5
2FBB
 10
122.729
 20
60.1069
 30
2.73524e-14
  70
    32
  0
VERTEX
  8
0
  5
2FBC
 10
122.770
 20
60.1069
 30
2.73617e-14
  70
    32
  0
VERTEX
  8
0
  5
2FBD
 10
122.811
 20
60.1069
 30
2.73709e-14
  70
    32
  0
VERTEX
  8
0
  5
2FBE
 10
122.852
 20
60.1069
 30
2.73802e-14
  70
    32
  0
VERTEX
  8
0
  5
2FBF
 10
122.894
 20
60.1069
 30
2.73895e-14
  70
    32
  0
VERTEX
  8
0
  5
2FC0
 10
122.935
 20
60.1069
 30
2.73988e-14
  70
    32
  0
VERTEX
  8
0
  5
2FC1
 10
122.976
 20
60.1069
 30
2.74081e-14
  70
    32
  0
VERTEX
  8
0
  5
2FC2
 10
123.018
 20
60.1069
 30
2.74175e-14
  70
    32
  0
VERTEX
  8
0
  5
2FC3
 10
123.059
 20
60.1069
 30
2.74269e-14
  70
    32
  0
VERTEX
  8
0
  5
2FC4
 10
123.101
 20
60.1069
 30
2.74363e-14
  70
    32
  0
VERTEX
  8
0
  5
2FC5
 10
123.142
 20
60.1069
 30
2.74457e-14
  70
    32
  0
VERTEX
  8
0
  5
2FC6
 10
123.184
 20
60.1069
 30
2.74552e-14
  70
    32
  0
VERTEX
  8
0
  5
2FC7
 10
123.226
 20
60.1069
 30
2.74646e-14
  70
    32
  0
VERTEX
  8
0
  5
2FC8
 10
123.267
 20
60.1069
 30
2.74742e-14
  70
    32
  0
VERTEX
  8
0
  5
2FC9
 10
123.309
 20
60.1069
 30
2.74837e-14
  70
    32
  0
VERTEX
  8
0
  5
2FCA
 10
123.351
 20
60.1069
 30
2.74932e-14
  70
    32
  0
VERTEX
  8
0
  5
2FCB
 10
123.392
 20
60.1069
 30
2.75028e-14
  70
    32
  0
VERTEX
  8
0
  5
2FCC
 10
123.434
 20
60.1069
 30
2.75124e-14
  70
    32
  0
VERTEX
  8
0
  5
2FCD
 10
123.476
 20
60.1069
 30
2.75220e-14
  70
    32
  0
VERTEX
  8
0
  5
2FCE
 10
123.518
 20
60.1069
 30
2.75317e-14
  70
    32
  0
VERTEX
  8
0
  5
2FCF
 10
123.560
 20
60.1069
 30
2.75414e-14
  70
    32
  0
VERTEX
  8
0
  5
2FD0
 10
123.602
 20
60.1069
 30
2.75511e-14
  70
    32
  0
VERTEX
  8
0
  5
2FD1
 10
123.644
 20
60.1069
 30
2.75608e-14
  70
    32
  0
VERTEX
  8
0
  5
2FD2
 10
123.686
 20
60.1069
 30
2.75705e-14
  70
    32
  0
VERTEX
  8
0
  5
2FD3
 10
123.728
 20
60.1069
 30
2.75803e-14
  70
    32
  0
VERTEX
  8
0
  5
2FD4
 10
123.771
 20
60.1069
 30
2.75901e-14
  70
    32
  0
VERTEX
  8
0
  5
2FD5
 10
123.813
 20
60.1069
 30
2.76000e-14
  70
    32
  0
VERTEX
  8
0
  5
2FD6
 10
123.855
 20
60.1069
 30
2.76098e-14
  70
    32
  0
VERTEX
  8
0
  5
2FD7
 10
123.897
 20
60.1069
 30
2.76197e-14
  70
    32
  0
VERTEX
  8
0
  5
2FD8
 10
123.940
 20
60.1069
 30
2.76296e-14
  70
    32
  0
VERTEX
  8
0
  5
2FD9
 10
123.982
 20
60.1069
 30
2.76395e-14
  70
    32
  0
VERTEX
  8
0
  5
2FDA
 10
124.025
 20
60.1069
 30
2.76495e-14
  70
    32
  0
VERTEX
  8
0
  5
2FDB
 10
124.067
 20
60.1069
 30
2.76595e-14
  70
    32
  0
VERTEX
  8
0
  5
2FDC
 10
124.110
 20
60.1069
 30
2.76695e-14
  70
    32
  0
VERTEX
  8
0
  5
2FDD
 10
124.152
 20
60.1069
 30
2.76796e-14
  70
    32
  0
VERTEX
  8
0
  5
2FDE
 10
124.195
 20
60.1069
 30
2.76896e-14
  70
    32
  0
VERTEX
  8
0
  5
2FDF
 10
124.237
 20
60.1069
 30
2.76997e-14
  70
    32
  0
VERTEX
  8
0
  5
2FE0
 10
124.280
 20
60.1069
 30
2.77099e-14
  70
    32
  0
VERTEX
  8
0
  5
2FE1
 10
124.323
 20
60.1069
 30
2.77200e-14
  70
    32
  0
VERTEX
  8
0
  5
2FE2
 10
124.366
 20
60.1069
 30
2.77302e-14
  70
    32
  0
VERTEX
  8
0
  5
2FE3
 10
124.409
 20
60.1069
 30
2.77404e-14
  70
    32
  0
VERTEX
  8
0
  5
2FE4
 10
124.451
 20
60.1069
 30
2.77507e-14
  70
    32
  0
VERTEX
  8
0
  5
2FE5
 10
124.494
 20
60.1069
 30
2.77609e-14
  70
    32
  0
VERTEX
  8
0
  5
2FE6
 10
124.537
 20
60.1069
 30
2.77712e-14
  70
    32
  0
VERTEX
  8
0
  5
2FE7
 10
124.580
 20
60.1069
 30
2.77816e-14
  70
    32
  0
VERTEX
  8
0
  5
2FE8
 10
124.623
 20
60.1069
 30
2.77919e-14
  70
    32
  0
VERTEX
  8
0
  5
2FE9
 10
124.666
 20
60.1069
 30
2.78023e-14
  70
    32
  0
VERTEX
  8
0
  5
2FEA
 10
124.710
 20
60.1069
 30
2.78127e-14
  70
    32
  0
VERTEX
  8
0
  5
2FEB
 10
124.753
 20
60.1069
 30
2.78231e-14
  70
    32
  0
VERTEX
  8
0
  5
2FEC
 10
124.796
 20
60.1069
 30
2.78335e-14
  70
    32
  0
VERTEX
  8
0
  5
2FED
 10
124.840
 20
60.1069
 30
2.78440e-14
  70
    32
  0
VERTEX
  8
0
  5
2FEE
 10
124.883
 20
60.1069
 30
2.78544e-14
  70
    32
  0
VERTEX
  8
0
  5
2FEF
 10
124.927
 20
60.1069
 30
2.78648e-14
  70
    32
  0
VERTEX
  8
0
  5
2FF0
 10
124.971
 20
60.1069
 30
2.78752e-14
  70
    32
  0
VERTEX
  8
0
  5
2FF1
 10
125.015
 20
60.1069
 30
2.78857e-14
  70
    32
  0
VERTEX
  8
0
  5
2FF2
 10
125.059
 20
60.1069
 30
2.78961e-14
  70
    32
  0
VERTEX
  8
0
  5
2FF3
 10
125.103
 20
60.1069
 30
2.79065e-14
  70
    32
  0
VERTEX
  8
0
  5
2FF4
 10
125.147
 20
60.1069
 30
2.79170e-14
  70
    32
  0
VERTEX
  8
0
  5
2FF5
 10
125.191
 20
60.1069
 30
2.79274e-14
  70
    32
  0
VERTEX
  8
0
  5
2FF6
 10
125.235
 20
60.1069
 30
2.79378e-14
  70
    32
  0
VERTEX
  8
0
  5
2FF7
 10
125.280
 20
60.1069
 30
2.79483e-14
  70
    32
  0
VERTEX
  8
0
  5
2FF8
 10
125.324
 20
60.1069
 30
2.79587e-14
  70
    32
  0
VERTEX
  8
0
  5
2FF9
 10
125.369
 20
60.1069
 30
2.79692e-14
  70
    32
  0
VERTEX
  8
0
  5
2FFA
 10
125.414
 20
60.1069
 30
2.79796e-14
  70
    32
  0
VERTEX
  8
0
  5
2FFB
 10
125.459
 20
60.1069
 30
2.79901e-14
  70
    32
  0
VERTEX
  8
0
  5
2FFC
 10
125.504
 20
60.1069
 30
2.80006e-14
  70
    32
  0
VERTEX
  8
0
  5
2FFD
 10
125.549
 20
60.1069
 30
2.80110e-14
  70
    32
  0
VERTEX
  8
0
  5
2FFE
 10
125.594
 20
60.1069
 30
2.80215e-14
  70
    32
  0
VERTEX
  8
0
  5
2FFF
 10
125.639
 20
60.1069
 30
2.80320e-14
  70
    32
  0
VERTEX
  8
0
  5
3000
 10
125.684
 20
60.1069
 30
2.80425e-14
  70
    32
  0
VERTEX
  8
0
  5
3001
 10
125.730
 20
60.1069
 30
2.80529e-14
  70
    32
  0
VERTEX
  8
0
  5
3002
 10
125.775
 20
60.1069
 30
2.80634e-14
  70
    32
  0
VERTEX
  8
0
  5
3003
 10
125.821
 20
60.1069
 30
2.80739e-14
  70
    32
  0
VERTEX
  8
0
  5
3004
 10
125.867
 20
60.1069
 30
2.80844e-14
  70
    32
  0
VERTEX
  8
0
  5
3005
 10
125.913
 20
60.1069
 30
2.80949e-14
  70
    32
  0
VERTEX
  8
0
  5
3006
 10
125.959
 20
60.1069
 30
2.81054e-14
  70
    32
  0
VERTEX
  8
0
  5
3007
 10
126.005
 20
60.1069
 30
2.81159e-14
  70
    32
  0
VERTEX
  8
0
  5
3008
 10
126.051
 20
60.1069
 30
2.81264e-14
  70
    32
  0
VERTEX
  8
0
  5
3009
 10
126.098
 20
60.1069
 30
2.81369e-14
  70
    32
  0
VERTEX
  8
0
  5
300A
 10
126.144
 20
60.1069
 30
2.81474e-14
  70
    32
  0
VERTEX
  8
0
  5
300B
 10
126.190
 20
60.1069
 30
2.81579e-14
  70
    32
  0
VERTEX
  8
0
  5
300C
 10
126.237
 20
60.1069
 30
2.81684e-14
  70
    32
  0
VERTEX
  8
0
  5
300D
 10
126.284
 20
60.1069
 30
2.81789e-14
  70
    32
  0
VERTEX
  8
0
  5
300E
 10
126.331
 20
60.1069
 30
2.81895e-14
  70
    32
  0
VERTEX
  8
0
  5
300F
 10
126.378
 20
60.1069
 30
2.82000e-14
  70
    32
  0
VERTEX
  8
0
  5
3010
 10
126.425
 20
60.1069
 30
2.82105e-14
  70
    32
  0
VERTEX
  8
0
  5
3011
 10
126.472
 20
60.1069
 30
2.82211e-14
  70
    32
  0
VERTEX
  8
0
  5
3012
 10
126.519
 20
60.1069
 30
2.82316e-14
  70
    32
  0
VERTEX
  8
0
  5
3013
 10
126.567
 20
60.1069
 30
2.82421e-14
  70
    32
  0
VERTEX
  8
0
  5
3014
 10
126.614
 20
60.1069
 30
2.82527e-14
  70
    32
  0
VERTEX
  8
0
  5
3015
 10
126.662
 20
60.1069
 30
2.82632e-14
  70
    32
  0
VERTEX
  8
0
  5
3016
 10
126.710
 20
60.1069
 30
2.82738e-14
  70
    32
  0
VERTEX
  8
0
  5
3017
 10
126.758
 20
60.1069
 30
2.82844e-14
  70
    32
  0
VERTEX
  8
0
  5
3018
 10
126.806
 20
60.1069
 30
2.82949e-14
  70
    32
  0
VERTEX
  8
0
  5
3019
 10
126.854
 20
60.1069
 30
2.83055e-14
  70
    32
  0
VERTEX
  8
0
  5
301A
 10
126.902
 20
60.1069
 30
2.83160e-14
  70
    32
  0
VERTEX
  8
0
  5
301B
 10
126.950
 20
60.1069
 30
2.83266e-14
  70
    32
  0
VERTEX
  8
0
  5
301C
 10
126.999
 20
60.1069
 30
2.83372e-14
  70
    32
  0
VERTEX
  8
0
  5
301D
 10
127.047
 20
60.1069
 30
2.83478e-14
  70
    32
  0
VERTEX
  8
0
  5
301E
 10
127.096
 20
60.1069
 30
2.83584e-14
  70
    32
  0
VERTEX
  8
0
  5
301F
 10
127.145
 20
60.1069
 30
2.83689e-14
  70
    32
  0
VERTEX
  8
0
  5
3020
 10
127.194
 20
60.1069
 30
2.83795e-14
  70
    32
  0
VERTEX
  8
0
  5
3021
 10
127.243
 20
60.1069
 30
2.83901e-14
  70
    32
  0
VERTEX
  8
0
  5
3022
 10
127.292
 20
60.1069
 30
2.84007e-14
  70
    32
  0
VERTEX
  8
0
  5
3023
 10
127.341
 20
60.1069
 30
2.84113e-14
  70
    32
  0
VERTEX
  8
0
  5
3024
 10
127.391
 20
60.1069
 30
2.84219e-14
  70
    32
  0
VERTEX
  8
0
  5
3025
 10
127.440
 20
60.1069
 30
2.84326e-14
  70
    32
  0
VERTEX
  8
0
  5
3026
 10
127.490
 20
60.1069
 30
2.84432e-14
  70
    32
  0
VERTEX
  8
0
  5
3027
 10
127.540
 20
60.1069
 30
2.84538e-14
  70
    32
  0
VERTEX
  8
0
  5
3028
 10
127.589
 20
60.1069
 30
2.84644e-14
  70
    32
  0
VERTEX
  8
0
  5
3029
 10
127.639
 20
60.1069
 30
2.84750e-14
  70
    32
  0
VERTEX
  8
0
  5
302A
 10
127.690
 20
60.1069
 30
2.84857e-14
  70
    32
  0
VERTEX
  8
0
  5
302B
 10
127.740
 20
60.1069
 30
2.84963e-14
  70
    32
  0
VERTEX
  8
0
  5
302C
 10
127.790
 20
60.1069
 30
2.85070e-14
  70
    32
  0
VERTEX
  8
0
  5
302D
 10
127.841
 20
60.1069
 30
2.85176e-14
  70
    32
  0
VERTEX
  8
0
  5
302E
 10
127.891
 20
60.1069
 30
2.85282e-14
  70
    32
  0
VERTEX
  8
0
  5
302F
 10
127.942
 20
60.1069
 30
2.85389e-14
  70
    32
  0
VERTEX
  8
0
  5
3030
 10
127.993
 20
60.1069
 30
2.85496e-14
  70
    32
  0
VERTEX
  8
0
  5
3031
 10
128.044
 20
60.1069
 30
2.85602e-14
  70
    32
  0
VERTEX
  8
0
  5
3032
 10
128.095
 20
60.1069
 30
2.85709e-14
  70
    32
  0
VERTEX
  8
0
  5
3033
 10
128.146
 20
60.1069
 30
2.85816e-14
  70
    32
  0
VERTEX
  8
0
  5
3034
 10
128.197
 20
60.1069
 30
2.85922e-14
  70
    32
  0
VERTEX
  8
0
  5
3035
 10
128.249
 20
60.1069
 30
2.86029e-14
  70
    32
  0
VERTEX
  8
0
  5
3036
 10
128.300
 20
60.1069
 30
2.86136e-14
  70
    32
  0
VERTEX
  8
0
  5
3037
 10
128.352
 20
60.1069
 30
2.86243e-14
  70
    32
  0
VERTEX
  8
0
  5
3038
 10
128.404
 20
60.1069
 30
2.86350e-14
  70
    32
  0
VERTEX
  8
0
  5
3039
 10
128.456
 20
60.1069
 30
2.86457e-14
  70
    32
  0
VERTEX
  8
0
  5
303A
 10
128.508
 20
60.1069
 30
2.86564e-14
  70
    32
  0
VERTEX
  8
0
  5
303B
 10
128.560
 20
60.1069
 30
2.86671e-14
  70
    32
  0
VERTEX
  8
0
  5
303C
 10
128.613
 20
60.1069
 30
2.86778e-14
  70
    32
  0
VERTEX
  8
0
  5
303D
 10
128.665
 20
60.1069
 30
2.86885e-14
  70
    32
  0
VERTEX
  8
0
  5
303E
 10
128.718
 20
60.1069
 30
2.86992e-14
  70
    32
  0
VERTEX
  8
0
  5
303F
 10
128.770
 20
60.1069
 30
2.87099e-14
  70
    32
  0
VERTEX
  8
0
  5
3040
 10
128.822
 20
60.1069
 30
2.87203e-14
  70
    32
  0
VERTEX
  8
0
  5
3041
 10
128.871
 20
60.1069
 30
2.87303e-14
  70
    32
  0
VERTEX
  8
0
  5
3042
 10
128.919
 20
60.1069
 30
2.87399e-14
  70
    32
  0
VERTEX
  8
0
  5
3043
 10
128.965
 20
60.1069
 30
2.87491e-14
  70
    32
  0
VERTEX
  8
0
  5
3044
 10
129.010
 20
60.1069
 30
2.87580e-14
  70
    32
  0
VERTEX
  8
0
  5
3045
 10
129.053
 20
60.1069
 30
2.87666e-14
  70
    32
  0
VERTEX
  8
0
  5
3046
 10
129.094
 20
60.1070
 30
2.87748e-14
  70
    32
  0
VERTEX
  8
0
  5
3047
 10
129.134
 20
60.1070
 30
2.87827e-14
  70
    32
  0
VERTEX
  8
0
  5
3048
 10
129.173
 20
60.1070
 30
2.87902e-14
  70
    32
  0
VERTEX
  8
0
  5
3049
 10
129.210
 20
60.1070
 30
2.87975e-14
  70
    32
  0
VERTEX
  8
0
  5
304A
 10
129.246
 20
60.1070
 30
2.88044e-14
  70
    32
  0
VERTEX
  8
0
  5
304B
 10
129.281
 20
60.1071
 30
2.88111e-14
  70
    32
  0
VERTEX
  8
0
  5
304C
 10
129.314
 20
60.1071
 30
2.88175e-14
  70
    32
  0
VERTEX
  8
0
  5
304D
 10
129.346
 20
60.1071
 30
2.88236e-14
  70
    32
  0
VERTEX
  8
0
  5
304E
 10
129.376
 20
60.1071
 30
2.88294e-14
  70
    32
  0
VERTEX
  8
0
  5
304F
 10
129.406
 20
60.1071
 30
2.88350e-14
  70
    32
  0
VERTEX
  8
0
  5
3050
 10
129.434
 20
60.1071
 30
2.88403e-14
  70
    32
  0
VERTEX
  8
0
  5
3051
 10
129.461
 20
60.1071
 30
2.88454e-14
  70
    32
  0
VERTEX
  8
0
  5
3052
 10
129.488
 20
60.1071
 30
2.88502e-14
  70
    32
  0
VERTEX
  8
0
  5
3053
 10
129.513
 20
60.1071
 30
2.88549e-14
  70
    32
  0
VERTEX
  8
0
  5
3054
 10
129.537
 20
60.1071
 30
2.88593e-14
  70
    32
  0
VERTEX
  8
0
  5
3055
 10
129.560
 20
60.1071
 30
2.88635e-14
  70
    32
  0
VERTEX
  8
0
  5
3056
 10
129.582
 20
60.1070
 30
2.88675e-14
  70
    32
  0
VERTEX
  8
0
  5
3057
 10
129.603
 20
60.1070
 30
2.88713e-14
  70
    32
  0
VERTEX
  8
0
  5
3058
 10
129.624
 20
60.1069
 30
2.88750e-14
  70
    32
  0
VERTEX
  8
0
  5
3059
 10
129.643
 20
60.1069
 30
2.88785e-14
  70
    32
  0
VERTEX
  8
0
  5
305A
 10
129.662
 20
60.1068
 30
2.88818e-14
  70
    32
  0
VERTEX
  8
0
  5
305B
 10
129.680
 20
60.1067
 30
2.88850e-14
  70
    32
  0
VERTEX
  8
0
  5
305C
 10
129.697
 20
60.1067
 30
2.88880e-14
  70
    32
  0
VERTEX
  8
0
  5
305D
 10
129.714
 20
60.1066
 30
2.88909e-14
  70
    32
  0
VERTEX
  8
0
  5
305E
 10
129.730
 20
60.1065
 30
2.88936e-14
  70
    32
  0
VERTEX
  8
0
  5
305F
 10
129.745
 20
60.1063
 30
2.88963e-14
  70
    32
  0
VERTEX
  8
0
  5
3060
 10
129.760
 20
60.1062
 30
2.88988e-14
  70
    32
  0
VERTEX
  8
0
  5
3061
 10
129.774
 20
60.1061
 30
2.89013e-14
  70
    32
  0
VERTEX
  8
0
  5
3062
 10
129.788
 20
60.1059
 30
2.89037e-14
  70
    32
  0
VERTEX
  8
0
  5
3063
 10
129.801
 20
60.1057
 30
2.89059e-14
  70
    32
  0
VERTEX
  8
0
  5
3064
 10
129.814
 20
60.1055
 30
2.89081e-14
  70
    32
  0
VERTEX
  8
0
  5
3065
 10
129.826
 20
60.1053
 30
2.89103e-14
  70
    32
  0
VERTEX
  8
0
  5
3066
 10
129.838
 20
60.1051
 30
2.89124e-14
  70
    32
  0
VERTEX
  8
0
  5
3067
 10
129.850
 20
60.1049
 30
2.89144e-14
  70
    32
  0
VERTEX
  8
0
  5
3068
 10
129.861
 20
60.1046
 30
2.89164e-14
  70
    32
  0
VERTEX
  8
0
  5
3069
 10
129.872
 20
60.1043
 30
2.89184e-14
  70
    32
  0
VERTEX
  8
0
  5
306A
 10
129.883
 20
60.1040
 30
2.89204e-14
  70
    32
  0
VERTEX
  8
0
  5
306B
 10
129.894
 20
60.1037
 30
2.89223e-14
  70
    32
  0
VERTEX
  8
0
  5
306C
 10
129.904
 20
60.1034
 30
2.89243e-14
  70
    32
  0
VERTEX
  8
0
  5
306D
 10
129.915
 20
60.1030
 30
2.89262e-14
  70
    32
  0
VERTEX
  8
0
  5
306E
 10
129.925
 20
60.1027
 30
2.89282e-14
  70
    32
  0
VERTEX
  8
0
  5
306F
 10
129.935
 20
60.1023
 30
2.89302e-14
  70
    32
  0
VERTEX
  8
0
  5
3070
 10
129.946
 20
60.1019
 30
2.89323e-14
  70
    32
  0
VERTEX
  8
0
  5
3071
 10
129.956
 20
60.1014
 30
2.89343e-14
  70
    32
  0
VERTEX
  8
0
  5
3072
 10
129.966
 20
60.1010
 30
2.89365e-14
  70
    32
  0
VERTEX
  8
0
  5
3073
 10
129.977
 20
60.1005
 30
2.89387e-14
  70
    32
  0
VERTEX
  8
0
  5
3074
 10
129.987
 20
60.1000
 30
2.89409e-14
  70
    32
  0
VERTEX
  8
0
  5
3075
 10
129.998
 20
60.0995
 30
2.89433e-14
  70
    32
  0
VERTEX
  8
0
  5
3076
 10
130.009
 20
60.0989
 30
2.89457e-14
  70
    32
  0
VERTEX
  8
0
  5
3077
 10
130.020
 20
60.0983
 30
2.89480e-14
  70
    32
  0
VERTEX
  8
0
  5
3078
 10
130.031
 20
60.0977
 30
2.89504e-14
  70
    32
  0
VERTEX
  8
0
  5
3079
 10
130.042
 20
60.0971
 30
2.89529e-14
  70
    32
  0
VERTEX
  8
0
  5
307A
 10
130.053
 20
60.0965
 30
2.89553e-14
  70
    32
  0
VERTEX
  8
0
  5
307B
 10
130.064
 20
60.0958
 30
2.89577e-14
  70
    32
  0
VERTEX
  8
0
  5
307C
 10
130.075
 20
60.0952
 30
2.89601e-14
  70
    32
  0
VERTEX
  8
0
  5
307D
 10
130.086
 20
60.0945
 30
2.89626e-14
  70
    32
  0
VERTEX
  8
0
  5
307E
 10
130.097
 20
60.0938
 30
2.89650e-14
  70
    32
  0
VERTEX
  8
0
  5
307F
 10
130.108
 20
60.0930
 30
2.89674e-14
  70
    32
  0
VERTEX
  8
0
  5
3080
 10
130.119
 20
60.0923
 30
2.89699e-14
  70
    32
  0
VERTEX
  8
0
  5
3081
 10
130.130
 20
60.0915
 30
2.89723e-14
  70
    32
  0
VERTEX
  8
0
  5
3082
 10
130.141
 20
60.0907
 30
2.89748e-14
  70
    32
  0
VERTEX
  8
0
  5
3083
 10
130.152
 20
60.0899
 30
2.89773e-14
  70
    32
  0
VERTEX
  8
0
  5
3084
 10
130.163
 20
60.0891
 30
2.89798e-14
  70
    32
  0
VERTEX
  8
0
  5
3085
 10
130.174
 20
60.0882
 30
2.89822e-14
  70
    32
  0
VERTEX
  8
0
  5
3086
 10
130.185
 20
60.0873
 30
2.89847e-14
  70
    32
  0
VERTEX
  8
0
  5
3087
 10
130.196
 20
60.0864
 30
2.89872e-14
  70
    32
  0
VERTEX
  8
0
  5
3088
 10
130.207
 20
60.0855
 30
2.89897e-14
  70
    32
  0
VERTEX
  8
0
  5
3089
 10
130.218
 20
60.0846
 30
2.89922e-14
  70
    32
  0
VERTEX
  8
0
  5
308A
 10
130.229
 20
60.0836
 30
2.89947e-14
  70
    32
  0
VERTEX
  8
0
  5
308B
 10
130.240
 20
60.0826
 30
2.89972e-14
  70
    32
  0
VERTEX
  8
0
  5
308C
 10
130.251
 20
60.0816
 30
2.89998e-14
  70
    32
  0
VERTEX
  8
0
  5
308D
 10
130.262
 20
60.0806
 30
2.90023e-14
  70
    32
  0
VERTEX
  8
0
  5
308E
 10
130.273
 20
60.0796
 30
2.90048e-14
  70
    32
  0
VERTEX
  8
0
  5
308F
 10
130.284
 20
60.0785
 30
2.90073e-14
  70
    32
  0
VERTEX
  8
0
  5
3090
 10
130.296
 20
60.0774
 30
2.90099e-14
  70
    32
  0
VERTEX
  8
0
  5
3091
 10
130.307
 20
60.0763
 30
2.90124e-14
  70
    32
  0
VERTEX
  8
0
  5
3092
 10
130.318
 20
60.0752
 30
2.90150e-14
  70
    32
  0
VERTEX
  8
0
  5
3093
 10
130.329
 20
60.0740
 30
2.90175e-14
  70
    32
  0
VERTEX
  8
0
  5
3094
 10
130.340
 20
60.0729
 30
2.90201e-14
  70
    32
  0
VERTEX
  8
0
  5
3095
 10
130.351
 20
60.0717
 30
2.90227e-14
  70
    32
  0
VERTEX
  8
0
  5
3096
 10
130.363
 20
60.0704
 30
2.90252e-14
  70
    32
  0
VERTEX
  8
0
  5
3097
 10
130.374
 20
60.0692
 30
2.90278e-14
  70
    32
  0
VERTEX
  8
0
  5
3098
 10
130.385
 20
60.0679
 30
2.90304e-14
  70
    32
  0
VERTEX
  8
0
  5
3099
 10
130.396
 20
60.0667
 30
2.90330e-14
  70
    32
  0
VERTEX
  8
0
  5
309A
 10
130.407
 20
60.0653
 30
2.90355e-14
  70
    32
  0
VERTEX
  8
0
  5
309B
 10
130.419
 20
60.0640
 30
2.90381e-14
  70
    32
  0
VERTEX
  8
0
  5
309C
 10
130.430
 20
60.0627
 30
2.90407e-14
  70
    32
  0
VERTEX
  8
0
  5
309D
 10
130.441
 20
60.0613
 30
2.90433e-14
  70
    32
  0
VERTEX
  8
0
  5
309E
 10
130.452
 20
60.0599
 30
2.90459e-14
  70
    32
  0
VERTEX
  8
0
  5
309F
 10
130.463
 20
60.0585
 30
2.90485e-14
  70
    32
  0
VERTEX
  8
0
  5
30A0
 10
130.475
 20
60.0570
 30
2.90512e-14
  70
    32
  0
VERTEX
  8
0
  5
30A1
 10
130.486
 20
60.0556
 30
2.90538e-14
  70
    32
  0
VERTEX
  8
0
  5
30A2
 10
130.497
 20
60.0541
 30
2.90564e-14
  70
    32
  0
VERTEX
  8
0
  5
30A3
 10
130.509
 20
60.0526
 30
2.90590e-14
  70
    32
  0
VERTEX
  8
0
  5
30A4
 10
130.520
 20
60.0510
 30
2.90617e-14
  70
    32
  0
VERTEX
  8
0
  5
30A5
 10
130.531
 20
60.0495
 30
2.90643e-14
  70
    32
  0
VERTEX
  8
0
  5
30A6
 10
130.542
 20
60.0479
 30
2.90669e-14
  70
    32
  0
VERTEX
  8
0
  5
30A7
 10
130.554
 20
60.0463
 30
2.90696e-14
  70
    32
  0
VERTEX
  8
0
  5
30A8
 10
130.565
 20
60.0447
 30
2.90722e-14
  70
    32
  0
VERTEX
  8
0
  5
30A9
 10
130.576
 20
60.0430
 30
2.90748e-14
  70
    32
  0
VERTEX
  8
0
  5
30AA
 10
130.588
 20
60.0414
 30
2.90775e-14
  70
    32
  0
VERTEX
  8
0
  5
30AB
 10
130.599
 20
60.0397
 30
2.90802e-14
  70
    32
  0
VERTEX
  8
0
  5
30AC
 10
130.610
 20
60.0380
 30
2.90828e-14
  70
    32
  0
VERTEX
  8
0
  5
30AD
 10
130.622
 20
60.0362
 30
2.90855e-14
  70
    32
  0
VERTEX
  8
0
  5
30AE
 10
130.633
 20
60.0345
 30
2.90881e-14
  70
    32
  0
VERTEX
  8
0
  5
30AF
 10
130.644
 20
60.0327
 30
2.90908e-14
  70
    32
  0
VERTEX
  8
0
  5
30B0
 10
130.656
 20
60.0309
 30
2.90935e-14
  70
    32
  0
VERTEX
  8
0
  5
30B1
 10
130.667
 20
60.0290
 30
2.90961e-14
  70
    32
  0
VERTEX
  8
0
  5
30B2
 10
130.679
 20
60.0272
 30
2.90988e-14
  70
    32
  0
VERTEX
  8
0
  5
30B3
 10
130.690
 20
60.0253
 30
2.91015e-14
  70
    32
  0
VERTEX
  8
0
  5
30B4
 10
130.701
 20
60.0234
 30
2.91042e-14
  70
    32
  0
VERTEX
  8
0
  5
30B5
 10
130.713
 20
60.0215
 30
2.91069e-14
  70
    32
  0
VERTEX
  8
0
  5
30B6
 10
130.724
 20
60.0195
 30
2.91095e-14
  70
    32
  0
VERTEX
  8
0
  5
30B7
 10
130.736
 20
60.0175
 30
2.91122e-14
  70
    32
  0
VERTEX
  8
0
  5
30B8
 10
130.747
 20
60.0155
 30
2.91149e-14
  70
    32
  0
VERTEX
  8
0
  5
30B9
 10
130.758
 20
60.0135
 30
2.91176e-14
  70
    32
  0
VERTEX
  8
0
  5
30BA
 10
130.770
 20
60.0114
 30
2.91203e-14
  70
    32
  0
VERTEX
  8
0
  5
30BB
 10
130.781
 20
60.0094
 30
2.91230e-14
  70
    32
  0
VERTEX
  8
0
  5
30BC
 10
130.793
 20
60.0073
 30
2.91257e-14
  70
    32
  0
VERTEX
  8
0
  5
30BD
 10
130.804
 20
60.0051
 30
2.91284e-14
  70
    32
  0
VERTEX
  8
0
  5
30BE
 10
130.816
 20
60.0030
 30
2.91311e-14
  70
    32
  0
VERTEX
  8
0
  5
30BF
 10
130.827
 20
60.0008
 30
2.91338e-14
  70
    32
  0
VERTEX
  8
0
  5
30C0
 10
130.839
 20
59.9986
 30
2.91366e-14
  70
    32
  0
VERTEX
  8
0
  5
30C1
 10
130.850
 20
59.9964
 30
2.91393e-14
  70
    32
  0
VERTEX
  8
0
  5
30C2
 10
130.862
 20
59.9942
 30
2.91420e-14
  70
    32
  0
VERTEX
  8
0
  5
30C3
 10
130.873
 20
59.9919
 30
2.91447e-14
  70
    32
  0
VERTEX
  8
0
  5
30C4
 10
130.885
 20
59.9896
 30
2.91474e-14
  70
    32
  0
VERTEX
  8
0
  5
30C5
 10
130.896
 20
59.9873
 30
2.91501e-14
  70
    32
  0
VERTEX
  8
0
  5
30C6
 10
130.908
 20
59.9849
 30
2.91529e-14
  70
    32
  0
VERTEX
  8
0
  5
30C7
 10
130.919
 20
59.9825
 30
2.91556e-14
  70
    32
  0
VERTEX
  8
0
  5
30C8
 10
130.931
 20
59.9801
 30
2.91583e-14
  70
    32
  0
VERTEX
  8
0
  5
30C9
 10
130.942
 20
59.9777
 30
2.91610e-14
  70
    32
  0
VERTEX
  8
0
  5
30CA
 10
130.954
 20
59.9753
 30
2.91638e-14
  70
    32
  0
VERTEX
  8
0
  5
30CB
 10
130.966
 20
59.9728
 30
2.91665e-14
  70
    32
  0
VERTEX
  8
0
  5
30CC
 10
130.977
 20
59.9703
 30
2.91692e-14
  70
    32
  0
VERTEX
  8
0
  5
30CD
 10
130.989
 20
59.9678
 30
2.91720e-14
  70
    32
  0
VERTEX
  8
0
  5
30CE
 10
131.000
 20
59.9652
 30
2.91747e-14
  70
    32
  0
VERTEX
  8
0
  5
30CF
 10
131.012
 20
59.9626
 30
2.91774e-14
  70
    32
  0
VERTEX
  8
0
  5
30D0
 10
131.023
 20
59.9600
 30
2.91802e-14
  70
    32
  0
VERTEX
  8
0
  5
30D1
 10
131.035
 20
59.9574
 30
2.91829e-14
  70
    32
  0
VERTEX
  8
0
  5
30D2
 10
131.047
 20
59.9548
 30
2.91856e-14
  70
    32
  0
VERTEX
  8
0
  5
30D3
 10
131.058
 20
59.9521
 30
2.91884e-14
  70
    32
  0
VERTEX
  8
0
  5
30D4
 10
131.070
 20
59.9494
 30
2.91911e-14
  70
    32
  0
VERTEX
  8
0
  5
30D5
 10
131.081
 20
59.9466
 30
2.91939e-14
  70
    32
  0
VERTEX
  8
0
  5
30D6
 10
131.093
 20
59.9439
 30
2.91966e-14
  70
    32
  0
VERTEX
  8
0
  5
30D7
 10
131.105
 20
59.9411
 30
2.91993e-14
  70
    32
  0
VERTEX
  8
0
  5
30D8
 10
131.116
 20
59.9383
 30
2.92021e-14
  70
    32
  0
VERTEX
  8
0
  5
30D9
 10
131.128
 20
59.9354
 30
2.92048e-14
  70
    32
  0
VERTEX
  8
0
  5
30DA
 10
131.140
 20
59.9326
 30
2.92076e-14
  70
    32
  0
VERTEX
  8
0
  5
30DB
 10
131.151
 20
59.9297
 30
2.92103e-14
  70
    32
  0
VERTEX
  8
0
  5
30DC
 10
131.163
 20
59.9268
 30
2.92131e-14
  70
    32
  0
VERTEX
  8
0
  5
30DD
 10
131.175
 20
59.9238
 30
2.92158e-14
  70
    32
  0
VERTEX
  8
0
  5
30DE
 10
131.186
 20
59.9209
 30
2.92186e-14
  70
    32
  0
VERTEX
  8
0
  5
30DF
 10
131.198
 20
59.9179
 30
2.92213e-14
  70
    32
  0
VERTEX
  8
0
  5
30E0
 10
131.210
 20
59.9148
 30
2.92241e-14
  70
    32
  0
VERTEX
  8
0
  5
30E1
 10
131.221
 20
59.9118
 30
2.92268e-14
  70
    32
  0
VERTEX
  8
0
  5
30E2
 10
131.233
 20
59.9087
 30
2.92295e-14
  70
    32
  0
VERTEX
  8
0
  5
30E3
 10
131.245
 20
59.9056
 30
2.92323e-14
  70
    32
  0
VERTEX
  8
0
  5
30E4
 10
131.256
 20
59.9025
 30
2.92350e-14
  70
    32
  0
VERTEX
  8
0
  5
30E5
 10
131.268
 20
59.8993
 30
2.92378e-14
  70
    32
  0
VERTEX
  8
0
  5
30E6
 10
131.280
 20
59.8961
 30
2.92405e-14
  70
    32
  0
VERTEX
  8
0
  5
30E7
 10
131.292
 20
59.8929
 30
2.92433e-14
  70
    32
  0
VERTEX
  8
0
  5
30E8
 10
131.303
 20
59.8897
 30
2.92460e-14
  70
    32
  0
VERTEX
  8
0
  5
30E9
 10
131.315
 20
59.8864
 30
2.92488e-14
  70
    32
  0
VERTEX
  8
0
  5
30EA
 10
131.327
 20
59.8831
 30
2.92515e-14
  70
    32
  0
VERTEX
  8
0
  5
30EB
 10
131.338
 20
59.8798
 30
2.92543e-14
  70
    32
  0
VERTEX
  8
0
  5
30EC
 10
131.350
 20
59.8764
 30
2.92570e-14
  70
    32
  0
VERTEX
  8
0
  5
30ED
 10
131.362
 20
59.8731
 30
2.92597e-14
  70
    32
  0
VERTEX
  8
0
  5
30EE
 10
131.374
 20
59.8697
 30
2.92625e-14
  70
    32
  0
VERTEX
  8
0
  5
30EF
 10
131.385
 20
59.8662
 30
2.92652e-14
  70
    32
  0
VERTEX
  8
0
  5
30F0
 10
131.397
 20
59.8628
 30
2.92680e-14
  70
    32
  0
VERTEX
  8
0
  5
30F1
 10
131.409
 20
59.8593
 30
2.92707e-14
  70
    32
  0
VERTEX
  8
0
  5
30F2
 10
131.421
 20
59.8557
 30
2.92734e-14
  70
    32
  0
VERTEX
  8
0
  5
30F3
 10
131.433
 20
59.8522
 30
2.92762e-14
  70
    32
  0
VERTEX
  8
0
  5
30F4
 10
131.444
 20
59.8486
 30
2.92789e-14
  70
    32
  0
VERTEX
  8
0
  5
30F5
 10
131.456
 20
59.8450
 30
2.92816e-14
  70
    32
  0
VERTEX
  8
0
  5
30F6
 10
131.468
 20
59.8414
 30
2.92844e-14
  70
    32
  0
VERTEX
  8
0
  5
30F7
 10
131.480
 20
59.8377
 30
2.92871e-14
  70
    32
  0
VERTEX
  8
0
  5
30F8
 10
131.492
 20
59.8340
 30
2.92898e-14
  70
    32
  0
VERTEX
  8
0
  5
30F9
 10
131.503
 20
59.8303
 30
2.92926e-14
  70
    32
  0
VERTEX
  8
0
  5
30FA
 10
131.515
 20
59.8266
 30
2.92953e-14
  70
    32
  0
VERTEX
  8
0
  5
30FB
 10
131.527
 20
59.8228
 30
2.92980e-14
  70
    32
  0
VERTEX
  8
0
  5
30FC
 10
131.539
 20
59.8190
 30
2.93008e-14
  70
    32
  0
VERTEX
  8
0
  5
30FD
 10
131.551
 20
59.8152
 30
2.93035e-14
  70
    32
  0
VERTEX
  8
0
  5
30FE
 10
131.562
 20
59.8113
 30
2.93062e-14
  70
    32
  0
VERTEX
  8
0
  5
30FF
 10
131.574
 20
59.8074
 30
2.93089e-14
  70
    32
  0
VERTEX
  8
0
  5
3100
 10
131.586
 20
59.8035
 30
2.93116e-14
  70
    32
  0
VERTEX
  8
0
  5
3101
 10
131.598
 20
59.7996
 30
2.93144e-14
  70
    32
  0
VERTEX
  8
0
  5
3102
 10
131.610
 20
59.7956
 30
2.93171e-14
  70
    32
  0
VERTEX
  8
0
  5
3103
 10
131.622
 20
59.7916
 30
2.93198e-14
  70
    32
  0
VERTEX
  8
0
  5
3104
 10
131.634
 20
59.7875
 30
2.93225e-14
  70
    32
  0
VERTEX
  8
0
  5
3105
 10
131.645
 20
59.7835
 30
2.93252e-14
  70
    32
  0
VERTEX
  8
0
  5
3106
 10
131.657
 20
59.7794
 30
2.93279e-14
  70
    32
  0
VERTEX
  8
0
  5
3107
 10
131.669
 20
59.7753
 30
2.93306e-14
  70
    32
  0
VERTEX
  8
0
  5
3108
 10
131.681
 20
59.7711
 30
2.93333e-14
  70
    32
  0
VERTEX
  8
0
  5
3109
 10
131.693
 20
59.7669
 30
2.93360e-14
  70
    32
  0
VERTEX
  8
0
  5
310A
 10
131.705
 20
59.7627
 30
2.93387e-14
  70
    32
  0
VERTEX
  8
0
  5
310B
 10
131.717
 20
59.7585
 30
2.93414e-14
  70
    32
  0
VERTEX
  8
0
  5
310C
 10
131.729
 20
59.7542
 30
2.93441e-14
  70
    32
  0
VERTEX
  8
0
  5
310D
 10
131.740
 20
59.7499
 30
2.93468e-14
  70
    32
  0
VERTEX
  8
0
  5
310E
 10
131.752
 20
59.7456
 30
2.93495e-14
  70
    32
  0
VERTEX
  8
0
  5
310F
 10
131.764
 20
59.7412
 30
2.93522e-14
  70
    32
  0
VERTEX
  8
0
  5
3110
 10
131.776
 20
59.7368
 30
2.93548e-14
  70
    32
  0
VERTEX
  8
0
  5
3111
 10
131.788
 20
59.7324
 30
2.93575e-14
  70
    32
  0
VERTEX
  8
0
  5
3112
 10
131.800
 20
59.7279
 30
2.93602e-14
  70
    32
  0
VERTEX
  8
0
  5
3113
 10
131.812
 20
59.7235
 30
2.93629e-14
  70
    32
  0
VERTEX
  8
0
  5
3114
 10
131.824
 20
59.7189
 30
2.93655e-14
  70
    32
  0
VERTEX
  8
0
  5
3115
 10
131.836
 20
59.7144
 30
2.93682e-14
  70
    32
  0
VERTEX
  8
0
  5
3116
 10
131.848
 20
59.7098
 30
2.93709e-14
  70
    32
  0
VERTEX
  8
0
  5
3117
 10
131.860
 20
59.7052
 30
2.93735e-14
  70
    32
  0
VERTEX
  8
0
  5
3118
 10
131.872
 20
59.7006
 30
2.93762e-14
  70
    32
  0
VERTEX
  8
0
  5
3119
 10
131.883
 20
59.6959
 30
2.93788e-14
  70
    32
  0
VERTEX
  8
0
  5
311A
 10
131.895
 20
59.6912
 30
2.93815e-14
  70
    32
  0
VERTEX
  8
0
  5
311B
 10
131.907
 20
59.6865
 30
2.93841e-14
  70
    32
  0
VERTEX
  8
0
  5
311C
 10
131.919
 20
59.6817
 30
2.93868e-14
  70
    32
  0
VERTEX
  8
0
  5
311D
 10
131.931
 20
59.6770
 30
2.93894e-14
  70
    32
  0
VERTEX
  8
0
  5
311E
 10
131.943
 20
59.6721
 30
2.93920e-14
  70
    32
  0
VERTEX
  8
0
  5
311F
 10
131.955
 20
59.6673
 30
2.93947e-14
  70
    32
  0
VERTEX
  8
0
  5
3120
 10
131.967
 20
59.6624
 30
2.93973e-14
  70
    32
  0
VERTEX
  8
0
  5
3121
 10
131.979
 20
59.6575
 30
2.93999e-14
  70
    32
  0
VERTEX
  8
0
  5
3122
 10
131.991
 20
59.6526
 30
2.94025e-14
  70
    32
  0
VERTEX
  8
0
  5
3123
 10
132.003
 20
59.6476
 30
2.94052e-14
  70
    32
  0
VERTEX
  8
0
  5
3124
 10
132.015
 20
59.6426
 30
2.94078e-14
  70
    32
  0
VERTEX
  8
0
  5
3125
 10
132.027
 20
59.6375
 30
2.94104e-14
  70
    32
  0
VERTEX
  8
0
  5
3126
 10
132.039
 20
59.6325
 30
2.94130e-14
  70
    32
  0
VERTEX
  8
0
  5
3127
 10
132.051
 20
59.6274
 30
2.94156e-14
  70
    32
  0
VERTEX
  8
0
  5
3128
 10
132.063
 20
59.6222
 30
2.94182e-14
  70
    32
  0
VERTEX
  8
0
  5
3129
 10
132.075
 20
59.6171
 30
2.94208e-14
  70
    32
  0
VERTEX
  8
0
  5
312A
 10
132.087
 20
59.6119
 30
2.94234e-14
  70
    32
  0
VERTEX
  8
0
  5
312B
 10
132.099
 20
59.6066
 30
2.94259e-14
  70
    32
  0
VERTEX
  8
0
  5
312C
 10
132.111
 20
59.6014
 30
2.94285e-14
  70
    32
  0
VERTEX
  8
0
  5
312D
 10
132.123
 20
59.5961
 30
2.94311e-14
  70
    32
  0
VERTEX
  8
0
  5
312E
 10
132.135
 20
59.5908
 30
2.94337e-14
  70
    32
  0
VERTEX
  8
0
  5
312F
 10
132.147
 20
59.5854
 30
2.94362e-14
  70
    32
  0
VERTEX
  8
0
  5
3130
 10
132.159
 20
59.5800
 30
2.94388e-14
  70
    32
  0
VERTEX
  8
0
  5
3131
 10
132.171
 20
59.5746
 30
2.94413e-14
  70
    32
  0
VERTEX
  8
0
  5
3132
 10
132.183
 20
59.5691
 30
2.94439e-14
  70
    32
  0
VERTEX
  8
0
  5
3133
 10
132.195
 20
59.5637
 30
2.94464e-14
  70
    32
  0
VERTEX
  8
0
  5
3134
 10
132.207
 20
59.5581
 30
2.94490e-14
  70
    32
  0
VERTEX
  8
0
  5
3135
 10
132.219
 20
59.5526
 30
2.94515e-14
  70
    32
  0
VERTEX
  8
0
  5
3136
 10
132.231
 20
59.5470
 30
2.94540e-14
  70
    32
  0
VERTEX
  8
0
  5
3137
 10
132.243
 20
59.5414
 30
2.94565e-14
  70
    32
  0
VERTEX
  8
0
  5
3138
 10
132.255
 20
59.5357
 30
2.94591e-14
  70
    32
  0
VERTEX
  8
0
  5
3139
 10
132.267
 20
59.5301
 30
2.94616e-14
  70
    32
  0
VERTEX
  8
0
  5
313A
 10
132.279
 20
59.5243
 30
2.94641e-14
  70
    32
  0
VERTEX
  8
0
  5
313B
 10
132.291
 20
59.5186
 30
2.94666e-14
  70
    32
  0
VERTEX
  8
0
  5
313C
 10
132.303
 20
59.5128
 30
2.94691e-14
  70
    32
  0
VERTEX
  8
0
  5
313D
 10
132.315
 20
59.5070
 30
2.94717e-14
  70
    32
  0
VERTEX
  8
0
  5
313E
 10
132.327
 20
59.5012
 30
2.94742e-14
  70
    32
  0
VERTEX
  8
0
  5
313F
 10
132.339
 20
59.4953
 30
2.94768e-14
  70
    32
  0
VERTEX
  8
0
  5
3140
 10
132.352
 20
59.4894
 30
2.94793e-14
  70
    32
  0
VERTEX
  8
0
  5
3141
 10
132.364
 20
59.4834
 30
2.94819e-14
  70
    32
  0
VERTEX
  8
0
  5
3142
 10
132.376
 20
59.4774
 30
2.94845e-14
  70
    32
  0
VERTEX
  8
0
  5
3143
 10
132.388
 20
59.4714
 30
2.94872e-14
  70
    32
  0
VERTEX
  8
0
  5
3144
 10
132.400
 20
59.4654
 30
2.94898e-14
  70
    32
  0
VERTEX
  8
0
  5
3145
 10
132.412
 20
59.4593
 30
2.94924e-14
  70
    32
  0
VERTEX
  8
0
  5
3146
 10
132.424
 20
59.4532
 30
2.94951e-14
  70
    32
  0
VERTEX
  8
0
  5
3147
 10
132.436
 20
59.4470
 30
2.94978e-14
  70
    32
  0
VERTEX
  8
0
  5
3148
 10
132.448
 20
59.4409
 30
2.95004e-14
  70
    32
  0
VERTEX
  8
0
  5
3149
 10
132.460
 20
59.4347
 30
2.95031e-14
  70
    32
  0
VERTEX
  8
0
  5
314A
 10
132.472
 20
59.4284
 30
2.95058e-14
  70
    32
  0
VERTEX
  8
0
  5
314B
 10
132.484
 20
59.4221
 30
2.95086e-14
  70
    32
  0
VERTEX
  8
0
  5
314C
 10
132.496
 20
59.4158
 30
2.95113e-14
  70
    32
  0
VERTEX
  8
0
  5
314D
 10
132.508
 20
59.4095
 30
2.95140e-14
  70
    32
  0
VERTEX
  8
0
  5
314E
 10
132.520
 20
59.4031
 30
2.95168e-14
  70
    32
  0
VERTEX
  8
0
  5
314F
 10
132.532
 20
59.3967
 30
2.95195e-14
  70
    32
  0
VERTEX
  8
0
  5
3150
 10
132.544
 20
59.3902
 30
2.95223e-14
  70
    32
  0
VERTEX
  8
0
  5
3151
 10
132.556
 20
59.3837
 30
2.95251e-14
  70
    32
  0
VERTEX
  8
0
  5
3152
 10
132.568
 20
59.3772
 30
2.95279e-14
  70
    32
  0
VERTEX
  8
0
  5
3153
 10
132.580
 20
59.3707
 30
2.95307e-14
  70
    32
  0
VERTEX
  8
0
  5
3154
 10
132.592
 20
59.3641
 30
2.95335e-14
  70
    32
  0
VERTEX
  8
0
  5
3155
 10
132.605
 20
59.3574
 30
2.95363e-14
  70
    32
  0
VERTEX
  8
0
  5
3156
 10
132.617
 20
59.3508
 30
2.95391e-14
  70
    32
  0
VERTEX
  8
0
  5
3157
 10
132.629
 20
59.3441
 30
2.95419e-14
  70
    32
  0
VERTEX
  8
0
  5
3158
 10
132.641
 20
59.3374
 30
2.95448e-14
  70
    32
  0
VERTEX
  8
0
  5
3159
 10
132.653
 20
59.3306
 30
2.95476e-14
  70
    32
  0
VERTEX
  8
0
  5
315A
 10
132.665
 20
59.3238
 30
2.95505e-14
  70
    32
  0
VERTEX
  8
0
  5
315B
 10
132.677
 20
59.3170
 30
2.95534e-14
  70
    32
  0
VERTEX
  8
0
  5
315C
 10
132.689
 20
59.3101
 30
2.95562e-14
  70
    32
  0
VERTEX
  8
0
  5
315D
 10
132.701
 20
59.3032
 30
2.95591e-14
  70
    32
  0
VERTEX
  8
0
  5
315E
 10
132.713
 20
59.2962
 30
2.95620e-14
  70
    32
  0
VERTEX
  8
0
  5
315F
 10
132.725
 20
59.2893
 30
2.95649e-14
  70
    32
  0
VERTEX
  8
0
  5
3160
 10
132.737
 20
59.2823
 30
2.95678e-14
  70
    32
  0
VERTEX
  8
0
  5
3161
 10
132.749
 20
59.2752
 30
2.95707e-14
  70
    32
  0
VERTEX
  8
0
  5
3162
 10
132.761
 20
59.2681
 30
2.95736e-14
  70
    32
  0
VERTEX
  8
0
  5
3163
 10
132.773
 20
59.2610
 30
2.95766e-14
  70
    32
  0
VERTEX
  8
0
  5
3164
 10
132.785
 20
59.2538
 30
2.95795e-14
  70
    32
  0
VERTEX
  8
0
  5
3165
 10
132.797
 20
59.2466
 30
2.95824e-14
  70
    32
  0
VERTEX
  8
0
  5
3166
 10
132.809
 20
59.2394
 30
2.95854e-14
  70
    32
  0
VERTEX
  8
0
  5
3167
 10
132.821
 20
59.2322
 30
2.95883e-14
  70
    32
  0
VERTEX
  8
0
  5
3168
 10
132.833
 20
59.2248
 30
2.95913e-14
  70
    32
  0
VERTEX
  8
0
  5
3169
 10
132.845
 20
59.2175
 30
2.95942e-14
  70
    32
  0
VERTEX
  8
0
  5
316A
 10
132.857
 20
59.2101
 30
2.95972e-14
  70
    32
  0
VERTEX
  8
0
  5
316B
 10
132.869
 20
59.2027
 30
2.96001e-14
  70
    32
  0
VERTEX
  8
0
  5
316C
 10
132.881
 20
59.1953
 30
2.96031e-14
  70
    32
  0
VERTEX
  8
0
  5
316D
 10
132.893
 20
59.1878
 30
2.96061e-14
  70
    32
  0
VERTEX
  8
0
  5
316E
 10
132.905
 20
59.1803
 30
2.96091e-14
  70
    32
  0
VERTEX
  8
0
  5
316F
 10
132.917
 20
59.1727
 30
2.96120e-14
  70
    32
  0
VERTEX
  8
0
  5
3170
 10
132.929
 20
59.1651
 30
2.96150e-14
  70
    32
  0
VERTEX
  8
0
  5
3171
 10
132.941
 20
59.1575
 30
2.96180e-14
  70
    32
  0
VERTEX
  8
0
  5
3172
 10
132.953
 20
59.1498
 30
2.96210e-14
  70
    32
  0
VERTEX
  8
0
  5
3173
 10
132.964
 20
59.1421
 30
2.96240e-14
  70
    32
  0
VERTEX
  8
0
  5
3174
 10
132.976
 20
59.1343
 30
2.96270e-14
  70
    32
  0
VERTEX
  8
0
  5
3175
 10
132.988
 20
59.1266
 30
2.96300e-14
  70
    32
  0
VERTEX
  8
0
  5
3176
 10
133.000
 20
59.1187
 30
2.96330e-14
  70
    32
  0
VERTEX
  8
0
  5
3177
 10
133.012
 20
59.1109
 30
2.96360e-14
  70
    32
  0
VERTEX
  8
0
  5
3178
 10
133.024
 20
59.1030
 30
2.96390e-14
  70
    32
  0
VERTEX
  8
0
  5
3179
 10
133.036
 20
59.0950
 30
2.96420e-14
  70
    32
  0
VERTEX
  8
0
  5
317A
 10
133.048
 20
59.0871
 30
2.96450e-14
  70
    32
  0
VERTEX
  8
0
  5
317B
 10
133.060
 20
59.0791
 30
2.96480e-14
  70
    32
  0
VERTEX
  8
0
  5
317C
 10
133.072
 20
59.0710
 30
2.96510e-14
  70
    32
  0
VERTEX
  8
0
  5
317D
 10
133.084
 20
59.0629
 30
2.96540e-14
  70
    32
  0
VERTEX
  8
0
  5
317E
 10
133.096
 20
59.0548
 30
2.96570e-14
  70
    32
  0
VERTEX
  8
0
  5
317F
 10
133.107
 20
59.0466
 30
2.96600e-14
  70
    32
  0
VERTEX
  8
0
  5
3180
 10
133.119
 20
59.0384
 30
2.96630e-14
  70
    32
  0
VERTEX
  8
0
  5
3181
 10
133.131
 20
59.0302
 30
2.96661e-14
  70
    32
  0
VERTEX
  8
0
  5
3182
 10
133.143
 20
59.0219
 30
2.96691e-14
  70
    32
  0
VERTEX
  8
0
  5
3183
 10
133.155
 20
59.0136
 30
2.96721e-14
  70
    32
  0
VERTEX
  8
0
  5
3184
 10
133.167
 20
59.0052
 30
2.96751e-14
  70
    32
  0
VERTEX
  8
0
  5
3185
 10
133.179
 20
58.9968
 30
2.96781e-14
  70
    32
  0
VERTEX
  8
0
  5
3186
 10
133.191
 20
58.9884
 30
2.96811e-14
  70
    32
  0
VERTEX
  8
0
  5
3187
 10
133.202
 20
58.9799
 30
2.96841e-14
  70
    32
  0
VERTEX
  8
0
  5
3188
 10
133.214
 20
58.9714
 30
2.96871e-14
  70
    32
  0
VERTEX
  8
0
  5
3189
 10
133.226
 20
58.9628
 30
2.96901e-14
  70
    32
  0
VERTEX
  8
0
  5
318A
 10
133.238
 20
58.9542
 30
2.96931e-14
  70
    32
  0
VERTEX
  8
0
  5
318B
 10
133.250
 20
58.9456
 30
2.96961e-14
  70
    32
  0
VERTEX
  8
0
  5
318C
 10
133.261
 20
58.9369
 30
2.96991e-14
  70
    32
  0
VERTEX
  8
0
  5
318D
 10
133.273
 20
58.9282
 30
2.97021e-14
  70
    32
  0
VERTEX
  8
0
  5
318E
 10
133.285
 20
58.9195
 30
2.97050e-14
  70
    32
  0
VERTEX
  8
0
  5
318F
 10
133.297
 20
58.9107
 30
2.97080e-14
  70
    32
  0
VERTEX
  8
0
  5
3190
 10
133.309
 20
58.9018
 30
2.97110e-14
  70
    32
  0
VERTEX
  8
0
  5
3191
 10
133.320
 20
58.8930
 30
2.97140e-14
  70
    32
  0
VERTEX
  8
0
  5
3192
 10
133.332
 20
58.8840
 30
2.97170e-14
  70
    32
  0
VERTEX
  8
0
  5
3193
 10
133.344
 20
58.8751
 30
2.97199e-14
  70
    32
  0
VERTEX
  8
0
  5
3194
 10
133.356
 20
58.8661
 30
2.97229e-14
  70
    32
  0
VERTEX
  8
0
  5
3195
 10
133.367
 20
58.8571
 30
2.97258e-14
  70
    32
  0
VERTEX
  8
0
  5
3196
 10
133.379
 20
58.8480
 30
2.97288e-14
  70
    32
  0
VERTEX
  8
0
  5
3197
 10
133.391
 20
58.8389
 30
2.97317e-14
  70
    32
  0
VERTEX
  8
0
  5
3198
 10
133.402
 20
58.8297
 30
2.97347e-14
  70
    32
  0
VERTEX
  8
0
  5
3199
 10
133.414
 20
58.8205
 30
2.97376e-14
  70
    32
  0
VERTEX
  8
0
  5
319A
 10
133.426
 20
58.8113
 30
2.97406e-14
  70
    32
  0
VERTEX
  8
0
  5
319B
 10
133.437
 20
58.8020
 30
2.97435e-14
  70
    32
  0
VERTEX
  8
0
  5
319C
 10
133.449
 20
58.7927
 30
2.97464e-14
  70
    32
  0
VERTEX
  8
0
  5
319D
 10
133.461
 20
58.7833
 30
2.97493e-14
  70
    32
  0
VERTEX
  8
0
  5
319E
 10
133.472
 20
58.7739
 30
2.97522e-14
  70
    32
  0
VERTEX
  8
0
  5
319F
 10
133.484
 20
58.7645
 30
2.97551e-14
  70
    32
  0
VERTEX
  8
0
  5
31A0
 10
133.496
 20
58.7550
 30
2.97580e-14
  70
    32
  0
VERTEX
  8
0
  5
31A1
 10
133.507
 20
58.7455
 30
2.97609e-14
  70
    32
  0
VERTEX
  8
0
  5
31A2
 10
133.519
 20
58.7359
 30
2.97638e-14
  70
    32
  0
VERTEX
  8
0
  5
31A3
 10
133.531
 20
58.7263
 30
2.97667e-14
  70
    32
  0
VERTEX
  8
0
  5
31A4
 10
133.542
 20
58.7166
 30
2.97695e-14
  70
    32
  0
VERTEX
  8
0
  5
31A5
 10
133.554
 20
58.7069
 30
2.97724e-14
  70
    32
  0
VERTEX
  8
0
  5
31A6
 10
133.565
 20
58.6972
 30
2.97752e-14
  70
    32
  0
VERTEX
  8
0
  5
31A7
 10
133.577
 20
58.6874
 30
2.97781e-14
  70
    32
  0
VERTEX
  8
0
  5
31A8
 10
133.588
 20
58.6776
 30
2.97809e-14
  70
    32
  0
VERTEX
  8
0
  5
31A9
 10
133.600
 20
58.6678
 30
2.97837e-14
  70
    32
  0
VERTEX
  8
0
  5
31AA
 10
133.611
 20
58.6579
 30
2.97865e-14
  70
    32
  0
VERTEX
  8
0
  5
31AB
 10
133.623
 20
58.6479
 30
2.97893e-14
  70
    32
  0
VERTEX
  8
0
  5
31AC
 10
133.635
 20
58.6379
 30
2.97921e-14
  70
    32
  0
VERTEX
  8
0
  5
31AD
 10
133.646
 20
58.6279
 30
2.97949e-14
  70
    32
  0
VERTEX
  8
0
  5
31AE
 10
133.658
 20
58.6178
 30
2.97977e-14
  70
    32
  0
VERTEX
  8
0
  5
31AF
 10
133.669
 20
58.6077
 30
2.98005e-14
  70
    32
  0
VERTEX
  8
0
  5
31B0
 10
133.680
 20
58.5975
 30
2.98032e-14
  70
    32
  0
VERTEX
  8
0
  5
31B1
 10
133.692
 20
58.5873
 30
2.98060e-14
  70
    32
  0
VERTEX
  8
0
  5
31B2
 10
133.703
 20
58.5771
 30
2.98087e-14
  70
    32
  0
VERTEX
  8
0
  5
31B3
 10
133.715
 20
58.5668
 30
2.98114e-14
  70
    32
  0
VERTEX
  8
0
  5
31B4
 10
133.726
 20
58.5565
 30
2.98141e-14
  70
    32
  0
VERTEX
  8
0
  5
31B5
 10
133.738
 20
58.5461
 30
2.98168e-14
  70
    32
  0
VERTEX
  8
0
  5
31B6
 10
133.749
 20
58.5357
 30
2.98195e-14
  70
    32
  0
VERTEX
  8
0
  5
31B7
 10
133.760
 20
58.5252
 30
2.98222e-14
  70
    32
  0
VERTEX
  8
0
  5
31B8
 10
133.772
 20
58.5147
 30
2.98249e-14
  70
    32
  0
VERTEX
  8
0
  5
31B9
 10
133.783
 20
58.5042
 30
2.98275e-14
  70
    32
  0
VERTEX
  8
0
  5
31BA
 10
133.794
 20
58.4936
 30
2.98302e-14
  70
    32
  0
VERTEX
  8
0
  5
31BB
 10
133.806
 20
58.4830
 30
2.98328e-14
  70
    32
  0
VERTEX
  8
0
  5
31BC
 10
133.817
 20
58.4723
 30
2.98354e-14
  70
    32
  0
VERTEX
  8
0
  5
31BD
 10
133.828
 20
58.4616
 30
2.98380e-14
  70
    32
  0
VERTEX
  8
0
  5
31BE
 10
133.840
 20
58.4508
 30
2.98406e-14
  70
    32
  0
VERTEX
  8
0
  5
31BF
 10
133.851
 20
58.4400
 30
2.98432e-14
  70
    32
  0
VERTEX
  8
0
  5
31C0
 10
133.862
 20
58.4291
 30
2.98457e-14
  70
    32
  0
VERTEX
  8
0
  5
31C1
 10
133.874
 20
58.4182
 30
2.98483e-14
  70
    32
  0
VERTEX
  8
0
  5
31C2
 10
133.885
 20
58.4073
 30
2.98508e-14
  70
    32
  0
VERTEX
  8
0
  5
31C3
 10
133.896
 20
58.3963
 30
2.98533e-14
  70
    32
  0
VERTEX
  8
0
  5
31C4
 10
133.907
 20
58.3853
 30
2.98558e-14
  70
    32
  0
VERTEX
  8
0
  5
31C5
 10
133.919
 20
58.3742
 30
2.98583e-14
  70
    32
  0
VERTEX
  8
0
  5
31C6
 10
133.930
 20
58.3631
 30
2.98608e-14
  70
    32
  0
VERTEX
  8
0
  5
31C7
 10
133.941
 20
58.3519
 30
2.98633e-14
  70
    32
  0
VERTEX
  8
0
  5
31C8
 10
133.952
 20
58.3407
 30
2.98657e-14
  70
    32
  0
VERTEX
  8
0
  5
31C9
 10
133.963
 20
58.3294
 30
2.98681e-14
  70
    32
  0
VERTEX
  8
0
  5
31CA
 10
133.974
 20
58.3181
 30
2.98705e-14
  70
    32
  0
VERTEX
  8
0
  5
31CB
 10
133.986
 20
58.3068
 30
2.98729e-14
  70
    32
  0
VERTEX
  8
0
  5
31CC
 10
133.997
 20
58.2954
 30
2.98753e-14
  70
    32
  0
VERTEX
  8
0
  5
31CD
 10
134.008
 20
58.2840
 30
2.98777e-14
  70
    32
  0
VERTEX
  8
0
  5
31CE
 10
134.019
 20
58.2725
 30
2.98800e-14
  70
    32
  0
VERTEX
  8
0
  5
31CF
 10
134.030
 20
58.2609
 30
2.98824e-14
  70
    32
  0
VERTEX
  8
0
  5
31D0
 10
134.041
 20
58.2494
 30
2.98847e-14
  70
    32
  0
VERTEX
  8
0
  5
31D1
 10
134.052
 20
58.2377
 30
2.98870e-14
  70
    32
  0
VERTEX
  8
0
  5
31D2
 10
134.063
 20
58.2261
 30
2.98892e-14
  70
    32
  0
VERTEX
  8
0
  5
31D3
 10
134.074
 20
58.2144
 30
2.98915e-14
  70
    32
  0
VERTEX
  8
0
  5
31D4
 10
134.085
 20
58.2026
 30
2.98937e-14
  70
    32
  0
VERTEX
  8
0
  5
31D5
 10
134.096
 20
58.1908
 30
2.98960e-14
  70
    32
  0
VERTEX
  8
0
  5
31D6
 10
134.107
 20
58.1790
 30
2.98982e-14
  70
    32
  0
VERTEX
  8
0
  5
31D7
 10
134.118
 20
58.1671
 30
2.99003e-14
  70
    32
  0
VERTEX
  8
0
  5
31D8
 10
134.129
 20
58.1551
 30
2.99025e-14
  70
    32
  0
VERTEX
  8
0
  5
31D9
 10
134.140
 20
58.1431
 30
2.99047e-14
  70
    32
  0
VERTEX
  8
0
  5
31DA
 10
134.151
 20
58.1311
 30
2.99068e-14
  70
    32
  0
VERTEX
  8
0
  5
31DB
 10
134.162
 20
58.1190
 30
2.99089e-14
  70
    32
  0
VERTEX
  8
0
  5
31DC
 10
134.172
 20
58.1069
 30
2.99110e-14
  70
    32
  0
VERTEX
  8
0
  5
31DD
 10
134.183
 20
58.0947
 30
2.99131e-14
  70
    32
  0
VERTEX
  8
0
  5
31DE
 10
134.194
 20
58.0825
 30
2.99151e-14
  70
    32
  0
VERTEX
  8
0
  5
31DF
 10
134.205
 20
58.0702
 30
2.99172e-14
  70
    32
  0
VERTEX
  8
0
  5
31E0
 10
134.216
 20
58.0579
 30
2.99193e-14
  70
    32
  0
VERTEX
  8
0
  5
31E1
 10
134.227
 20
58.0456
 30
2.99214e-14
  70
    32
  0
VERTEX
  8
0
  5
31E2
 10
134.237
 20
58.0332
 30
2.99235e-14
  70
    32
  0
VERTEX
  8
0
  5
31E3
 10
134.248
 20
58.0207
 30
2.99256e-14
  70
    32
  0
VERTEX
  8
0
  5
31E4
 10
134.259
 20
58.0082
 30
2.99277e-14
  70
    32
  0
VERTEX
  8
0
  5
31E5
 10
134.270
 20
57.9957
 30
2.99298e-14
  70
    32
  0
VERTEX
  8
0
  5
31E6
 10
134.280
 20
57.9831
 30
2.99319e-14
  70
    32
  0
VERTEX
  8
0
  5
31E7
 10
134.291
 20
57.9704
 30
2.99340e-14
  70
    32
  0
VERTEX
  8
0
  5
31E8
 10
134.302
 20
57.9577
 30
2.99361e-14
  70
    32
  0
VERTEX
  8
0
  5
31E9
 10
134.312
 20
57.9450
 30
2.99382e-14
  70
    32
  0
VERTEX
  8
0
  5
31EA
 10
134.323
 20
57.9322
 30
2.99403e-14
  70
    32
  0
VERTEX
  8
0
  5
31EB
 10
134.333
 20
57.9194
 30
2.99424e-14
  70
    32
  0
VERTEX
  8
0
  5
31EC
 10
134.344
 20
57.9065
 30
2.99445e-14
  70
    32
  0
VERTEX
  8
0
  5
31ED
 10
134.355
 20
57.8936
 30
2.99467e-14
  70
    32
  0
VERTEX
  8
0
  5
31EE
 10
134.365
 20
57.8806
 30
2.99488e-14
  70
    32
  0
VERTEX
  8
0
  5
31EF
 10
134.376
 20
57.8676
 30
2.99509e-14
  70
    32
  0
VERTEX
  8
0
  5
31F0
 10
134.386
 20
57.8545
 30
2.99530e-14
  70
    32
  0
VERTEX
  8
0
  5
31F1
 10
134.397
 20
57.8414
 30
2.99551e-14
  70
    32
  0
VERTEX
  8
0
  5
31F2
 10
134.407
 20
57.8282
 30
2.99573e-14
  70
    32
  0
VERTEX
  8
0
  5
31F3
 10
134.418
 20
57.8150
 30
2.99594e-14
  70
    32
  0
VERTEX
  8
0
  5
31F4
 10
134.428
 20
57.8018
 30
2.99615e-14
  70
    32
  0
VERTEX
  8
0
  5
31F5
 10
134.438
 20
57.7884
 30
2.99637e-14
  70
    32
  0
VERTEX
  8
0
  5
31F6
 10
134.449
 20
57.7751
 30
2.99658e-14
  70
    32
  0
VERTEX
  8
0
  5
31F7
 10
134.459
 20
57.7617
 30
2.99679e-14
  70
    32
  0
VERTEX
  8
0
  5
31F8
 10
134.469
 20
57.7482
 30
2.99700e-14
  70
    32
  0
VERTEX
  8
0
  5
31F9
 10
134.480
 20
57.7347
 30
2.99722e-14
  70
    32
  0
VERTEX
  8
0
  5
31FA
 10
134.490
 20
57.7212
 30
2.99743e-14
  70
    32
  0
VERTEX
  8
0
  5
31FB
 10
134.500
 20
57.7076
 30
2.99764e-14
  70
    32
  0
VERTEX
  8
0
  5
31FC
 10
134.511
 20
57.6939
 30
2.99786e-14
  70
    32
  0
VERTEX
  8
0
  5
31FD
 10
134.521
 20
57.6802
 30
2.99807e-14
  70
    32
  0
VERTEX
  8
0
  5
31FE
 10
134.531
 20
57.6665
 30
2.99828e-14
  70
    32
  0
VERTEX
  8
0
  5
31FF
 10
134.541
 20
57.6527
 30
2.99849e-14
  70
    32
  0
VERTEX
  8
0
  5
3200
 10
134.551
 20
57.6388
 30
2.99871e-14
  70
    32
  0
VERTEX
  8
0
  5
3201
 10
134.561
 20
57.6249
 30
2.99892e-14
  70
    32
  0
VERTEX
  8
0
  5
3202
 10
134.571
 20
57.6110
 30
2.99913e-14
  70
    32
  0
VERTEX
  8
0
  5
3203
 10
134.581
 20
57.5970
 30
2.99934e-14
  70
    32
  0
VERTEX
  8
0
  5
3204
 10
134.592
 20
57.5829
 30
2.99956e-14
  70
    32
  0
VERTEX
  8
0
  5
3205
 10
134.602
 20
57.5688
 30
2.99977e-14
  70
    32
  0
VERTEX
  8
0
  5
3206
 10
134.612
 20
57.5547
 30
2.99998e-14
  70
    32
  0
VERTEX
  8
0
  5
3207
 10
134.621
 20
57.5405
 30
3.00019e-14
  70
    32
  0
VERTEX
  8
0
  5
3208
 10
134.631
 20
57.5262
 30
3.00040e-14
  70
    32
  0
VERTEX
  8
0
  5
3209
 10
134.641
 20
57.5119
 30
3.00061e-14
  70
    32
  0
VERTEX
  8
0
  5
320A
 10
134.651
 20
57.4976
 30
3.00082e-14
  70
    32
  0
VERTEX
  8
0
  5
320B
 10
134.661
 20
57.4832
 30
3.00103e-14
  70
    32
  0
VERTEX
  8
0
  5
320C
 10
134.671
 20
57.4688
 30
3.00124e-14
  70
    32
  0
VERTEX
  8
0
  5
320D
 10
134.681
 20
57.4543
 30
3.00145e-14
  70
    32
  0
VERTEX
  8
0
  5
320E
 10
134.690
 20
57.4397
 30
3.00166e-14
  70
    32
  0
VERTEX
  8
0
  5
320F
 10
134.700
 20
57.4251
 30
3.00187e-14
  70
    32
  0
VERTEX
  8
0
  5
3210
 10
134.710
 20
57.4105
 30
3.00208e-14
  70
    32
  0
VERTEX
  8
0
  5
3211
 10
134.720
 20
57.3958
 30
3.00229e-14
  70
    32
  0
VERTEX
  8
0
  5
3212
 10
134.729
 20
57.3810
 30
3.00249e-14
  70
    32
  0
VERTEX
  8
0
  5
3213
 10
134.739
 20
57.3662
 30
3.00270e-14
  70
    32
  0
VERTEX
  8
0
  5
3214
 10
134.748
 20
57.3514
 30
3.00291e-14
  70
    32
  0
VERTEX
  8
0
  5
3215
 10
134.758
 20
57.3365
 30
3.00311e-14
  70
    32
  0
VERTEX
  8
0
  5
3216
 10
134.767
 20
57.3215
 30
3.00332e-14
  70
    32
  0
VERTEX
  8
0
  5
3217
 10
134.777
 20
57.3065
 30
3.00352e-14
  70
    32
  0
VERTEX
  8
0
  5
3218
 10
134.786
 20
57.2915
 30
3.00373e-14
  70
    32
  0
VERTEX
  8
0
  5
3219
 10
134.796
 20
57.2764
 30
3.00393e-14
  70
    32
  0
VERTEX
  8
0
  5
321A
 10
134.805
 20
57.2612
 30
3.00414e-14
  70
    32
  0
VERTEX
  8
0
  5
321B
 10
134.815
 20
57.2460
 30
3.00434e-14
  70
    32
  0
VERTEX
  8
0
  5
321C
 10
134.824
 20
57.2307
 30
3.00454e-14
  70
    32
  0
VERTEX
  8
0
  5
321D
 10
134.833
 20
57.2154
 30
3.00474e-14
  70
    32
  0
VERTEX
  8
0
  5
321E
 10
134.843
 20
57.2000
 30
3.00495e-14
  70
    32
  0
VERTEX
  8
0
  5
321F
 10
134.852
 20
57.1846
 30
3.00515e-14
  70
    32
  0
VERTEX
  8
0
  5
3220
 10
134.861
 20
57.1692
 30
3.00535e-14
  70
    32
  0
VERTEX
  8
0
  5
3221
 10
134.870
 20
57.1536
 30
3.00555e-14
  70
    32
  0
VERTEX
  8
0
  5
3222
 10
134.879
 20
57.1381
 30
3.00575e-14
  70
    32
  0
VERTEX
  8
0
  5
3223
 10
134.888
 20
57.1224
 30
3.00594e-14
  70
    32
  0
VERTEX
  8
0
  5
3224
 10
134.898
 20
57.1068
 30
3.00614e-14
  70
    32
  0
VERTEX
  8
0
  5
3225
 10
134.907
 20
57.0910
 30
3.00634e-14
  70
    32
  0
VERTEX
  8
0
  5
3226
 10
134.916
 20
57.0753
 30
3.00653e-14
  70
    32
  0
VERTEX
  8
0
  5
3227
 10
134.925
 20
57.0594
 30
3.00673e-14
  70
    32
  0
VERTEX
  8
0
  5
3228
 10
134.933
 20
57.0435
 30
3.00692e-14
  70
    32
  0
VERTEX
  8
0
  5
3229
 10
134.942
 20
57.0276
 30
3.00712e-14
  70
    32
  0
VERTEX
  8
0
  5
322A
 10
134.951
 20
57.0116
 30
3.00731e-14
  70
    32
  0
VERTEX
  8
0
  5
322B
 10
134.960
 20
56.9956
 30
3.00750e-14
  70
    32
  0
VERTEX
  8
0
  5
322C
 10
134.969
 20
56.9795
 30
3.00769e-14
  70
    32
  0
VERTEX
  8
0
  5
322D
 10
134.978
 20
56.9633
 30
3.00788e-14
  70
    32
  0
VERTEX
  8
0
  5
322E
 10
134.986
 20
56.9471
 30
3.00807e-14
  70
    32
  0
VERTEX
  8
0
  5
322F
 10
134.995
 20
56.9308
 30
3.00826e-14
  70
    32
  0
VERTEX
  8
0
  5
3230
 10
135.004
 20
56.9145
 30
3.00845e-14
  70
    32
  0
VERTEX
  8
0
  5
3231
 10
135.012
 20
56.8982
 30
3.00864e-14
  70
    32
  0
VERTEX
  8
0
  5
3232
 10
135.021
 20
56.8818
 30
3.00882e-14
  70
    32
  0
VERTEX
  8
0
  5
3233
 10
135.029
 20
56.8653
 30
3.00901e-14
  70
    32
  0
VERTEX
  8
0
  5
3234
 10
135.038
 20
56.8488
 30
3.00919e-14
  70
    32
  0
VERTEX
  8
0
  5
3235
 10
135.046
 20
56.8322
 30
3.00937e-14
  70
    32
  0
VERTEX
  8
0
  5
3236
 10
135.055
 20
56.8155
 30
3.00956e-14
  70
    32
  0
VERTEX
  8
0
  5
3237
 10
135.063
 20
56.7989
 30
3.00974e-14
  70
    32
  0
VERTEX
  8
0
  5
3238
 10
135.072
 20
56.7821
 30
3.00992e-14
  70
    32
  0
VERTEX
  8
0
  5
3239
 10
135.080
 20
56.7653
 30
3.01010e-14
  70
    32
  0
VERTEX
  8
0
  5
323A
 10
135.088
 20
56.7485
 30
3.01027e-14
  70
    32
  0
VERTEX
  8
0
  5
323B
 10
135.096
 20
56.7316
 30
3.01045e-14
  70
    32
  0
VERTEX
  8
0
  5
323C
 10
135.105
 20
56.7146
 30
3.01063e-14
  70
    32
  0
VERTEX
  8
0
  5
323D
 10
135.113
 20
56.6976
 30
3.01080e-14
  70
    32
  0
VERTEX
  8
0
  5
323E
 10
135.121
 20
56.6806
 30
3.01097e-14
  70
    32
  0
VERTEX
  8
0
  5
323F
 10
135.129
 20
56.6634
 30
3.01115e-14
  70
    32
  0
VERTEX
  8
0
  5
3240
 10
135.137
 20
56.6463
 30
3.01132e-14
  70
    32
  0
VERTEX
  8
0
  5
3241
 10
135.145
 20
56.6290
 30
3.01149e-14
  70
    32
  0
VERTEX
  8
0
  5
3242
 10
135.153
 20
56.6117
 30
3.01166e-14
  70
    32
  0
VERTEX
  8
0
  5
3243
 10
135.161
 20
56.5944
 30
3.01183e-14
  70
    32
  0
VERTEX
  8
0
  5
3244
 10
135.169
 20
56.5770
 30
3.01199e-14
  70
    32
  0
VERTEX
  8
0
  5
3245
 10
135.176
 20
56.5596
 30
3.01216e-14
  70
    32
  0
VERTEX
  8
0
  5
3246
 10
135.184
 20
56.5421
 30
3.01232e-14
  70
    32
  0
VERTEX
  8
0
  5
3247
 10
135.192
 20
56.5245
 30
3.01248e-14
  70
    32
  0
VERTEX
  8
0
  5
3248
 10
135.200
 20
56.5069
 30
3.01265e-14
  70
    32
  0
VERTEX
  8
0
  5
3249
 10
135.207
 20
56.4892
 30
3.01281e-14
  70
    32
  0
VERTEX
  8
0
  5
324A
 10
135.215
 20
56.4715
 30
3.01296e-14
  70
    32
  0
VERTEX
  8
0
  5
324B
 10
135.223
 20
56.4537
 30
3.01312e-14
  70
    32
  0
VERTEX
  8
0
  5
324C
 10
135.230
 20
56.4359
 30
3.01328e-14
  70
    32
  0
VERTEX
  8
0
  5
324D
 10
135.238
 20
56.4180
 30
3.01343e-14
  70
    32
  0
VERTEX
  8
0
  5
324E
 10
135.245
 20
56.4000
 30
3.01359e-14
  70
    32
  0
VERTEX
  8
0
  5
324F
 10
135.252
 20
56.3820
 30
3.01374e-14
  70
    32
  0
VERTEX
  8
0
  5
3250
 10
135.260
 20
56.3640
 30
3.01389e-14
  70
    32
  0
VERTEX
  8
0
  5
3251
 10
135.267
 20
56.3459
 30
3.01404e-14
  70
    32
  0
VERTEX
  8
0
  5
3252
 10
135.274
 20
56.3277
 30
3.01419e-14
  70
    32
  0
VERTEX
  8
0
  5
3253
 10
135.282
 20
56.3095
 30
3.01433e-14
  70
    32
  0
VERTEX
  8
0
  5
3254
 10
135.289
 20
56.2912
 30
3.01448e-14
  70
    32
  0
VERTEX
  8
0
  5
3255
 10
135.296
 20
56.2729
 30
3.01462e-14
  70
    32
  0
VERTEX
  8
0
  5
3256
 10
135.303
 20
56.2545
 30
3.01476e-14
  70
    32
  0
VERTEX
  8
0
  5
3257
 10
135.310
 20
56.2360
 30
3.01490e-14
  70
    32
  0
VERTEX
  8
0
  5
3258
 10
135.317
 20
56.2175
 30
3.01504e-14
  70
    32
  0
VERTEX
  8
0
  5
3259
 10
135.324
 20
56.1989
 30
3.01518e-14
  70
    32
  0
VERTEX
  8
0
  5
325A
 10
135.331
 20
56.1803
 30
3.01531e-14
  70
    32
  0
VERTEX
  8
0
  5
325B
 10
135.338
 20
56.1616
 30
3.01545e-14
  70
    32
  0
VERTEX
  8
0
  5
325C
 10
135.344
 20
56.1429
 30
3.01558e-14
  70
    32
  0
VERTEX
  8
0
  5
325D
 10
135.351
 20
56.1241
 30
3.01571e-14
  70
    32
  0
VERTEX
  8
0
  5
325E
 10
135.358
 20
56.1053
 30
3.01585e-14
  70
    32
  0
VERTEX
  8
0
  5
325F
 10
135.364
 20
56.0864
 30
3.01599e-14
  70
    32
  0
VERTEX
  8
0
  5
3260
 10
135.371
 20
56.0674
 30
3.01613e-14
  70
    32
  0
VERTEX
  8
0
  5
3261
 10
135.378
 20
56.0484
 30
3.01627e-14
  70
    32
  0
VERTEX
  8
0
  5
3262
 10
135.384
 20
56.0293
 30
3.01642e-14
  70
    32
  0
VERTEX
  8
0
  5
3263
 10
135.391
 20
56.0102
 30
3.01657e-14
  70
    32
  0
VERTEX
  8
0
  5
3264
 10
135.397
 20
55.9910
 30
3.01672e-14
  70
    32
  0
VERTEX
  8
0
  5
3265
 10
135.403
 20
55.9717
 30
3.01688e-14
  70
    32
  0
VERTEX
  8
0
  5
3266
 10
135.410
 20
55.9524
 30
3.01704e-14
  70
    32
  0
VERTEX
  8
0
  5
3267
 10
135.416
 20
55.9331
 30
3.01720e-14
  70
    32
  0
VERTEX
  8
0
  5
3268
 10
135.422
 20
55.9137
 30
3.01736e-14
  70
    32
  0
VERTEX
  8
0
  5
3269
 10
135.428
 20
55.8942
 30
3.01752e-14
  70
    32
  0
VERTEX
  8
0
  5
326A
 10
135.434
 20
55.8747
 30
3.01768e-14
  70
    32
  0
VERTEX
  8
0
  5
326B
 10
135.440
 20
55.8551
 30
3.01785e-14
  70
    32
  0
VERTEX
  8
0
  5
326C
 10
135.446
 20
55.8354
 30
3.01802e-14
  70
    32
  0
VERTEX
  8
0
  5
326D
 10
135.452
 20
55.8158
 30
3.01819e-14
  70
    32
  0
VERTEX
  8
0
  5
326E
 10
135.458
 20
55.7960
 30
3.01836e-14
  70
    32
  0
VERTEX
  8
0
  5
326F
 10
135.464
 20
55.7762
 30
3.01853e-14
  70
    32
  0
VERTEX
  8
0
  5
3270
 10
135.469
 20
55.7563
 30
3.01870e-14
  70
    32
  0
VERTEX
  8
0
  5
3271
 10
135.475
 20
55.7364
 30
3.01887e-14
  70
    32
  0
VERTEX
  8
0
  5
3272
 10
135.481
 20
55.7164
 30
3.01905e-14
  70
    32
  0
VERTEX
  8
0
  5
3273
 10
135.486
 20
55.6964
 30
3.01922e-14
  70
    32
  0
VERTEX
  8
0
  5
3274
 10
135.492
 20
55.6763
 30
3.01940e-14
  70
    32
  0
VERTEX
  8
0
  5
3275
 10
135.497
 20
55.6562
 30
3.01957e-14
  70
    32
  0
VERTEX
  8
0
  5
3276
 10
135.503
 20
55.6360
 30
3.01975e-14
  70
    32
  0
VERTEX
  8
0
  5
3277
 10
135.508
 20
55.6157
 30
3.01993e-14
  70
    32
  0
VERTEX
  8
0
  5
3278
 10
135.513
 20
55.5954
 30
3.02010e-14
  70
    32
  0
VERTEX
  8
0
  5
3279
 10
135.518
 20
55.5750
 30
3.02028e-14
  70
    32
  0
VERTEX
  8
0
  5
327A
 10
135.524
 20
55.5546
 30
3.02045e-14
  70
    32
  0
VERTEX
  8
0
  5
327B
 10
135.529
 20
55.5341
 30
3.02063e-14
  70
    32
  0
VERTEX
  8
0
  5
327C
 10
135.534
 20
55.5136
 30
3.02080e-14
  70
    32
  0
VERTEX
  8
0
  5
327D
 10
135.539
 20
55.4930
 30
3.02098e-14
  70
    32
  0
VERTEX
  8
0
  5
327E
 10
135.543
 20
55.4723
 30
3.02115e-14
  70
    32
  0
VERTEX
  8
0
  5
327F
 10
135.548
 20
55.4516
 30
3.02132e-14
  70
    32
  0
VERTEX
  8
0
  5
3280
 10
135.553
 20
55.4309
 30
3.02149e-14
  70
    32
  0
VERTEX
  8
0
  5
3281
 10
135.558
 20
55.4100
 30
3.02166e-14
  70
    32
  0
VERTEX
  8
0
  5
3282
 10
135.562
 20
55.3892
 30
3.02183e-14
  70
    32
  0
VERTEX
  8
0
  5
3283
 10
135.567
 20
55.3682
 30
3.02200e-14
  70
    32
  0
VERTEX
  8
0
  5
3284
 10
135.571
 20
55.3472
 30
3.02217e-14
  70
    32
  0
VERTEX
  8
0
  5
3285
 10
135.576
 20
55.3262
 30
3.02233e-14
  70
    32
  0
VERTEX
  8
0
  5
3286
 10
135.580
 20
55.3051
 30
3.02250e-14
  70
    32
  0
VERTEX
  8
0
  5
3287
 10
135.584
 20
55.2839
 30
3.02266e-14
  70
    32
  0
VERTEX
  8
0
  5
3288
 10
135.589
 20
55.2627
 30
3.02282e-14
  70
    32
  0
VERTEX
  8
0
  5
3289
 10
135.593
 20
55.2415
 30
3.02297e-14
  70
    32
  0
VERTEX
  8
0
  5
328A
 10
135.597
 20
55.2201
 30
3.02313e-14
  70
    32
  0
VERTEX
  8
0
  5
328B
 10
135.601
 20
55.1988
 30
3.02328e-14
  70
    32
  0
VERTEX
  8
0
  5
328C
 10
135.605
 20
55.1773
 30
3.02343e-14
  70
    32
  0
VERTEX
  8
0
  5
328D
 10
135.609
 20
55.1558
 30
3.02358e-14
  70
    32
  0
VERTEX
  8
0
  5
328E
 10
135.613
 20
55.1343
 30
3.02372e-14
  70
    32
  0
VERTEX
  8
0
  5
328F
 10
135.616
 20
55.1127
 30
3.02386e-14
  70
    32
  0
VERTEX
  8
0
  5
3290
 10
135.620
 20
55.0910
 30
3.02400e-14
  70
    32
  0
VERTEX
  8
0
  5
3291
 10
135.623
 20
55.0693
 30
3.02414e-14
  70
    32
  0
VERTEX
  8
0
  5
3292
 10
135.627
 20
55.0475
 30
3.02427e-14
  70
    32
  0
VERTEX
  8
0
  5
3293
 10
135.630
 20
55.0257
 30
3.02440e-14
  70
    32
  0
VERTEX
  8
0
  5
3294
 10
135.634
 20
55.0038
 30
3.02453e-14
  70
    32
  0
VERTEX
  8
0
  5
3295
 10
135.637
 20
54.9819
 30
3.02465e-14
  70
    32
  0
VERTEX
  8
0
  5
3296
 10
135.640
 20
54.9599
 30
3.02477e-14
  70
    32
  0
VERTEX
  8
0
  5
3297
 10
135.643
 20
54.9379
 30
3.02488e-14
  70
    32
  0
VERTEX
  8
0
  5
3298
 10
135.646
 20
54.9158
 30
3.02499e-14
  70
    32
  0
VERTEX
  8
0
  5
3299
 10
135.649
 20
54.8936
 30
3.02510e-14
  70
    32
  0
VERTEX
  8
0
  5
329A
 10
135.652
 20
54.8714
 30
3.02520e-14
  70
    32
  0
VERTEX
  8
0
  5
329B
 10
135.655
 20
54.8491
 30
3.02530e-14
  70
    32
  0
VERTEX
  8
0
  5
329C
 10
135.658
 20
54.8268
 30
3.02539e-14
  70
    32
  0
VERTEX
  8
0
  5
329D
 10
135.660
 20
54.8044
 30
3.02548e-14
  70
    32
  0
VERTEX
  8
0
  5
329E
 10
135.663
 20
54.7820
 30
3.02557e-14
  70
    32
  0
VERTEX
  8
0
  5
329F
 10
135.665
 20
54.7595
 30
3.02565e-14
  70
    32
  0
VERTEX
  8
0
  5
32A0
 10
135.668
 20
54.7369
 30
3.02572e-14
  70
    32
  0
VERTEX
  8
0
  5
32A1
 10
135.670
 20
54.7143
 30
3.02579e-14
  70
    32
  0
VERTEX
  8
0
  5
32A2
 10
135.672
 20
54.6916
 30
3.02586e-14
  70
    32
  0
VERTEX
  8
0
  5
32A3
 10
135.675
 20
54.6689
 30
3.02592e-14
  70
    32
  0
VERTEX
  8
0
  5
32A4
 10
135.677
 20
54.6461
 30
3.02597e-14
  70
    32
  0
VERTEX
  8
0
  5
32A5
 10
135.679
 20
54.6233
 30
3.02602e-14
  70
    32
  0
VERTEX
  8
0
  5
32A6
 10
135.681
 20
54.6004
 30
3.02606e-14
  70
    32
  0
VERTEX
  8
0
  5
32A7
 10
135.682
 20
54.5775
 30
3.02610e-14
  70
    32
  0
VERTEX
  8
0
  5
32A8
 10
135.684
 20
54.5545
 30
3.02613e-14
  70
    32
  0
VERTEX
  8
0
  5
32A9
 10
135.686
 20
54.5314
 30
3.02616e-14
  70
    32
  0
VERTEX
  8
0
  5
32AA
 10
135.687
 20
54.5083
 30
3.02617e-14
  70
    32
  0
VERTEX
  8
0
  5
32AB
 10
135.689
 20
54.4852
 30
3.02619e-14
  70
    32
  0
VERTEX
  8
0
  5
32AC
 10
135.690
 20
54.4620
 30
3.02619e-14
  70
    32
  0
VERTEX
  8
0
  5
32AD
 10
135.692
 20
54.4387
 30
3.02619e-14
  70
    32
  0
VERTEX
  8
0
  5
32AE
 10
135.693
 20
54.4154
 30
3.02619e-14
  70
    32
  0
VERTEX
  8
0
  5
32AF
 10
135.694
 20
54.3920
 30
3.02617e-14
  70
    32
  0
VERTEX
  8
0
  5
32B0
 10
135.695
 20
54.3685
 30
3.02615e-14
  70
    32
  0
VERTEX
  8
0
  5
32B1
 10
135.696
 20
54.3450
 30
3.02612e-14
  70
    32
  0
VERTEX
  8
0
  5
32B2
 10
135.697
 20
54.3215
 30
3.02609e-14
  70
    32
  0
VERTEX
  8
0
  5
32B3
 10
135.698
 20
54.2979
 30
3.02605e-14
  70
    32
  0
VERTEX
  8
0
  5
32B4
 10
135.698
 20
54.2742
 30
3.02600e-14
  70
    32
  0
VERTEX
  8
0
  5
32B5
 10
135.699
 20
54.2505
 30
3.02594e-14
  70
    32
  0
VERTEX
  8
0
  5
32B6
 10
135.699
 20
54.2267
 30
3.02588e-14
  70
    32
  0
VERTEX
  8
0
  5
32B7
 10
135.700
 20
54.2029
 30
3.02580e-14
  70
    32
  0
VERTEX
  8
0
  5
32B8
 10
135.700
 20
54.1790
 30
3.02572e-14
  70
    32
  0
VERTEX
  8
0
  5
32B9
 10
135.700
 20
54.1551
 30
3.02564e-14
  70
    32
  0
VERTEX
  8
0
  5
32BA
 10
135.700
 20
54.1311
 30
3.02554e-14
  70
    32
  0
VERTEX
  8
0
  5
32BB
 10
135.700
 20
54.1070
 30
3.02544e-14
  70
    32
  0
VERTEX
  8
0
  5
32BC
 10
135.700
 20
54.0829
 30
3.02532e-14
  70
    32
  0
VERTEX
  8
0
  5
32BD
 10
135.700
 20
54.0588
 30
3.02520e-14
  70
    32
  0
VERTEX
  8
0
  5
32BE
 10
135.700
 20
54.0346
 30
3.02507e-14
  70
    32
  0
VERTEX
  8
0
  5
32BF
 10
135.700
 20
54.0103
 30
3.02493e-14
  70
    32
  0
VERTEX
  8
0
  5
32C0
 10
135.699
 20
53.9860
 30
3.02478e-14
  70
    32
  0
VERTEX
  8
0
  5
32C1
 10
135.699
 20
53.9616
 30
3.02463e-14
  70
    32
  0
VERTEX
  8
0
  5
32C2
 10
135.698
 20
53.9372
 30
3.02447e-14
  70
    32
  0
VERTEX
  8
0
  5
32C3
 10
135.697
 20
53.9127
 30
3.02432e-14
  70
    32
  0
VERTEX
  8
0
  5
32C4
 10
135.696
 20
53.8881
 30
3.02417e-14
  70
    32
  0
VERTEX
  8
0
  5
32C5
 10
135.695
 20
53.8636
 30
3.02402e-14
  70
    32
  0
VERTEX
  8
0
  5
32C6
 10
135.694
 20
53.8389
 30
3.02388e-14
  70
    32
  0
VERTEX
  8
0
  5
32C7
 10
135.693
 20
53.8143
 30
3.02374e-14
  70
    32
  0
VERTEX
  8
0
  5
32C8
 10
135.692
 20
53.7896
 30
3.02361e-14
  70
    32
  0
VERTEX
  8
0
  5
32C9
 10
135.691
 20
53.7648
 30
3.02347e-14
  70
    32
  0
VERTEX
  8
0
  5
32CA
 10
135.689
 20
53.7400
 30
3.02334e-14
  70
    32
  0
VERTEX
  8
0
  5
32CB
 10
135.688
 20
53.7151
 30
3.02321e-14
  70
    32
  0
VERTEX
  8
0
  5
32CC
 10
135.686
 20
53.6902
 30
3.02309e-14
  70
    32
  0
VERTEX
  8
0
  5
32CD
 10
135.684
 20
53.6653
 30
3.02296e-14
  70
    32
  0
VERTEX
  8
0
  5
32CE
 10
135.682
 20
53.6403
 30
3.02284e-14
  70
    32
  0
VERTEX
  8
0
  5
32CF
 10
135.680
 20
53.6153
 30
3.02273e-14
  70
    32
  0
VERTEX
  8
0
  5
32D0
 10
135.678
 20
53.5902
 30
3.02261e-14
  70
    32
  0
VERTEX
  8
0
  5
32D1
 10
135.676
 20
53.5651
 30
3.02250e-14
  70
    32
  0
VERTEX
  8
0
  5
32D2
 10
135.674
 20
53.5399
 30
3.02239e-14
  70
    32
  0
VERTEX
  8
0
  5
32D3
 10
135.671
 20
53.5147
 30
3.02228e-14
  70
    32
  0
VERTEX
  8
0
  5
32D4
 10
135.669
 20
53.4894
 30
3.02217e-14
  70
    32
  0
VERTEX
  8
0
  5
32D5
 10
135.666
 20
53.4641
 30
3.02207e-14
  70
    32
  0
VERTEX
  8
0
  5
32D6
 10
135.663
 20
53.4388
 30
3.02196e-14
  70
    32
  0
VERTEX
  8
0
  5
32D7
 10
135.661
 20
53.4134
 30
3.02186e-14
  70
    32
  0
VERTEX
  8
0
  5
32D8
 10
135.658
 20
53.3880
 30
3.02176e-14
  70
    32
  0
VERTEX
  8
0
  5
32D9
 10
135.655
 20
53.3626
 30
3.02166e-14
  70
    32
  0
VERTEX
  8
0
  5
32DA
 10
135.651
 20
53.3371
 30
3.02157e-14
  70
    32
  0
VERTEX
  8
0
  5
32DB
 10
135.648
 20
53.3115
 30
3.02147e-14
  70
    32
  0
VERTEX
  8
0
  5
32DC
 10
135.645
 20
53.2859
 30
3.02138e-14
  70
    32
  0
VERTEX
  8
0
  5
32DD
 10
135.641
 20
53.2603
 30
3.02128e-14
  70
    32
  0
VERTEX
  8
0
  5
32DE
 10
135.637
 20
53.2347
 30
3.02119e-14
  70
    32
  0
VERTEX
  8
0
  5
32DF
 10
135.633
 20
53.2090
 30
3.02110e-14
  70
    32
  0
VERTEX
  8
0
  5
32E0
 10
135.630
 20
53.1833
 30
3.02101e-14
  70
    32
  0
VERTEX
  8
0
  5
32E1
 10
135.625
 20
53.1575
 30
3.02092e-14
  70
    32
  0
VERTEX
  8
0
  5
32E2
 10
135.621
 20
53.1317
 30
3.02083e-14
  70
    32
  0
VERTEX
  8
0
  5
32E3
 10
135.617
 20
53.1058
 30
3.02074e-14
  70
    32
  0
VERTEX
  8
0
  5
32E4
 10
135.613
 20
53.0800
 30
3.02066e-14
  70
    32
  0
VERTEX
  8
0
  5
32E5
 10
135.608
 20
53.0541
 30
3.02057e-14
  70
    32
  0
VERTEX
  8
0
  5
32E6
 10
135.603
 20
53.0281
 30
3.02048e-14
  70
    32
  0
VERTEX
  8
0
  5
32E7
 10
135.599
 20
53.0021
 30
3.02040e-14
  70
    32
  0
VERTEX
  8
0
  5
32E8
 10
135.594
 20
52.9761
 30
3.02031e-14
  70
    32
  0
VERTEX
  8
0
  5
32E9
 10
135.589
 20
52.9501
 30
3.02023e-14
  70
    32
  0
VERTEX
  8
0
  5
32EA
 10
135.583
 20
52.9240
 30
3.02014e-14
  70
    32
  0
VERTEX
  8
0
  5
32EB
 10
135.578
 20
52.8978
 30
3.02005e-14
  70
    32
  0
VERTEX
  8
0
  5
32EC
 10
135.573
 20
52.8717
 30
3.01997e-14
  70
    32
  0
VERTEX
  8
0
  5
32ED
 10
135.567
 20
52.8455
 30
3.01988e-14
  70
    32
  0
VERTEX
  8
0
  5
32EE
 10
135.561
 20
52.8193
 30
3.01980e-14
  70
    32
  0
VERTEX
  8
0
  5
32EF
 10
135.556
 20
52.7930
 30
3.01971e-14
  70
    32
  0
VERTEX
  8
0
  5
32F0
 10
135.550
 20
52.7667
 30
3.01962e-14
  70
    32
  0
VERTEX
  8
0
  5
32F1
 10
135.544
 20
52.7404
 30
3.01953e-14
  70
    32
  0
VERTEX
  8
0
  5
32F2
 10
135.537
 20
52.7141
 30
3.01944e-14
  70
    32
  0
VERTEX
  8
0
  5
32F3
 10
135.531
 20
52.6877
 30
3.01935e-14
  70
    32
  0
VERTEX
  8
0
  5
32F4
 10
135.525
 20
52.6613
 30
3.01926e-14
  70
    32
  0
VERTEX
  8
0
  5
32F5
 10
135.518
 20
52.6349
 30
3.01917e-14
  70
    32
  0
VERTEX
  8
0
  5
32F6
 10
135.511
 20
52.6084
 30
3.01908e-14
  70
    32
  0
VERTEX
  8
0
  5
32F7
 10
135.504
 20
52.5819
 30
3.01899e-14
  70
    32
  0
VERTEX
  8
0
  5
32F8
 10
135.497
 20
52.5554
 30
3.01889e-14
  70
    32
  0
VERTEX
  8
0
  5
32F9
 10
135.490
 20
52.5288
 30
3.01880e-14
  70
    32
  0
VERTEX
  8
0
  5
32FA
 10
135.483
 20
52.5022
 30
3.01870e-14
  70
    32
  0
VERTEX
  8
0
  5
32FB
 10
135.475
 20
52.4756
 30
3.01860e-14
  70
    32
  0
VERTEX
  8
0
  5
32FC
 10
135.468
 20
52.4490
 30
3.01850e-14
  70
    32
  0
VERTEX
  8
0
  5
32FD
 10
135.460
 20
52.4223
 30
3.01840e-14
  70
    32
  0
VERTEX
  8
0
  5
32FE
 10
135.452
 20
52.3956
 30
3.01829e-14
  70
    32
  0
VERTEX
  8
0
  5
32FF
 10
135.444
 20
52.3689
 30
3.01819e-14
  70
    32
  0
VERTEX
  8
0
  5
3300
 10
135.436
 20
52.3422
 30
3.01808e-14
  70
    32
  0
VERTEX
  8
0
  5
3301
 10
135.427
 20
52.3154
 30
3.01797e-14
  70
    32
  0
VERTEX
  8
0
  5
3302
 10
135.419
 20
52.2886
 30
3.01786e-14
  70
    32
  0
VERTEX
  8
0
  5
3303
 10
135.410
 20
52.2618
 30
3.01774e-14
  70
    32
  0
VERTEX
  8
0
  5
3304
 10
135.401
 20
52.2350
 30
3.01763e-14
  70
    32
  0
VERTEX
  8
0
  5
3305
 10
135.392
 20
52.2081
 30
3.01751e-14
  70
    32
  0
VERTEX
  8
0
  5
3306
 10
135.383
 20
52.1812
 30
3.01739e-14
  70
    32
  0
VERTEX
  8
0
  5
3307
 10
135.374
 20
52.1543
 30
3.01726e-14
  70
    32
  0
VERTEX
  8
0
  5
3308
 10
135.365
 20
52.1274
 30
3.01714e-14
  70
    32
  0
VERTEX
  8
0
  5
3309
 10
135.355
 20
52.1004
 30
3.01701e-14
  70
    32
  0
VERTEX
  8
0
  5
330A
 10
135.346
 20
52.0734
 30
3.01687e-14
  70
    32
  0
VERTEX
  8
0
  5
330B
 10
135.336
 20
52.0464
 30
3.01674e-14
  70
    32
  0
VERTEX
  8
0
  5
330C
 10
135.326
 20
52.0194
 30
3.01660e-14
  70
    32
  0
VERTEX
  8
0
  5
330D
 10
135.316
 20
51.9923
 30
3.01646e-14
  70
    32
  0
VERTEX
  8
0
  5
330E
 10
135.305
 20
51.9653
 30
3.01632e-14
  70
    32
  0
VERTEX
  8
0
  5
330F
 10
135.295
 20
51.9382
 30
3.01617e-14
  70
    32
  0
VERTEX
  8
0
  5
3310
 10
135.284
 20
51.9111
 30
3.01602e-14
  70
    32
  0
VERTEX
  8
0
  5
3311
 10
135.274
 20
51.8840
 30
3.01586e-14
  70
    32
  0
VERTEX
  8
0
  5
3312
 10
135.263
 20
51.8568
 30
3.01571e-14
  70
    32
  0
VERTEX
  8
0
  5
3313
 10
135.251
 20
51.8297
 30
3.01554e-14
  70
    32
  0
VERTEX
  8
0
  5
3314
 10
135.240
 20
51.8025
 30
3.01538e-14
  70
    32
  0
VERTEX
  8
0
  5
3315
 10
135.229
 20
51.7753
 30
3.01521e-14
  70
    32
  0
VERTEX
  8
0
  5
3316
 10
135.217
 20
51.7481
 30
3.01504e-14
  70
    32
  0
VERTEX
  8
0
  5
3317
 10
135.206
 20
51.7208
 30
3.01486e-14
  70
    32
  0
VERTEX
  8
0
  5
3318
 10
135.194
 20
51.6936
 30
3.01468e-14
  70
    32
  0
VERTEX
  8
0
  5
3319
 10
135.182
 20
51.6663
 30
3.01449e-14
  70
    32
  0
VERTEX
  8
0
  5
331A
 10
135.169
 20
51.6390
 30
3.01430e-14
  70
    32
  0
VERTEX
  8
0
  5
331B
 10
135.157
 20
51.6117
 30
3.01411e-14
  70
    32
  0
VERTEX
  8
0
  5
331C
 10
135.144
 20
51.5844
 30
3.01390e-14
  70
    32
  0
VERTEX
  8
0
  5
331D
 10
135.132
 20
51.5571
 30
3.01369e-14
  70
    32
  0
VERTEX
  8
0
  5
331E
 10
135.119
 20
51.5298
 30
3.01348e-14
  70
    32
  0
VERTEX
  8
0
  5
331F
 10
135.106
 20
51.5025
 30
3.01326e-14
  70
    32
  0
VERTEX
  8
0
  5
3320
 10
135.093
 20
51.4752
 30
3.01303e-14
  70
    32
  0
VERTEX
  8
0
  5
3321
 10
135.079
 20
51.4479
 30
3.01279e-14
  70
    32
  0
VERTEX
  8
0
  5
3322
 10
135.066
 20
51.4205
 30
3.01255e-14
  70
    32
  0
VERTEX
  8
0
  5
3323
 10
135.052
 20
51.3932
 30
3.01231e-14
  70
    32
  0
VERTEX
  8
0
  5
3324
 10
135.038
 20
51.3659
 30
3.01205e-14
  70
    32
  0
VERTEX
  8
0
  5
3325
 10
135.024
 20
51.3386
 30
3.01179e-14
  70
    32
  0
VERTEX
  8
0
  5
3326
 10
135.010
 20
51.3113
 30
3.01152e-14
  70
    32
  0
VERTEX
  8
0
  5
3327
 10
134.995
 20
51.2839
 30
3.01125e-14
  70
    32
  0
VERTEX
  8
0
  5
3328
 10
134.981
 20
51.2566
 30
3.01097e-14
  70
    32
  0
VERTEX
  8
0
  5
3329
 10
134.966
 20
51.2293
 30
3.01069e-14
  70
    32
  0
VERTEX
  8
0
  5
332A
 10
134.951
 20
51.2020
 30
3.01039e-14
  70
    32
  0
VERTEX
  8
0
  5
332B
 10
134.936
 20
51.1747
 30
3.01009e-14
  70
    32
  0
VERTEX
  8
0
  5
332C
 10
134.920
 20
51.1475
 30
3.00979e-14
  70
    32
  0
VERTEX
  8
0
  5
332D
 10
134.905
 20
51.1202
 30
3.00947e-14
  70
    32
  0
VERTEX
  8
0
  5
332E
 10
134.889
 20
51.0930
 30
3.00915e-14
  70
    32
  0
VERTEX
  8
0
  5
332F
 10
134.873
 20
51.0657
 30
3.00883e-14
  70
    32
  0
VERTEX
  8
0
  5
3330
 10
134.857
 20
51.0385
 30
3.00850e-14
  70
    32
  0
VERTEX
  8
0
  5
3331
 10
134.841
 20
51.0113
 30
3.00816e-14
  70
    32
  0
VERTEX
  8
0
  5
3332
 10
134.824
 20
50.9841
 30
3.00781e-14
  70
    32
  0
VERTEX
  8
0
  5
3333
 10
134.808
 20
50.9569
 30
3.00746e-14
  70
    32
  0
VERTEX
  8
0
  5
3334
 10
134.791
 20
50.9298
 30
3.00710e-14
  70
    32
  0
VERTEX
  8
0
  5
3335
 10
134.774
 20
50.9026
 30
3.00673e-14
  70
    32
  0
VERTEX
  8
0
  5
3336
 10
134.757
 20
50.8755
 30
3.00636e-14
  70
    32
  0
VERTEX
  8
0
  5
3337
 10
134.739
 20
50.8484
 30
3.00598e-14
  70
    32
  0
VERTEX
  8
0
  5
3338
 10
134.722
 20
50.8214
 30
3.00559e-14
  70
    32
  0
VERTEX
  8
0
  5
3339
 10
134.704
 20
50.7943
 30
3.00520e-14
  70
    32
  0
VERTEX
  8
0
  5
333A
 10
134.686
 20
50.7673
 30
3.00480e-14
  70
    32
  0
VERTEX
  8
0
  5
333B
 10
134.668
 20
50.7403
 30
3.00439e-14
  70
    32
  0
VERTEX
  8
0
  5
333C
 10
134.650
 20
50.7134
 30
3.00398e-14
  70
    32
  0
VERTEX
  8
0
  5
333D
 10
134.631
 20
50.6865
 30
3.00356e-14
  70
    32
  0
VERTEX
  8
0
  5
333E
 10
134.612
 20
50.6596
 30
3.00313e-14
  70
    32
  0
VERTEX
  8
0
  5
333F
 10
134.593
 20
50.6327
 30
3.00269e-14
  70
    32
  0
VERTEX
  8
0
  5
3340
 10
134.574
 20
50.6059
 30
3.00225e-14
  70
    32
  0
VERTEX
  8
0
  5
3341
 10
134.555
 20
50.5791
 30
3.00180e-14
  70
    32
  0
VERTEX
  8
0
  5
3342
 10
134.535
 20
50.5523
 30
3.00134e-14
  70
    32
  0
VERTEX
  8
0
  5
3343
 10
134.515
 20
50.5256
 30
3.00088e-14
  70
    32
  0
VERTEX
  8
0
  5
3344
 10
134.495
 20
50.4989
 30
3.00041e-14
  70
    32
  0
VERTEX
  8
0
  5
3345
 10
134.475
 20
50.4723
 30
2.99993e-14
  70
    32
  0
VERTEX
  8
0
  5
3346
 10
134.455
 20
50.4457
 30
2.99945e-14
  70
    32
  0
VERTEX
  8
0
  5
3347
 10
134.434
 20
50.4191
 30
2.99896e-14
  70
    32
  0
VERTEX
  8
0
  5
3348
 10
134.414
 20
50.3926
 30
2.99846e-14
  70
    32
  0
VERTEX
  8
0
  5
3349
 10
134.393
 20
50.3661
 30
2.99795e-14
  70
    32
  0
VERTEX
  8
0
  5
334A
 10
134.371
 20
50.3397
 30
2.99744e-14
  70
    32
  0
VERTEX
  8
0
  5
334B
 10
134.350
 20
50.3133
 30
2.99692e-14
  70
    32
  0
VERTEX
  8
0
  5
334C
 10
134.328
 20
50.2870
 30
2.99639e-14
  70
    32
  0
VERTEX
  8
0
  5
334D
 10
134.306
 20
50.2607
 30
2.99586e-14
  70
    32
  0
VERTEX
  8
0
  5
334E
 10
134.284
 20
50.2345
 30
2.99531e-14
  70
    32
  0
VERTEX
  8
0
  5
334F
 10
134.262
 20
50.2083
 30
2.99476e-14
  70
    32
  0
VERTEX
  8
0
  5
3350
 10
134.239
 20
50.1822
 30
2.99421e-14
  70
    32
  0
VERTEX
  8
0
  5
3351
 10
134.217
 20
50.1561
 30
2.99364e-14
  70
    32
  0
VERTEX
  8
0
  5
3352
 10
134.194
 20
50.1301
 30
2.99307e-14
  70
    32
  0
VERTEX
  8
0
  5
3353
 10
134.171
 20
50.1041
 30
2.99249e-14
  70
    32
  0
VERTEX
  8
0
  5
3354
 10
134.147
 20
50.0782
 30
2.99190e-14
  70
    32
  0
VERTEX
  8
0
  5
3355
 10
134.124
 20
50.0523
 30
2.99131e-14
  70
    32
  0
VERTEX
  8
0
  5
3356
 10
134.100
 20
50.0265
 30
2.99071e-14
  70
    32
  0
VERTEX
  8
0
  5
3357
 10
134.076
 20
50.0008
 30
2.99010e-14
  70
    32
  0
VERTEX
  8
0
  5
3358
 10
134.051
 20
49.9751
 30
2.98948e-14
  70
    32
  0
VERTEX
  8
0
  5
3359
 10
134.027
 20
49.9495
 30
2.98886e-14
  70
    32
  0
VERTEX
  8
0
  5
335A
 10
134.002
 20
49.9240
 30
2.98823e-14
  70
    32
  0
VERTEX
  8
0
  5
335B
 10
133.977
 20
49.8985
 30
2.98759e-14
  70
    32
  0
VERTEX
  8
0
  5
335C
 10
133.952
 20
49.8731
 30
2.98694e-14
  70
    32
  0
VERTEX
  8
0
  5
335D
 10
133.927
 20
49.8477
 30
2.98629e-14
  70
    32
  0
VERTEX
  8
0
  5
335E
 10
133.901
 20
49.8225
 30
2.98563e-14
  70
    32
  0
VERTEX
  8
0
  5
335F
 10
133.875
 20
49.7973
 30
2.98496e-14
  70
    32
  0
VERTEX
  8
0
  5
3360
 10
133.849
 20
49.7721
 30
2.98428e-14
  70
    32
  0
VERTEX
  8
0
  5
3361
 10
133.823
 20
49.7471
 30
2.98360e-14
  70
    32
  0
VERTEX
  8
0
  5
3362
 10
133.796
 20
49.7221
 30
2.98290e-14
  70
    32
  0
VERTEX
  8
0
  5
3363
 10
133.769
 20
49.6972
 30
2.98222e-14
  70
    32
  0
VERTEX
  8
0
  5
3364
 10
133.742
 20
49.6723
 30
2.98154e-14
  70
    32
  0
VERTEX
  8
0
  5
3365
 10
133.715
 20
49.6476
 30
2.98086e-14
  70
    32
  0
VERTEX
  8
0
  5
3366
 10
133.687
 20
49.6229
 30
2.98019e-14
  70
    32
  0
VERTEX
  8
0
  5
3367
 10
133.659
 20
49.5983
 30
2.97952e-14
  70
    32
  0
VERTEX
  8
0
  5
3368
 10
133.631
 20
49.5738
 30
2.97885e-14
  70
    32
  0
VERTEX
  8
0
  5
3369
 10
133.603
 20
49.5494
 30
2.97819e-14
  70
    32
  0
VERTEX
  8
0
  5
336A
 10
133.575
 20
49.5251
 30
2.97754e-14
  70
    32
  0
VERTEX
  8
0
  5
336B
 10
133.546
 20
49.5009
 30
2.97688e-14
  70
    32
  0
VERTEX
  8
0
  5
336C
 10
133.517
 20
49.4768
 30
2.97623e-14
  70
    32
  0
VERTEX
  8
0
  5
336D
 10
133.488
 20
49.4529
 30
2.97559e-14
  70
    32
  0
VERTEX
  8
0
  5
336E
 10
133.458
 20
49.4290
 30
2.97494e-14
  70
    32
  0
VERTEX
  8
0
  5
336F
 10
133.428
 20
49.4052
 30
2.97430e-14
  70
    32
  0
VERTEX
  8
0
  5
3370
 10
133.399
 20
49.3815
 30
2.97366e-14
  70
    32
  0
VERTEX
  8
0
  5
3371
 10
133.368
 20
49.3580
 30
2.97301e-14
  70
    32
  0
VERTEX
  8
0
  5
3372
 10
133.338
 20
49.3346
 30
2.97237e-14
  70
    32
  0
VERTEX
  8
0
  5
3373
 10
133.307
 20
49.3112
 30
2.97174e-14
  70
    32
  0
VERTEX
  8
0
  5
3374
 10
133.276
 20
49.2881
 30
2.97110e-14
  70
    32
  0
VERTEX
  8
0
  5
3375
 10
133.245
 20
49.2650
 30
2.97046e-14
  70
    32
  0
VERTEX
  8
0
  5
3376
 10
133.213
 20
49.2421
 30
2.96982e-14
  70
    32
  0
VERTEX
  8
0
  5
3377
 10
133.182
 20
49.2193
 30
2.96918e-14
  70
    32
  0
VERTEX
  8
0
  5
3378
 10
133.150
 20
49.1966
 30
2.96854e-14
  70
    32
  0
VERTEX
  8
0
  5
3379
 10
133.117
 20
49.1741
 30
2.96789e-14
  70
    32
  0
VERTEX
  8
0
  5
337A
 10
133.085
 20
49.1517
 30
2.96725e-14
  70
    32
  0
VERTEX
  8
0
  5
337B
 10
133.052
 20
49.1295
 30
2.96660e-14
  70
    32
  0
VERTEX
  8
0
  5
337C
 10
133.019
 20
49.1074
 30
2.96596e-14
  70
    32
  0
VERTEX
  8
0
  5
337D
 10
132.986
 20
49.0854
 30
2.96531e-14
  70
    32
  0
VERTEX
  8
0
  5
337E
 10
132.952
 20
49.0636
 30
2.96465e-14
  70
    32
  0
VERTEX
  8
0
  5
337F
 10
132.919
 20
49.0420
 30
2.96399e-14
  70
    32
  0
VERTEX
  8
0
  5
3380
 10
132.885
 20
49.0205
 30
2.96333e-14
  70
    32
  0
VERTEX
  8
0
  5
3381
 10
132.850
 20
48.9992
 30
2.96267e-14
  70
    32
  0
VERTEX
  8
0
  5
3382
 10
132.816
 20
48.9780
 30
2.96200e-14
  70
    32
  0
VERTEX
  8
0
  5
3383
 10
132.781
 20
48.9570
 30
2.96133e-14
  70
    32
  0
VERTEX
  8
0
  5
3384
 10
132.746
 20
48.9362
 30
2.96065e-14
  70
    32
  0
VERTEX
  8
0
  5
3385
 10
132.710
 20
48.9155
 30
2.95997e-14
  70
    32
  0
VERTEX
  8
0
  5
3386
 10
132.675
 20
48.8950
 30
2.95928e-14
  70
    32
  0
VERTEX
  8
0
  5
3387
 10
132.639
 20
48.8747
 30
2.95859e-14
  70
    32
  0
VERTEX
  8
0
  5
3388
 10
132.602
 20
48.8546
 30
2.95788e-14
  70
    32
  0
VERTEX
  8
0
  5
3389
 10
132.566
 20
48.8346
 30
2.95718e-14
  70
    32
  0
VERTEX
  8
0
  5
338A
 10
132.529
 20
48.8149
 30
2.95646e-14
  70
    32
  0
VERTEX
  8
0
  5
338B
 10
132.492
 20
48.7953
 30
2.95574e-14
  70
    32
  0
VERTEX
  8
0
  5
338C
 10
132.455
 20
48.7759
 30
2.95502e-14
  70
    32
  0
VERTEX
  8
0
  5
338D
 10
132.417
 20
48.7567
 30
2.95428e-14
  70
    32
  0
VERTEX
  8
0
  5
338E
 10
132.379
 20
48.7377
 30
2.95354e-14
  70
    32
  0
VERTEX
  8
0
  5
338F
 10
132.341
 20
48.7189
 30
2.95278e-14
  70
    32
  0
VERTEX
  8
0
  5
3390
 10
132.303
 20
48.7003
 30
2.95202e-14
  70
    32
  0
VERTEX
  8
0
  5
3391
 10
132.264
 20
48.6819
 30
2.95125e-14
  70
    32
  0
VERTEX
  8
0
  5
3392
 10
132.225
 20
48.6637
 30
2.95047e-14
  70
    32
  0
VERTEX
  8
0
  5
3393
 10
132.186
 20
48.6457
 30
2.94969e-14
  70
    32
  0
VERTEX
  8
0
  5
3394
 10
132.146
 20
48.6279
 30
2.94889e-14
  70
    32
  0
VERTEX
  8
0
  5
3395
 10
132.107
 20
48.6104
 30
2.94808e-14
  70
    32
  0
VERTEX
  8
0
  5
3396
 10
132.067
 20
48.5930
 30
2.94726e-14
  70
    32
  0
VERTEX
  8
0
  5
3397
 10
132.026
 20
48.5759
 30
2.94643e-14
  70
    32
  0
VERTEX
  8
0
  5
3398
 10
131.985
 20
48.5590
 30
2.94559e-14
  70
    32
  0
VERTEX
  8
0
  5
3399
 10
131.944
 20
48.5423
 30
2.94473e-14
  70
    32
  0
VERTEX
  8
0
  5
339A
 10
131.903
 20
48.5259
 30
2.94387e-14
  70
    32
  0
VERTEX
  8
0
  5
339B
 10
131.862
 20
48.5096
 30
2.94299e-14
  70
    32
  0
VERTEX
  8
0
  5
339C
 10
131.820
 20
48.4937
 30
2.94209e-14
  70
    32
  0
VERTEX
  8
0
  5
339D
 10
131.778
 20
48.4779
 30
2.94118e-14
  70
    32
  0
VERTEX
  8
0
  5
339E
 10
131.735
 20
48.4624
 30
2.94024e-14
  70
    32
  0
VERTEX
  8
0
  5
339F
 10
131.693
 20
48.4472
 30
2.93929e-14
  70
    32
  0
VERTEX
  8
0
  5
33A0
 10
131.650
 20
48.4322
 30
2.93832e-14
  70
    32
  0
VERTEX
  8
0
  5
33A1
 10
131.606
 20
48.4175
 30
2.93733e-14
  70
    32
  0
VERTEX
  8
0
  5
33A2
 10
131.563
 20
48.4030
 30
2.93633e-14
  70
    32
  0
VERTEX
  8
0
  5
33A3
 10
131.519
 20
48.3888
 30
2.93531e-14
  70
    32
  0
VERTEX
  8
0
  5
33A4
 10
131.475
 20
48.3749
 30
2.93427e-14
  70
    32
  0
VERTEX
  8
0
  5
33A5
 10
131.430
 20
48.3613
 30
2.93321e-14
  70
    32
  0
VERTEX
  8
0
  5
33A6
 10
131.386
 20
48.3480
 30
2.93215e-14
  70
    32
  0
VERTEX
  8
0
  5
33A7
 10
131.341
 20
48.3349
 30
2.93106e-14
  70
    32
  0
VERTEX
  8
0
  5
33A8
 10
131.295
 20
48.3222
 30
2.92996e-14
  70
    32
  0
VERTEX
  8
0
  5
33A9
 10
131.250
 20
48.3098
 30
2.92885e-14
  70
    32
  0
VERTEX
  8
0
  5
33AA
 10
131.204
 20
48.2977
 30
2.92772e-14
  70
    32
  0
VERTEX
  8
0
  5
33AB
 10
131.158
 20
48.2859
 30
2.92659e-14
  70
    32
  0
VERTEX
  8
0
  5
33AC
 10
131.111
 20
48.2744
 30
2.92543e-14
  70
    32
  0
VERTEX
  8
0
  5
33AD
 10
131.064
 20
48.2633
 30
2.92427e-14
  70
    32
  0
VERTEX
  8
0
  5
33AE
 10
131.017
 20
48.2525
 30
2.92310e-14
  70
    32
  0
VERTEX
  8
0
  5
33AF
 10
130.970
 20
48.2420
 30
2.92191e-14
  70
    32
  0
VERTEX
  8
0
  5
33B0
 10
130.922
 20
48.2319
 30
2.92071e-14
  70
    32
  0
VERTEX
  8
0
  5
33B1
 10
130.875
 20
48.2221
 30
2.91951e-14
  70
    32
  0
VERTEX
  8
0
  5
33B2
 10
130.826
 20
48.2127
 30
2.91829e-14
  70
    32
  0
VERTEX
  8
0
  5
33B3
 10
130.778
 20
48.2036
 30
2.91706e-14
  70
    32
  0
VERTEX
  8
0
  5
33B4
 10
130.729
 20
48.1949
 30
2.91583e-14
  70
    32
  0
VERTEX
  8
0
  5
33B5
 10
130.680
 20
48.1866
 30
2.91458e-14
  70
    32
  0
VERTEX
  8
0
  5
33B6
 10
130.631
 20
48.1787
 30
2.91333e-14
  70
    32
  0
VERTEX
  8
0
  5
33B7
 10
130.581
 20
48.1711
 30
2.91207e-14
  70
    32
  0
VERTEX
  8
0
  5
33B8
 10
130.531
 20
48.1640
 30
2.91081e-14
  70
    32
  0
VERTEX
  8
0
  5
33B9
 10
130.481
 20
48.1572
 30
2.90953e-14
  70
    32
  0
VERTEX
  8
0
  5
33BA
 10
130.431
 20
48.1508
 30
2.90826e-14
  70
    32
  0
VERTEX
  8
0
  5
33BB
 10
130.380
 20
48.1449
 30
2.90697e-14
  70
    32
  0
VERTEX
  8
0
  5
33BC
 10
130.329
 20
48.1393
 30
2.90568e-14
  70
    32
  0
VERTEX
  8
0
  5
33BD
 10
130.277
 20
48.1342
 30
2.90439e-14
  70
    32
  0
VERTEX
  8
0
  5
33BE
 10
130.226
 20
48.1295
 30
2.90309e-14
  70
    32
  0
VERTEX
  8
0
  5
33BF
 10
130.174
 20
48.1252
 30
2.90179e-14
  70
    32
  0
VERTEX
  8
0
  5
33C0
 10
130.122
 20
48.1214
 30
2.90048e-14
  70
    32
  0
VERTEX
  8
0
  5
33C1
 10
130.069
 20
48.1180
 30
2.89917e-14
  70
    32
  0
VERTEX
  8
0
  5
33C2
 10
130.016
 20
48.1150
 30
2.89786e-14
  70
    32
  0
VERTEX
  8
0
  5
33C3
 10
129.963
 20
48.1125
 30
2.89655e-14
  70
    32
  0
VERTEX
  8
0
  5
33C4
 10
129.910
 20
48.1104
 30
2.89523e-14
  70
    32
  0
VERTEX
  8
0
  5
33C5
 10
129.856
 20
48.1088
 30
2.89392e-14
  70
    32
  0
VERTEX
  8
0
  5
33C6
 10
129.802
 20
48.1077
 30
2.89260e-14
  70
    32
  0
VERTEX
  8
0
  5
33C7
 10
129.748
 20
48.1070
 30
2.89128e-14
  70
    32
  0
VERTEX
  8
0
  5
33C8
 10
129.693
 20
48.1069
 30
2.89004e-14
  70
    32
  0
VERTEX
  8
0
  5
33C9
 10
129.628
 20
48.1069
 30
2.88874e-14
  70
    32
  0
VERTEX
  8
0
  5
33CA
 10
129.561
 20
48.1069
 30
2.88727e-14
  70
    32
  0
VERTEX
  8
0
  5
33CB
 10
129.494
 20
48.1069
 30
2.88579e-14
  70
    32
  0
VERTEX
  8
0
  5
33CC
 10
129.427
 20
48.1069
 30
2.88432e-14
  70
    32
  0
VERTEX
  8
0
  5
33CD
 10
129.360
 20
48.1069
 30
2.88284e-14
  70
    32
  0
VERTEX
  8
0
  5
33CE
 10
129.294
 20
48.1069
 30
2.88137e-14
  70
    32
  0
VERTEX
  8
0
  5
33CF
 10
129.227
 20
48.1069
 30
2.87989e-14
  70
    32
  0
VERTEX
  8
0
  5
33D0
 10
129.160
 20
48.1069
 30
2.87842e-14
  70
    32
  0
VERTEX
  8
0
  5
33D1
 10
129.093
 20
48.1069
 30
2.87694e-14
  70
    32
  0
VERTEX
  8
0
  5
33D2
 10
129.027
 20
48.1069
 30
2.87546e-14
  70
    32
  0
VERTEX
  8
0
  5
33D3
 10
128.960
 20
48.1069
 30
2.87399e-14
  70
    32
  0
VERTEX
  8
0
  5
33D4
 10
128.893
 20
48.1069
 30
2.87251e-14
  70
    32
  0
VERTEX
  8
0
  5
33D5
 10
128.826
 20
48.1069
 30
2.87104e-14
  70
    32
  0
VERTEX
  8
0
  5
33D6
 10
128.759
 20
48.1069
 30
2.86956e-14
  70
    32
  0
VERTEX
  8
0
  5
33D7
 10
128.693
 20
48.1069
 30
2.86808e-14
  70
    32
  0
VERTEX
  8
0
  5
33D8
 10
128.626
 20
48.1069
 30
2.86661e-14
  70
    32
  0
VERTEX
  8
0
  5
33D9
 10
128.559
 20
48.1069
 30
2.86513e-14
  70
    32
  0
VERTEX
  8
0
  5
33DA
 10
128.492
 20
48.1069
 30
2.86365e-14
  70
    32
  0
VERTEX
  8
0
  5
33DB
 10
128.425
 20
48.1069
 30
2.86218e-14
  70
    32
  0
VERTEX
  8
0
  5
33DC
 10
128.359
 20
48.1069
 30
2.86070e-14
  70
    32
  0
VERTEX
  8
0
  5
33DD
 10
128.292
 20
48.1069
 30
2.85922e-14
  70
    32
  0
VERTEX
  8
0
  5
33DE
 10
128.225
 20
48.1069
 30
2.85775e-14
  70
    32
  0
VERTEX
  8
0
  5
33DF
 10
128.158
 20
48.1069
 30
2.85627e-14
  70
    32
  0
VERTEX
  8
0
  5
33E0
 10
128.092
 20
48.1069
 30
2.85479e-14
  70
    32
  0
VERTEX
  8
0
  5
33E1
 10
128.025
 20
48.1069
 30
2.85332e-14
  70
    32
  0
VERTEX
  8
0
  5
33E2
 10
127.958
 20
48.1069
 30
2.85184e-14
  70
    32
  0
VERTEX
  8
0
  5
33E3
 10
127.891
 20
48.1069
 30
2.85036e-14
  70
    32
  0
VERTEX
  8
0
  5
33E4
 10
127.824
 20
48.1069
 30
2.84889e-14
  70
    32
  0
VERTEX
  8
0
  5
33E5
 10
127.758
 20
48.1069
 30
2.84741e-14
  70
    32
  0
VERTEX
  8
0
  5
33E6
 10
127.691
 20
48.1069
 30
2.84593e-14
  70
    32
  0
VERTEX
  8
0
  5
33E7
 10
127.624
 20
48.1069
 30
2.84445e-14
  70
    32
  0
VERTEX
  8
0
  5
33E8
 10
127.557
 20
48.1069
 30
2.84298e-14
  70
    32
  0
VERTEX
  8
0
  5
33E9
 10
127.490
 20
48.1069
 30
2.84150e-14
  70
    32
  0
VERTEX
  8
0
  5
33EA
 10
127.424
 20
48.1069
 30
2.84002e-14
  70
    32
  0
VERTEX
  8
0
  5
33EB
 10
127.357
 20
48.1069
 30
2.83855e-14
  70
    32
  0
VERTEX
  8
0
  5
33EC
 10
127.290
 20
48.1069
 30
2.83707e-14
  70
    32
  0
VERTEX
  8
0
  5
33ED
 10
127.223
 20
48.1069
 30
2.83559e-14
  70
    32
  0
VERTEX
  8
0
  5
33EE
 10
127.157
 20
48.1069
 30
2.83411e-14
  70
    32
  0
VERTEX
  8
0
  5
33EF
 10
127.090
 20
48.1069
 30
2.83263e-14
  70
    32
  0
VERTEX
  8
0
  5
33F0
 10
127.023
 20
48.1069
 30
2.83116e-14
  70
    32
  0
VERTEX
  8
0
  5
33F1
 10
126.956
 20
48.1069
 30
2.82968e-14
  70
    32
  0
VERTEX
  8
0
  5
33F2
 10
126.889
 20
48.1069
 30
2.82820e-14
  70
    32
  0
VERTEX
  8
0
  5
33F3
 10
126.823
 20
48.1069
 30
2.82672e-14
  70
    32
  0
VERTEX
  8
0
  5
33F4
 10
126.756
 20
48.1069
 30
2.82525e-14
  70
    32
  0
VERTEX
  8
0
  5
33F5
 10
126.689
 20
48.1069
 30
2.82377e-14
  70
    32
  0
VERTEX
  8
0
  5
33F6
 10
126.622
 20
48.1069
 30
2.82229e-14
  70
    32
  0
VERTEX
  8
0
  5
33F7
 10
126.555
 20
48.1069
 30
2.82081e-14
  70
    32
  0
VERTEX
  8
0
  5
33F8
 10
126.489
 20
48.1069
 30
2.81933e-14
  70
    32
  0
VERTEX
  8
0
  5
33F9
 10
126.422
 20
48.1069
 30
2.81785e-14
  70
    32
  0
VERTEX
  8
0
  5
33FA
 10
126.355
 20
48.1069
 30
2.81638e-14
  70
    32
  0
VERTEX
  8
0
  5
33FB
 10
126.288
 20
48.1069
 30
2.81490e-14
  70
    32
  0
VERTEX
  8
0
  5
33FC
 10
126.222
 20
48.1069
 30
2.81342e-14
  70
    32
  0
VERTEX
  8
0
  5
33FD
 10
126.155
 20
48.1069
 30
2.81194e-14
  70
    32
  0
VERTEX
  8
0
  5
33FE
 10
126.088
 20
48.1069
 30
2.81046e-14
  70
    32
  0
VERTEX
  8
0
  5
33FF
 10
126.021
 20
48.1069
 30
2.80898e-14
  70
    32
  0
VERTEX
  8
0
  5
3400
 10
125.954
 20
48.1069
 30
2.80751e-14
  70
    32
  0
VERTEX
  8
0
  5
3401
 10
125.888
 20
48.1069
 30
2.80603e-14
  70
    32
  0
VERTEX
  8
0
  5
3402
 10
125.821
 20
48.1069
 30
2.80455e-14
  70
    32
  0
VERTEX
  8
0
  5
3403
 10
125.754
 20
48.1069
 30
2.80307e-14
  70
    32
  0
VERTEX
  8
0
  5
3404
 10
125.687
 20
48.1069
 30
2.80159e-14
  70
    32
  0
VERTEX
  8
0
  5
3405
 10
125.620
 20
48.1069
 30
2.80011e-14
  70
    32
  0
VERTEX
  8
0
  5
3406
 10
125.554
 20
48.1069
 30
2.79863e-14
  70
    32
  0
VERTEX
  8
0
  5
3407
 10
125.487
 20
48.1069
 30
2.79715e-14
  70
    32
  0
VERTEX
  8
0
  5
3408
 10
125.420
 20
48.1069
 30
2.79568e-14
  70
    32
  0
VERTEX
  8
0
  5
3409
 10
125.353
 20
48.1069
 30
2.79420e-14
  70
    32
  0
VERTEX
  8
0
  5
340A
 10
125.287
 20
48.1069
 30
2.79272e-14
  70
    32
  0
VERTEX
  8
0
  5
340B
 10
125.220
 20
48.1069
 30
2.79124e-14
  70
    32
  0
VERTEX
  8
0
  5
340C
 10
125.153
 20
48.1069
 30
2.78976e-14
  70
    32
  0
VERTEX
  8
0
  5
340D
 10
125.086
 20
48.1069
 30
2.78828e-14
  70
    32
  0
VERTEX
  8
0
  5
340E
 10
125.019
 20
48.1069
 30
2.78680e-14
  70
    32
  0
VERTEX
  8
0
  5
340F
 10
124.953
 20
48.1069
 30
2.78532e-14
  70
    32
  0
VERTEX
  8
0
  5
3410
 10
124.886
 20
48.1069
 30
2.78384e-14
  70
    32
  0
VERTEX
  8
0
  5
3411
 10
124.819
 20
48.1069
 30
2.78236e-14
  70
    32
  0
VERTEX
  8
0
  5
3412
 10
124.752
 20
48.1069
 30
2.78088e-14
  70
    32
  0
VERTEX
  8
0
  5
3413
 10
124.685
 20
48.1069
 30
2.77940e-14
  70
    32
  0
VERTEX
  8
0
  5
3414
 10
124.619
 20
48.1069
 30
2.77793e-14
  70
    32
  0
VERTEX
  8
0
  5
3415
 10
124.552
 20
48.1069
 30
2.77645e-14
  70
    32
  0
VERTEX
  8
0
  5
3416
 10
124.485
 20
48.1069
 30
2.77497e-14
  70
    32
  0
VERTEX
  8
0
  5
3417
 10
124.418
 20
48.1069
 30
2.77349e-14
  70
    32
  0
VERTEX
  8
0
  5
3418
 10
124.352
 20
48.1069
 30
2.77201e-14
  70
    32
  0
VERTEX
  8
0
  5
3419
 10
124.285
 20
48.1069
 30
2.77053e-14
  70
    32
  0
VERTEX
  8
0
  5
341A
 10
124.218
 20
48.1069
 30
2.76905e-14
  70
    32
  0
VERTEX
  8
0
  5
341B
 10
124.151
 20
48.1069
 30
2.76757e-14
  70
    32
  0
VERTEX
  8
0
  5
341C
 10
124.084
 20
48.1069
 30
2.76609e-14
  70
    32
  0
VERTEX
  8
0
  5
341D
 10
124.018
 20
48.1069
 30
2.76461e-14
  70
    32
  0
VERTEX
  8
0
  5
341E
 10
123.951
 20
48.1069
 30
2.76313e-14
  70
    32
  0
VERTEX
  8
0
  5
341F
 10
123.884
 20
48.1069
 30
2.76165e-14
  70
    32
  0
VERTEX
  8
0
  5
3420
 10
123.817
 20
48.1069
 30
2.76017e-14
  70
    32
  0
VERTEX
  8
0
  5
3421
 10
123.750
 20
48.1069
 30
2.75869e-14
  70
    32
  0
VERTEX
  8
0
  5
3422
 10
123.684
 20
48.1069
 30
2.75721e-14
  70
    32
  0
VERTEX
  8
0
  5
3423
 10
123.617
 20
48.1069
 30
2.75573e-14
  70
    32
  0
VERTEX
  8
0
  5
3424
 10
123.550
 20
48.1069
 30
2.75425e-14
  70
    32
  0
VERTEX
  8
0
  5
3425
 10
123.483
 20
48.1069
 30
2.75277e-14
  70
    32
  0
VERTEX
  8
0
  5
3426
 10
123.417
 20
48.1069
 30
2.75129e-14
  70
    32
  0
VERTEX
  8
0
  5
3427
 10
123.350
 20
48.1069
 30
2.74981e-14
  70
    32
  0
VERTEX
  8
0
  5
3428
 10
123.283
 20
48.1069
 30
2.74833e-14
  70
    32
  0
VERTEX
  8
0
  5
3429
 10
123.216
 20
48.1069
 30
2.74685e-14
  70
    32
  0
VERTEX
  8
0
  5
342A
 10
123.149
 20
48.1069
 30
2.74537e-14
  70
    32
  0
VERTEX
  8
0
  5
342B
 10
123.083
 20
48.1069
 30
2.74389e-14
  70
    32
  0
VERTEX
  8
0
  5
342C
 10
123.016
 20
48.1069
 30
2.74241e-14
  70
    32
  0
VERTEX
  8
0
  5
342D
 10
122.949
 20
48.1069
 30
2.74093e-14
  70
    32
  0
VERTEX
  8
0
  5
342E
 10
122.882
 20
48.1069
 30
2.73945e-14
  70
    32
  0
VERTEX
  8
0
  5
342F
 10
122.815
 20
48.1069
 30
2.73797e-14
  70
    32
  0
VERTEX
  8
0
  5
3430
 10
122.749
 20
48.1069
 30
2.73649e-14
  70
    32
  0
VERTEX
  8
0
  5
3431
 10
122.682
 20
48.1069
 30
2.73501e-14
  70
    32
  0
VERTEX
  8
0
  5
3432
 10
122.615
 20
48.1069
 30
2.73353e-14
  70
    32
  0
VERTEX
  8
0
  5
3433
 10
122.548
 20
48.1069
 30
2.73205e-14
  70
    32
  0
VERTEX
  8
0
  5
3434
 10
122.482
 20
48.1069
 30
2.73057e-14
  70
    32
  0
VERTEX
  8
0
  5
3435
 10
122.415
 20
48.1069
 30
2.72909e-14
  70
    32
  0
VERTEX
  8
0
  5
3436
 10
122.348
 20
48.1069
 30
2.72761e-14
  70
    32
  0
VERTEX
  8
0
  5
3437
 10
122.281
 20
48.1069
 30
2.72613e-14
  70
    32
  0
VERTEX
  8
0
  5
3438
 10
122.214
 20
48.1069
 30
2.72465e-14
  70
    32
  0
VERTEX
  8
0
  5
3439
 10
122.148
 20
48.1069
 30
2.72317e-14
  70
    32
  0
VERTEX
  8
0
  5
343A
 10
122.081
 20
48.1069
 30
2.72169e-14
  70
    32
  0
VERTEX
  8
0
  5
343B
 10
122.014
 20
48.1069
 30
2.72021e-14
  70
    32
  0
VERTEX
  8
0
  5
343C
 10
121.947
 20
48.1069
 30
2.71873e-14
  70
    32
  0
VERTEX
  8
0
  5
343D
 10
121.880
 20
48.1069
 30
2.71725e-14
  70
    32
  0
VERTEX
  8
0
  5
343E
 10
121.814
 20
48.1069
 30
2.71576e-14
  70
    32
  0
VERTEX
  8
0
  5
343F
 10
121.747
 20
48.1069
 30
2.71428e-14
  70
    32
  0
VERTEX
  8
0
  5
3440
 10
121.680
 20
48.1069
 30
2.71280e-14
  70
    32
  0
VERTEX
  8
0
  5
3441
 10
121.613
 20
48.1069
 30
2.71132e-14
  70
    32
  0
VERTEX
  8
0
  5
3442
 10
121.547
 20
48.1069
 30
2.70984e-14
  70
    32
  0
VERTEX
  8
0
  5
3443
 10
121.480
 20
48.1069
 30
2.70836e-14
  70
    32
  0
VERTEX
  8
0
  5
3444
 10
121.413
 20
48.1069
 30
2.70688e-14
  70
    32
  0
VERTEX
  8
0
  5
3445
 10
121.346
 20
48.1069
 30
2.70540e-14
  70
    32
  0
VERTEX
  8
0
  5
3446
 10
121.279
 20
48.1069
 30
2.70392e-14
  70
    32
  0
VERTEX
  8
0
  5
3447
 10
121.213
 20
48.1069
 30
2.70244e-14
  70
    32
  0
VERTEX
  8
0
  5
3448
 10
121.146
 20
48.1069
 30
2.70096e-14
  70
    32
  0
VERTEX
  8
0
  5
3449
 10
121.079
 20
48.1069
 30
2.69948e-14
  70
    32
  0
VERTEX
  8
0
  5
344A
 10
121.012
 20
48.1069
 30
2.69800e-14
  70
    32
  0
VERTEX
  8
0
  5
344B
 10
120.945
 20
48.1069
 30
2.69652e-14
  70
    32
  0
VERTEX
  8
0
  5
344C
 10
120.879
 20
48.1069
 30
2.69504e-14
  70
    32
  0
VERTEX
  8
0
  5
344D
 10
120.812
 20
48.1069
 30
2.69356e-14
  70
    32
  0
VERTEX
  8
0
  5
344E
 10
120.745
 20
48.1069
 30
2.69208e-14
  70
    32
  0
VERTEX
  8
0
  5
344F
 10
120.678
 20
48.1069
 30
2.69060e-14
  70
    32
  0
VERTEX
  8
0
  5
3450
 10
120.612
 20
48.1069
 30
2.68912e-14
  70
    32
  0
VERTEX
  8
0
  5
3451
 10
120.545
 20
48.1069
 30
2.68763e-14
  70
    32
  0
VERTEX
  8
0
  5
3452
 10
120.478
 20
48.1069
 30
2.68615e-14
  70
    32
  0
VERTEX
  8
0
  5
3453
 10
120.411
 20
48.1069
 30
2.68467e-14
  70
    32
  0
VERTEX
  8
0
  5
3454
 10
120.344
 20
48.1069
 30
2.68319e-14
  70
    32
  0
VERTEX
  8
0
  5
3455
 10
120.278
 20
48.1069
 30
2.68171e-14
  70
    32
  0
VERTEX
  8
0
  5
3456
 10
120.211
 20
48.1069
 30
2.68023e-14
  70
    32
  0
VERTEX
  8
0
  5
3457
 10
120.144
 20
48.1069
 30
2.67909e-14
  70
    32
  0
VERTEX
  8
0
  5
3458
 10
120.077
 20
48.1069
 30
2.67794e-14
  70
    32
  0
VERTEX
  8
0
  5
3459
 10
120.009
 20
48.1069
 30
2.67672e-14
  70
    32
  0
VERTEX
  8
0
  5
345A
 10
119.941
 20
48.1069
 30
2.67544e-14
  70
    32
  0
VERTEX
  8
0
  5
345B
 10
119.872
 20
48.1069
 30
2.67410e-14
  70
    32
  0
VERTEX
  8
0
  5
345C
 10
119.803
 20
48.1069
 30
2.67271e-14
  70
    32
  0
VERTEX
  8
0
  5
345D
 10
119.733
 20
48.1069
 30
2.67126e-14
  70
    32
  0
VERTEX
  8
0
  5
345E
 10
119.663
 20
48.1069
 30
2.66977e-14
  70
    32
  0
VERTEX
  8
0
  5
345F
 10
119.593
 20
48.1069
 30
2.66823e-14
  70
    32
  0
VERTEX
  8
0
  5
3460
 10
119.522
 20
48.1069
 30
2.66665e-14
  70
    32
  0
VERTEX
  8
0
  5
3461
 10
119.451
 20
48.1069
 30
2.66504e-14
  70
    32
  0
VERTEX
  8
0
  5
3462
 10
119.379
 20
48.1069
 30
2.66340e-14
  70
    32
  0
VERTEX
  8
0
  5
3463
 10
119.307
 20
48.1069
 30
2.66172e-14
  70
    32
  0
VERTEX
  8
0
  5
3464
 10
119.234
 20
48.1069
 30
2.66002e-14
  70
    32
  0
VERTEX
  8
0
  5
3465
 10
119.161
 20
48.1069
 30
2.65830e-14
  70
    32
  0
VERTEX
  8
0
  5
3466
 10
119.087
 20
48.1069
 30
2.65657e-14
  70
    32
  0
VERTEX
  8
0
  5
3467
 10
119.013
 20
48.1069
 30
2.65482e-14
  70
    32
  0
VERTEX
  8
0
  5
3468
 10
118.938
 20
48.1069
 30
2.65306e-14
  70
    32
  0
VERTEX
  8
0
  5
3469
 10
118.863
 20
48.1069
 30
2.65129e-14
  70
    32
  0
VERTEX
  8
0
  5
346A
 10
118.787
 20
48.1069
 30
2.64953e-14
  70
    32
  0
VERTEX
  8
0
  5
346B
 10
118.711
 20
48.1069
 30
2.64776e-14
  70
    32
  0
VERTEX
  8
0
  5
346C
 10
118.634
 20
48.1069
 30
2.64601e-14
  70
    32
  0
VERTEX
  8
0
  5
346D
 10
118.557
 20
48.1069
 30
2.64426e-14
  70
    32
  0
VERTEX
  8
0
  5
346E
 10
118.479
 20
48.1069
 30
2.64252e-14
  70
    32
  0
VERTEX
  8
0
  5
346F
 10
118.401
 20
48.1069
 30
2.64081e-14
  70
    32
  0
VERTEX
  8
0
  5
3470
 10
118.322
 20
48.1069
 30
2.63911e-14
  70
    32
  0
VERTEX
  8
0
  5
3471
 10
118.242
 20
48.1069
 30
2.63744e-14
  70
    32
  0
VERTEX
  8
0
  5
3472
 10
118.162
 20
48.1069
 30
2.63580e-14
  70
    32
  0
VERTEX
  8
0
  5
3473
 10
118.082
 20
48.1069
 30
2.63417e-14
  70
    32
  0
VERTEX
  8
0
  5
3474
 10
118.000
 20
48.1069
 30
2.63226e-14
  70
    32
  0
VERTEX
  8
0
  5
3475
 10
117.916
 20
48.1069
 30
2.63006e-14
  70
    32
  0
VERTEX
  8
0
  5
3476
 10
117.831
 20
48.1069
 30
2.62765e-14
  70
    32
  0
VERTEX
  8
0
  5
3477
 10
117.743
 20
48.1069
 30
2.62510e-14
  70
    32
  0
VERTEX
  8
0
  5
3478
 10
117.654
 20
48.1069
 30
2.62250e-14
  70
    32
  0
VERTEX
  8
0
  5
3479
 10
117.564
 20
48.1069
 30
2.61990e-14
  70
    32
  0
VERTEX
  8
0
  5
347A
 10
117.471
 20
48.1069
 30
2.61740e-14
  70
    32
  0
VERTEX
  8
0
  5
347B
 10
117.376
 20
48.1069
 30
2.61506e-14
  70
    32
  0
VERTEX
  8
0
  5
347C
 10
117.280
 20
48.1069
 30
2.61295e-14
  70
    32
  0
VERTEX
  8
0
  5
347D
 10
117.190
 20
48.1068
 30
2.61106e-14
  70
    32
  0
VERTEX
  8
0
  5
347E
 10
117.108
 20
48.1068
 30
2.60935e-14
  70
    32
  0
VERTEX
  8
0
  5
347F
 10
117.033
 20
48.1067
 30
2.60782e-14
  70
    32
  0
VERTEX
  8
0
  5
3480
 10
116.965
 20
48.1066
 30
2.60645e-14
  70
    32
  0
VERTEX
  8
0
  5
3481
 10
116.903
 20
48.1066
 30
2.60523e-14
  70
    32
  0
VERTEX
  8
0
  5
3482
 10
116.846
 20
48.1065
 30
2.60414e-14
  70
    32
  0
VERTEX
  8
0
  5
3483
 10
116.795
 20
48.1066
 30
2.60317e-14
  70
    32
  0
VERTEX
  8
0
  5
3484
 10
116.748
 20
48.1066
 30
2.60230e-14
  70
    32
  0
VERTEX
  8
0
  5
3485
 10
116.705
 20
48.1068
 30
2.60153e-14
  70
    32
  0
VERTEX
  8
0
  5
3486
 10
116.666
 20
48.1070
 30
2.60083e-14
  70
    32
  0
VERTEX
  8
0
  5
3487
 10
116.629
 20
48.1074
 30
2.60019e-14
  70
    32
  0
VERTEX
  8
0
  5
3488
 10
116.596
 20
48.1078
 30
2.59961e-14
  70
    32
  0
VERTEX
  8
0
  5
3489
 10
116.564
 20
48.1084
 30
2.59905e-14
  70
    32
  0
VERTEX
  8
0
  5
348A
 10
116.533
 20
48.1091
 30
2.59852e-14
  70
    32
  0
VERTEX
  8
0
  5
348B
 10
116.503
 20
48.1100
 30
2.59799e-14
  70
    32
  0
VERTEX
  8
0
  5
348C
 10
116.474
 20
48.1110
 30
2.59746e-14
  70
    32
  0
VERTEX
  8
0
  5
348D
 10
116.445
 20
48.1122
 30
2.59690e-14
  70
    32
  0
VERTEX
  8
0
  5
348E
 10
116.414
 20
48.1136
 30
2.59631e-14
  70
    32
  0
VERTEX
  8
0
  5
348F
 10
116.383
 20
48.1152
 30
2.59567e-14
  70
    32
  0
VERTEX
  8
0
  5
3490
 10
116.350
 20
48.1171
 30
2.59498e-14
  70
    32
  0
VERTEX
  8
0
  5
3491
 10
116.317
 20
48.1191
 30
2.59427e-14
  70
    32
  0
VERTEX
  8
0
  5
3492
 10
116.284
 20
48.1213
 30
2.59355e-14
  70
    32
  0
VERTEX
  8
0
  5
3493
 10
116.251
 20
48.1237
 30
2.59283e-14
  70
    32
  0
VERTEX
  8
0
  5
3494
 10
116.217
 20
48.1263
 30
2.59210e-14
  70
    32
  0
VERTEX
  8
0
  5
3495
 10
116.184
 20
48.1291
 30
2.59136e-14
  70
    32
  0
VERTEX
  8
0
  5
3496
 10
116.150
 20
48.1321
 30
2.59062e-14
  70
    32
  0
VERTEX
  8
0
  5
3497
 10
116.116
 20
48.1352
 30
2.58988e-14
  70
    32
  0
VERTEX
  8
0
  5
3498
 10
116.083
 20
48.1386
 30
2.58913e-14
  70
    32
  0
VERTEX
  8
0
  5
3499
 10
116.049
 20
48.1421
 30
2.58837e-14
  70
    32
  0
VERTEX
  8
0
  5
349A
 10
116.015
 20
48.1459
 30
2.58761e-14
  70
    32
  0
VERTEX
  8
0
  5
349B
 10
115.981
 20
48.1499
 30
2.58685e-14
  70
    32
  0
VERTEX
  8
0
  5
349C
 10
115.947
 20
48.1540
 30
2.58608e-14
  70
    32
  0
VERTEX
  8
0
  5
349D
 10
115.913
 20
48.1584
 30
2.58530e-14
  70
    32
  0
VERTEX
  8
0
  5
349E
 10
115.879
 20
48.1630
 30
2.58452e-14
  70
    32
  0
VERTEX
  8
0
  5
349F
 10
115.845
 20
48.1678
 30
2.58374e-14
  70
    32
  0
VERTEX
  8
0
  5
34A0
 10
115.811
 20
48.1727
 30
2.58296e-14
  70
    32
  0
VERTEX
  8
0
  5
34A1
 10
115.777
 20
48.1779
 30
2.58217e-14
  70
    32
  0
VERTEX
  8
0
  5
34A2
 10
115.742
 20
48.1834
 30
2.58137e-14
  70
    32
  0
VERTEX
  8
0
  5
34A3
 10
115.708
 20
48.1890
 30
2.58058e-14
  70
    32
  0
VERTEX
  8
0
  5
34A4
 10
115.674
 20
48.1948
 30
2.57978e-14
  70
    32
  0
VERTEX
  8
0
  5
34A5
 10
115.639
 20
48.2009
 30
2.57897e-14
  70
    32
  0
VERTEX
  8
0
  5
34A6
 10
115.605
 20
48.2072
 30
2.57817e-14
  70
    32
  0
VERTEX
  8
0
  5
34A7
 10
115.570
 20
48.2137
 30
2.57736e-14
  70
    32
  0
VERTEX
  8
0
  5
34A8
 10
115.535
 20
48.2204
 30
2.57655e-14
  70
    32
  0
VERTEX
  8
0
  5
34A9
 10
115.501
 20
48.2274
 30
2.57574e-14
  70
    32
  0
VERTEX
  8
0
  5
34AA
 10
115.466
 20
48.2345
 30
2.57493e-14
  70
    32
  0
VERTEX
  8
0
  5
34AB
 10
115.431
 20
48.2419
 30
2.57411e-14
  70
    32
  0
VERTEX
  8
0
  5
34AC
 10
115.396
 20
48.2496
 30
2.57329e-14
  70
    32
  0
VERTEX
  8
0
  5
34AD
 10
115.361
 20
48.2574
 30
2.57247e-14
  70
    32
  0
VERTEX
  8
0
  5
34AE
 10
115.326
 20
48.2655
 30
2.57165e-14
  70
    32
  0
VERTEX
  8
0
  5
34AF
 10
115.291
 20
48.2739
 30
2.57083e-14
  70
    32
  0
VERTEX
  8
0
  5
34B0
 10
115.256
 20
48.2825
 30
2.57001e-14
  70
    32
  0
VERTEX
  8
0
  5
34B1
 10
115.221
 20
48.2913
 30
2.56919e-14
  70
    32
  0
VERTEX
  8
0
  5
34B2
 10
115.186
 20
48.3003
 30
2.56836e-14
  70
    32
  0
VERTEX
  8
0
  5
34B3
 10
115.151
 20
48.3096
 30
2.56754e-14
  70
    32
  0
VERTEX
  8
0
  5
34B4
 10
115.116
 20
48.3191
 30
2.56671e-14
  70
    32
  0
VERTEX
  8
0
  5
34B5
 10
115.080
 20
48.3289
 30
2.56589e-14
  70
    32
  0
VERTEX
  8
0
  5
34B6
 10
115.045
 20
48.3389
 30
2.56506e-14
  70
    32
  0
VERTEX
  8
0
  5
34B7
 10
115.010
 20
48.3492
 30
2.56424e-14
  70
    32
  0
VERTEX
  8
0
  5
34B8
 10
114.974
 20
48.3597
 30
2.56342e-14
  70
    32
  0
VERTEX
  8
0
  5
34B9
 10
114.939
 20
48.3705
 30
2.56259e-14
  70
    32
  0
VERTEX
  8
0
  5
34BA
 10
114.903
 20
48.3815
 30
2.56177e-14
  70
    32
  0
VERTEX
  8
0
  5
34BB
 10
114.868
 20
48.3928
 30
2.56095e-14
  70
    32
  0
VERTEX
  8
0
  5
34BC
 10
114.832
 20
48.4044
 30
2.56013e-14
  70
    32
  0
VERTEX
  8
0
  5
34BD
 10
114.797
 20
48.4162
 30
2.55931e-14
  70
    32
  0
VERTEX
  8
0
  5
34BE
 10
114.761
 20
48.4282
 30
2.55850e-14
  70
    32
  0
VERTEX
  8
0
  5
34BF
 10
114.726
 20
48.4405
 30
2.55768e-14
  70
    32
  0
VERTEX
  8
0
  5
34C0
 10
114.690
 20
48.4531
 30
2.55687e-14
  70
    32
  0
VERTEX
  8
0
  5
34C1
 10
114.654
 20
48.4660
 30
2.55606e-14
  70
    32
  0
VERTEX
  8
0
  5
34C2
 10
114.619
 20
48.4791
 30
2.55525e-14
  70
    32
  0
VERTEX
  8
0
  5
34C3
 10
114.583
 20
48.4925
 30
2.55444e-14
  70
    32
  0
VERTEX
  8
0
  5
34C4
 10
114.547
 20
48.5061
 30
2.55364e-14
  70
    32
  0
VERTEX
  8
0
  5
34C5
 10
114.511
 20
48.5200
 30
2.55284e-14
  70
    32
  0
VERTEX
  8
0
  5
34C6
 10
114.476
 20
48.5342
 30
2.55204e-14
  70
    32
  0
VERTEX
  8
0
  5
34C7
 10
114.440
 20
48.5487
 30
2.55125e-14
  70
    32
  0
VERTEX
  8
0
  5
34C8
 10
114.404
 20
48.5635
 30
2.55046e-14
  70
    32
  0
VERTEX
  8
0
  5
34C9
 10
114.368
 20
48.5785
 30
2.54967e-14
  70
    32
  0
VERTEX
  8
0
  5
34CA
 10
114.332
 20
48.5938
 30
2.54888e-14
  70
    32
  0
VERTEX
  8
0
  5
34CB
 10
114.296
 20
48.6094
 30
2.54810e-14
  70
    32
  0
VERTEX
  8
0
  5
34CC
 10
114.260
 20
48.6253
 30
2.54733e-14
  70
    32
  0
VERTEX
  8
0
  5
34CD
 10
114.225
 20
48.6414
 30
2.54656e-14
  70
    32
  0
VERTEX
  8
0
  5
34CE
 10
114.189
 20
48.6579
 30
2.54579e-14
  70
    32
  0
VERTEX
  8
0
  5
34CF
 10
114.153
 20
48.6746
 30
2.54503e-14
  70
    32
  0
VERTEX
  8
0
  5
34D0
 10
114.117
 20
48.6917
 30
2.54427e-14
  70
    32
  0
VERTEX
  8
0
  5
34D1
 10
114.081
 20
48.7090
 30
2.54351e-14
  70
    32
  0
VERTEX
  8
0
  5
34D2
 10
114.045
 20
48.7266
 30
2.54276e-14
  70
    32
  0
VERTEX
  8
0
  5
34D3
 10
114.009
 20
48.7445
 30
2.54198e-14
  70
    32
  0
VERTEX
  8
0
  5
34D4
 10
113.973
 20
48.7627
 30
2.54120e-14
  70
    32
  0
VERTEX
  8
0
  5
34D5
 10
113.937
 20
48.7812
 30
2.54041e-14
  70
    32
  0
VERTEX
  8
0
  5
34D6
 10
113.901
 20
48.8000
 30
2.53960e-14
  70
    32
  0
VERTEX
  8
0
  5
34D7
 10
113.865
 20
48.8191
 30
2.53878e-14
  70
    32
  0
VERTEX
  8
0
  5
34D8
 10
113.829
 20
48.8384
 30
2.53796e-14
  70
    32
  0
VERTEX
  8
0
  5
34D9
 10
113.793
 20
48.8581
 30
2.53713e-14
  70
    32
  0
VERTEX
  8
0
  5
34DA
 10
113.757
 20
48.8781
 30
2.53629e-14
  70
    32
  0
VERTEX
  8
0
  5
34DB
 10
113.721
 20
48.8984
 30
2.53544e-14
  70
    32
  0
VERTEX
  8
0
  5
34DC
 10
113.685
 20
48.9191
 30
2.53458e-14
  70
    32
  0
VERTEX
  8
0
  5
34DD
 10
113.650
 20
48.9400
 30
2.53372e-14
  70
    32
  0
VERTEX
  8
0
  5
34DE
 10
113.614
 20
48.9612
 30
2.53285e-14
  70
    32
  0
VERTEX
  8
0
  5
34DF
 10
113.578
 20
48.9828
 30
2.53197e-14
  70
    32
  0
VERTEX
  8
0
  5
34E0
 10
113.542
 20
49.0047
 30
2.53110e-14
  70
    32
  0
VERTEX
  8
0
  5
34E1
 10
113.507
 20
49.0269
 30
2.53021e-14
  70
    32
  0
VERTEX
  8
0
  5
34E2
 10
113.471
 20
49.0494
 30
2.52932e-14
  70
    32
  0
VERTEX
  8
0
  5
34E3
 10
113.435
 20
49.0722
 30
2.52843e-14
  70
    32
  0
VERTEX
  8
0
  5
34E4
 10
113.400
 20
49.0954
 30
2.52754e-14
  70
    32
  0
VERTEX
  8
0
  5
34E5
 10
113.365
 20
49.1189
 30
2.52665e-14
  70
    32
  0
VERTEX
  8
0
  5
34E6
 10
113.329
 20
49.1427
 30
2.52575e-14
  70
    32
  0
VERTEX
  8
0
  5
34E7
 10
113.294
 20
49.1669
 30
2.52485e-14
  70
    32
  0
VERTEX
  8
0
  5
34E8
 10
113.258
 20
49.1914
 30
2.52396e-14
  70
    32
  0
VERTEX
  8
0
  5
34E9
 10
113.223
 20
49.2162
 30
2.52306e-14
  70
    32
  0
VERTEX
  8
0
  5
34EA
 10
113.188
 20
49.2414
 30
2.52216e-14
  70
    32
  0
VERTEX
  8
0
  5
34EB
 10
113.153
 20
49.2669
 30
2.52127e-14
  70
    32
  0
VERTEX
  8
0
  5
34EC
 10
113.118
 20
49.2927
 30
2.52037e-14
  70
    32
  0
VERTEX
  8
0
  5
34ED
 10
113.083
 20
49.3189
 30
2.51948e-14
  70
    32
  0
VERTEX
  8
0
  5
34EE
 10
113.048
 20
49.3455
 30
2.51860e-14
  70
    32
  0
VERTEX
  8
0
  5
34EF
 10
113.013
 20
49.3724
 30
2.51771e-14
  70
    32
  0
VERTEX
  8
0
  5
34F0
 10
112.979
 20
49.3996
 30
2.51683e-14
  70
    32
  0
VERTEX
  8
0
  5
34F1
 10
112.944
 20
49.4272
 30
2.51596e-14
  70
    32
  0
VERTEX
  8
0
  5
34F2
 10
112.910
 20
49.4551
 30
2.51509e-14
  70
    32
  0
VERTEX
  8
0
  5
34F3
 10
112.875
 20
49.4834
 30
2.51422e-14
  70
    32
  0
VERTEX
  8
0
  5
34F4
 10
112.841
 20
49.5121
 30
2.51337e-14
  70
    32
  0
VERTEX
  8
0
  5
34F5
 10
112.806
 20
49.5411
 30
2.51252e-14
  70
    32
  0
VERTEX
  8
0
  5
34F6
 10
112.772
 20
49.5705
 30
2.51167e-14
  70
    32
  0
VERTEX
  8
0
  5
34F7
 10
112.738
 20
49.6003
 30
2.51084e-14
  70
    32
  0
VERTEX
  8
0
  5
34F8
 10
112.704
 20
49.6304
 30
2.51001e-14
  70
    32
  0
VERTEX
  8
0
  5
34F9
 10
112.671
 20
49.6609
 30
2.50920e-14
  70
    32
  0
VERTEX
  8
0
  5
34FA
 10
112.637
 20
49.6917
 30
2.50839e-14
  70
    32
  0
VERTEX
  8
0
  5
34FB
 10
112.603
 20
49.7230
 30
2.50759e-14
  70
    32
  0
VERTEX
  8
0
  5
34FC
 10
112.570
 20
49.7546
 30
2.50681e-14
  70
    32
  0
VERTEX
  8
0
  5
34FD
 10
112.536
 20
49.7865
 30
2.50603e-14
  70
    32
  0
VERTEX
  8
0
  5
34FE
 10
112.503
 20
49.8189
 30
2.50527e-14
  70
    32
  0
VERTEX
  8
0
  5
34FF
 10
112.470
 20
49.8516
 30
2.50452e-14
  70
    32
  0
VERTEX
  8
0
  5
3500
 10
112.437
 20
49.8848
 30
2.50379e-14
  70
    32
  0
VERTEX
  8
0
  5
3501
 10
112.404
 20
49.9183
 30
2.50307e-14
  70
    32
  0
VERTEX
  8
0
  5
3502
 10
112.371
 20
49.9522
 30
2.50236e-14
  70
    32
  0
VERTEX
  8
0
  5
3503
 10
112.339
 20
49.9864
 30
2.50167e-14
  70
    32
  0
VERTEX
  8
0
  5
3504
 10
112.306
 20
50.0211
 30
2.50099e-14
  70
    32
  0
VERTEX
  8
0
  5
3505
 10
112.274
 20
50.0562
 30
2.50033e-14
  70
    32
  0
VERTEX
  8
0
  5
3506
 10
112.242
 20
50.0916
 30
2.49968e-14
  70
    32
  0
VERTEX
  8
0
  5
3507
 10
112.210
 20
50.1275
 30
2.49906e-14
  70
    32
  0
VERTEX
  8
0
  5
3508
 10
112.178
 20
50.1638
 30
2.49844e-14
  70
    32
  0
VERTEX
  8
0
  5
3509
 10
112.146
 20
50.2004
 30
2.49783e-14
  70
    32
  0
VERTEX
  8
0
  5
350A
 10
112.115
 20
50.2375
 30
2.49721e-14
  70
    32
  0
VERTEX
  8
0
  5
350B
 10
112.083
 20
50.2749
 30
2.49658e-14
  70
    32
  0
VERTEX
  8
0
  5
350C
 10
112.052
 20
50.3128
 30
2.49596e-14
  70
    32
  0
VERTEX
  8
0
  5
350D
 10
112.021
 20
50.3510
 30
2.49533e-14
  70
    32
  0
VERTEX
  8
0
  5
350E
 10
111.990
 20
50.3897
 30
2.49471e-14
  70
    32
  0
VERTEX
  8
0
  5
350F
 10
111.960
 20
50.4287
 30
2.49408e-14
  70
    32
  0
VERTEX
  8
0
  5
3510
 10
111.929
 20
50.4682
 30
2.49345e-14
  70
    32
  0
VERTEX
  8
0
  5
3511
 10
111.899
 20
50.5081
 30
2.49282e-14
  70
    32
  0
VERTEX
  8
0
  5
3512
 10
111.869
 20
50.5484
 30
2.49219e-14
  70
    32
  0
VERTEX
  8
0
  5
3513
 10
111.839
 20
50.5891
 30
2.49156e-14
  70
    32
  0
VERTEX
  8
0
  5
3514
 10
111.810
 20
50.6302
 30
2.49093e-14
  70
    32
  0
VERTEX
  8
0
  5
3515
 10
111.780
 20
50.6717
 30
2.49031e-14
  70
    32
  0
VERTEX
  8
0
  5
3516
 10
111.751
 20
50.7136
 30
2.48968e-14
  70
    32
  0
VERTEX
  8
0
  5
3517
 10
111.723
 20
50.7560
 30
2.48906e-14
  70
    32
  0
VERTEX
  8
0
  5
3518
 10
111.694
 20
50.7988
 30
2.48844e-14
  70
    32
  0
VERTEX
  8
0
  5
3519
 10
111.666
 20
50.8420
 30
2.48783e-14
  70
    32
  0
VERTEX
  8
0
  5
351A
 10
111.638
 20
50.8856
 30
2.48721e-14
  70
    32
  0
VERTEX
  8
0
  5
351B
 10
111.610
 20
50.9296
 30
2.48661e-14
  70
    32
  0
VERTEX
  8
0
  5
351C
 10
111.582
 20
50.9741
 30
2.48600e-14
  70
    32
  0
VERTEX
  8
0
  5
351D
 10
111.555
 20
51.0190
 30
2.48540e-14
  70
    32
  0
VERTEX
  8
0
  5
351E
 10
111.528
 20
51.0644
 30
2.48480e-14
  70
    32
  0
VERTEX
  8
0
  5
351F
 10
111.501
 20
51.1101
 30
2.48422e-14
  70
    32
  0
VERTEX
  8
0
  5
3520
 10
111.475
 20
51.1563
 30
2.48363e-14
  70
    32
  0
VERTEX
  8
0
  5
3521
 10
111.449
 20
51.2030
 30
2.48305e-14
  70
    32
  0
VERTEX
  8
0
  5
3522
 10
111.423
 20
51.2500
 30
2.48248e-14
  70
    32
  0
VERTEX
  8
0
  5
3523
 10
111.398
 20
51.2976
 30
2.48192e-14
  70
    32
  0
VERTEX
  8
0
  5
3524
 10
111.373
 20
51.3455
 30
2.48136e-14
  70
    32
  0
VERTEX
  8
0
  5
3525
 10
111.348
 20
51.3939
 30
2.48081e-14
  70
    32
  0
VERTEX
  8
0
  5
3526
 10
111.324
 20
51.4427
 30
2.48027e-14
  70
    32
  0
VERTEX
  8
0
  5
3527
 10
111.300
 20
51.4920
 30
2.47974e-14
  70
    32
  0
VERTEX
  8
0
  5
3528
 10
111.276
 20
51.5417
 30
2.47921e-14
  70
    32
  0
VERTEX
  8
0
  5
3529
 10
111.252
 20
51.5919
 30
2.47870e-14
  70
    32
  0
VERTEX
  8
0
  5
352A
 10
111.229
 20
51.6425
 30
2.47819e-14
  70
    32
  0
VERTEX
  8
0
  5
352B
 10
111.207
 20
51.6936
 30
2.47770e-14
  70
    32
  0
VERTEX
  8
0
  5
352C
 10
111.184
 20
51.7452
 30
2.47722e-14
  70
    32
  0
VERTEX
  8
0
  5
352D
 10
111.163
 20
51.7971
 30
2.47674e-14
  70
    32
  0
VERTEX
  8
0
  5
352E
 10
111.141
 20
51.8496
 30
2.47628e-14
  70
    32
  0
VERTEX
  8
0
  5
352F
 10
111.120
 20
51.9025
 30
2.47583e-14
  70
    32
  0
VERTEX
  8
0
  5
3530
 10
111.099
 20
51.9558
 30
2.47539e-14
  70
    32
  0
VERTEX
  8
0
  5
3531
 10
111.079
 20
52.0097
 30
2.47497e-14
  70
    32
  0
VERTEX
  8
0
  5
3532
 10
111.059
 20
52.0639
 30
2.47456e-14
  70
    32
  0
VERTEX
  8
0
  5
3533
 10
111.039
 20
52.1187
 30
2.47416e-14
  70
    32
  0
VERTEX
  8
0
  5
3534
 10
111.020
 20
52.1739
 30
2.47378e-14
  70
    32
  0
VERTEX
  8
0
  5
3535
 10
111.002
 20
52.2296
 30
2.47342e-14
  70
    32
  0
VERTEX
  8
0
  5
3536
 10
110.983
 20
52.2857
 30
2.47309e-14
  70
    32
  0
VERTEX
  8
0
  5
3537
 10
110.966
 20
52.3423
 30
2.47278e-14
  70
    32
  0
VERTEX
  8
0
  5
3538
 10
110.948
 20
52.3993
 30
2.47250e-14
  70
    32
  0
VERTEX
  8
0
  5
3539
 10
110.932
 20
52.4568
 30
2.47223e-14
  70
    32
  0
VERTEX
  8
0
  5
353A
 10
110.915
 20
52.5147
 30
2.47198e-14
  70
    32
  0
VERTEX
  8
0
  5
353B
 10
110.899
 20
52.5731
 30
2.47175e-14
  70
    32
  0
VERTEX
  8
0
  5
353C
 10
110.884
 20
52.6319
 30
2.47154e-14
  70
    32
  0
VERTEX
  8
0
  5
353D
 10
110.869
 20
52.6912
 30
2.47135e-14
  70
    32
  0
VERTEX
  8
0
  5
353E
 10
110.855
 20
52.7509
 30
2.47117e-14
  70
    32
  0
VERTEX
  8
0
  5
353F
 10
110.841
 20
52.8111
 30
2.47101e-14
  70
    32
  0
VERTEX
  8
0
  5
3540
 10
110.828
 20
52.8717
 30
2.47087e-14
  70
    32
  0
VERTEX
  8
0
  5
3541
 10
110.816
 20
52.9327
 30
2.47074e-14
  70
    32
  0
VERTEX
  8
0
  5
3542
 10
110.804
 20
52.9942
 30
2.47062e-14
  70
    32
  0
VERTEX
  8
0
  5
3543
 10
110.792
 20
53.0562
 30
2.47052e-14
  70
    32
  0
VERTEX
  8
0
  5
3544
 10
110.782
 20
53.1186
 30
2.47043e-14
  70
    32
  0
VERTEX
  8
0
  5
3545
 10
110.771
 20
53.1814
 30
2.47035e-14
  70
    32
  0
VERTEX
  8
0
  5
3546
 10
110.762
 20
53.2447
 30
2.47028e-14
  70
    32
  0
VERTEX
  8
0
  5
3547
 10
110.753
 20
53.3084
 30
2.47022e-14
  70
    32
  0
VERTEX
  8
0
  5
3548
 10
110.745
 20
53.3725
 30
2.47017e-14
  70
    32
  0
VERTEX
  8
0
  5
3549
 10
110.737
 20
53.4371
 30
2.47013e-14
  70
    32
  0
VERTEX
  8
0
  5
354A
 10
110.730
 20
53.5022
 30
2.47009e-14
  70
    32
  0
VERTEX
  8
0
  5
354B
 10
110.724
 20
53.5676
 30
2.47006e-14
  70
    32
  0
VERTEX
  8
0
  5
354C
 10
110.719
 20
53.6335
 30
2.47004e-14
  70
    32
  0
VERTEX
  8
0
  5
354D
 10
110.714
 20
53.6998
 30
2.47003e-14
  70
    32
  0
VERTEX
  8
0
  5
354E
 10
110.710
 20
53.7666
 30
2.47002e-14
  70
    32
  0
VERTEX
  8
0
  5
354F
 10
110.706
 20
53.8338
 30
2.47001e-14
  70
    32
  0
VERTEX
  8
0
  5
3550
 10
110.704
 20
53.9014
 30
2.47000e-14
  70
    32
  0
VERTEX
  8
0
  5
3551
 10
110.702
 20
53.9695
 30
2.47000e-14
  70
    32
  0
VERTEX
  8
0
  5
3552
 10
110.701
 20
54.0379
 30
2.47000e-14
  70
    32
  0
VERTEX
  8
0
  5
3553
 10
110.700
 20
54.1069
 30
2.47000e-14
  70
    32
  0
SEQEND
  8
0
  5
3554
  0
LINE
  5
27AA
  8
0
  6
CONTINUOUS
 62
     3
 10
91.9541270394611985
 20
24.1068579008937505
 30
0.0
 11
143.1503513623862034
 21
24.1068579008937505
 31
0.0000000000000114
  0
LINE
  5
27AB
  8
0
  6
CONTINUOUS
 62
     3
 10
143.1503513623862034
 20
24.1068579008937505
 30
0.0000000000000568
 11
143.1503513623862034
 21
84.1068579008937576
 31
0.0000000000000568
  0
ARC
  5
27AC
  8
0
  6
VERDECKT
 62
     1
 10
22.1257652260047308
 20
54.1068560156147882
 30
0.0
 40
68.0000000000004547
 50
153.8210295259056011
 51
206.1789669339300985
  0
LINE
  5
27AD
  8
0
  6
VERDECKT
 62
     1
 10
-47.7025949675275172
 20
84.1068579008937434
 30
0.0
 11
-38.8988190567524015
 21
84.1068579008937434
 31
0.000000000000002
  0
LINE
  5
27AE
  8
0
  6
VERDECKT
 62
     1
 10
-38.8988209103780918
 20
24.1068579008937505
 30
0.0
 11
-47.7025965874531011
 21
24.1068579008937505
 31
-0.000000000000002
  0
CIRCLE
  5
27AF
  8
0
  6
VERDECKT
 62
     1
 10
22.1257652260038213
 20
54.1068560156145679
 30
0.0
 40
65.5
  0
CIRCLE
  5
27B0
  8
0
  6
VERDECKT
 62
     1
 10
22.1257652260040416
 20
54.1068560156145892
 30
0.0
 40
66.4999999999997726
  0
CIRCLE
  5
27B1
  8
0
  6
VERDECKT
 62
     1
 10
22.1257652260040487
 20
54.1068560156146035
 30
0.0
 40
71.4999999999997726
  0
CIRCLE
  5
27B2
  8
0
  6
VERDECKT
 62
     1
 10
22.1257652260040594
 20
54.1068560156146035
 30
0.0
 40
73.4999999999997726
  0
ARC
  5
27B3
  8
0
  6
VERDECKT
 62
     1
 10
22.1257652260033701
 20
54.1068560156147882
 30
0.0
 40
68.0000000000004547
 50
333.8210330660697878
 51
26.1789704740943492
  0
LINE
  5
27B4
  8
0
  6
VERDECKT
 62
     1
 10
91.9541254195356288
 20
84.1068579008937434
 30
0.0
 11
83.1503495087604989
 21
84.1068579008937434
 31
-0.000000000000002
  0
LINE
  5
27B5
  8
0
  6
VERDECKT
 62
     1
 10
83.150351362386175
 20
24.1068579008937505
 30
0.0
 11
91.9541270394611985
 21
24.1068579008937505
 31
0.000000000000002
  0
ENDBLK
  5
27B7
  8
0
  0
ENDSEC
  0
SECTION
  2
ENTITIES
  0
INSERT
  5
440
  8
ADSK_ASSOC_ENTITY_BACKUPS
  2
*S3
 10
0.0
 20
0.0
 30
0.0
  0
INSERT
  5
279B
  8
HILF
  2
A$CDE08B346
 10
-7.7318708659406097
 20
253.7564308415510936
 30
0.0
  0
INSERT
  5
27B8
  8
HILF
  2
A$C03360F7E
 10
-7.7318708659408344
 20
131.232109758083908
 30
-0.000000000000016
  0
VIEWPORT
  5
34F
 67
     1
  8
0
 10
394.7497393683825067
 20
189.8503415883209868
 30
0.0
 40
1212.7536724255719491
 41
685.9933831960120187
 68
     1
 69
     1
1001
ACAD
1000
MVIEW
1002
{
1070
    16
1010
0.0
1020
0.0
1030
0.0
1010
0.0
1020
0.0
1030
1.0
1040
0.0
1040
685.9933831960120187
1040
394.7497393683825067
1040
189.8503415883209868
1040
50.0
1040
0.0
1040
0.0
1070
     0
1070
  1500
1070
     1
1070
     1
1070
     0
1070
     0
1070
     0
1070
     0
1040
0.0
1040
0.0
1040
0.0
1040
10.0
1040
10.0
1040
10.0
1040
10.0
1070
     0
1002
{
1002
}
1002
}
  0
ENDSEC
  0
EOF
