  0
SECTION
  2
HEADER
  9
$ACADVER
  1
AC1009
  9
$INSBASE
 10
0.0
 20
0.0
 30
0.0
  9
$EXTMIN
 10
-301.0549108022726728
 20
-36.8930918040083711
 30
-0.0000000000000627
  9
$EXTMAX
 10
126.8178285839776009
 20
460.7894141562762229
 30
401.6933496253768112
  9
$LIMMIN
 10
0.0
 20
0.0
  9
$LIMMAX
 10
210.0
 20
297.0
  9
$ORTHOMODE
 70
     1
  9
$REGENMODE
 70
     1
  9
$FILLMODE
 70
     1
  9
$QTEXTMODE
 70
     0
  9
$MIRRTEXT
 70
     1
  9
$DRAGMODE
 70
     2
  9
$LTSCALE
 40
10.0
  9
$OSMODE
 70
    39
  9
$ATTMODE
 70
     1
  9
$TEXTSIZE
 40
3.5
  9
$TRACEWID
 40
0.5
  9
$TEXTSTYLE
  7
STANDARD
  9
$CLAYER
  8
VOLL
  9
$CELTYPE
  6
BYLAYER
  9
$CECOLOR
 62
   256
  9
$DIMSCALE
 40
1.0
  9
$DIMASZ
 40
3.5
  9
$DIMEXO
 40
1.0
  9
$DIMDLI
 40
7.0
  9
$DIMRND
 40
0.0
  9
$DIMDLE
 40
0.0
  9
$DIMEXE
 40
1.0
  9
$DIMTP
 40
0.0
  9
$DIMTM
 40
0.0
  9
$DIMTXT
 40
3.5
  9
$DIMCEN
 40
1.5
  9
$DIMTSZ
 40
0.0
  9
$DIMTOL
 70
     0
  9
$DIMLIM
 70
     0
  9
$DIMTIH
 70
     0
  9
$DIMTOH
 70
     0
  9
$DIMSE1
 70
     0
  9
$DIMSE2
 70
     0
  9
$DIMTAD
 70
     1
  9
$DIMZIN
 70
     8
  9
$DIMBLK
  1

  9
$DIMASO
 70
     1
  9
$DIMSHO
 70
     0
  9
$DIMPOST
  1

  9
$DIMAPOST
  1

  9
$DIMALT
 70
     0
  9
$DIMALTD
 70
     2
  9
$DIMALTF
 40
25.3999999999999986
  9
$DIMLFAC
 40
1.0
  9
$DIMTOFL
 70
     1
  9
$DIMTVP
 40
0.0
  9
$DIMTIX
 70
     0
  9
$DIMSOXD
 70
     0
  9
$DIMSAH
 70
     0
  9
$DIMBLK1
  1

  9
$DIMBLK2
  1

  9
$DIMSTYLE
  2
STANDARD
  9
$DIMCLRD
 70
     0
  9
$DIMCLRE
 70
     0
  9
$DIMCLRT
 70
     1
  9
$DIMTFAC
 40
0.5142857142857143
  9
$DIMGAP
 40
1.5
  9
$LUNITS
 70
     2
  9
$LUPREC
 70
     2
  9
$SKETCHINC
 40
1.0
  9
$FILLETRAD
 40
10.0
  9
$AUNITS
 70
     1
  9
$AUPREC
 70
     3
  9
$MENU
  1
ACAD
  9
$ELEVATION
 40
0.0
  9
$PELEVATION
 40
0.0
  9
$THICKNESS
 40
0.0
  9
$LIMCHECK
 70
     0
  9
$BLIPMODE
 70
     0
  9
$CHAMFERA
 40
0.0
  9
$CHAMFERB
 40
0.0
  9
$SKPOLY
 70
     0
  9
$TDCREATE
 40
2452040.6370949079282582
  9
$TDUPDATE
 40
2460556.2876388891600072
  9
$TDINDWG
 40
0.8754810763999999
  9
$TDUSRTIMER
 40
0.8754810763999999
  9
$USRTIMER
 70
     1
  9
$ANGBASE
 50
0.0
  9
$ANGDIR
 70
     0
  9
$PDMODE
 70
     0
  9
$PDSIZE
 40
0.0
  9
$PLINEWID
 40
0.0
  9
$COORDS
 70
     1
  9
$SPLFRAME
 70
     0
  9
$SPLINETYPE
 70
     6
  9
$SPLINESEGS
 70
     8
  9
$ATTDIA
 70
     1
  9
$ATTREQ
 70
     1
  9
$HANDLING
 70
     1
  9
$HANDSEED
  5
3CCD
  9
$SURFTAB1
 70
     6
  9
$SURFTAB2
 70
     6
  9
$SURFTYPE
 70
     6
  9
$SURFU
 70
     6
  9
$SURFV
 70
     6
  9
$UCSNAME
  2

  9
$UCSORG
 10
0.0
 20
0.0
 30
0.0
  9
$UCSXDIR
 10
1.0
 20
0.0
 30
0.0
  9
$UCSYDIR
 10
0.0
 20
1.0
 30
0.0
  9
$PUCSNAME
  2

  9
$PUCSORG
 10
0.0
 20
0.0
 30
0.0
  9
$PUCSXDIR
 10
1.0
 20
0.0
 30
0.0
  9
$PUCSYDIR
 10
0.0
 20
1.0
 30
0.0
  9
$USERI1
 70
     0
  9
$USERI2
 70
     0
  9
$USERI3
 70
     0
  9
$USERI4
 70
     0
  9
$USERI5
 70
     0
  9
$USERR1
 40
0.0
  9
$USERR2
 40
0.0
  9
$USERR3
 40
0.0
  9
$USERR4
 40
0.0
  9
$USERR5
 40
0.0
  9
$WORLDVIEW
 70
     1
  9
$SHADEDGE
 70
     3
  9
$SHADEDIF
 70
    70
  9
$TILEMODE
 70
     1
  9
$MAXACTVP
 70
    16
  9
$PLIMCHECK
 70
     0
  9
$PEXTMIN
 10
0.6744817614162458
 20
4.7881895516272834
 30
-814.3662820662655122
  9
$PEXTMAX
 10
291.638034469731906
 20
416.2700387297579141
 30
0.0374037586766463
  9
$PLIMMIN
 10
-2.2387790453608432
 20
1.2766717379595169
  9
$PLIMMAX
 10
294.687215827685975
 20
421.2233270113969752
  9
$UNITMODE
 70
     0
  9
$VISRETAIN
 70
     0
  9
$PLINEGEN
 70
     0
  9
$PSLTSCALE
 70
     0
  0
ENDSEC
  0
SECTION
  2
TABLES
  0
TABLE
  2
VPORT
 70
     1
  0
VPORT
  2
*ACTIVE
 70
     0
 10
0.0
 20
0.0
 11
1.0
 21
1.0
 12
0.0
 22
0.0
 13
0.0
 23
0.0
 14
1.0
 24
1.0
 15
10.0
 25
10.0
 16
-0.0000000000005116
 26
0.0
 36
2237.36297376325183
 17
70.6562142523437302
 27
211.7061123585386895
 37
200.8466796875
 40
756.0894151875418174
 41
2.02981029810298
 42
50.0
 43
0.0
 44
0.0
 50
0.0
 51
0.0
 71
     0
 72
  1500
 73
     1
 74
     0
 75
     0
 76
     0
 77
     0
 78
     0
  0
ENDTAB
  0
TABLE
  2
LTYPE
 70
    32
  0
LTYPE
  2
CONTINUOUS
 70
     0
  3
Solid line
 72
    65
 73
     0
 40
0.0
  0
LTYPE
  2
VERDECKT2
 70
     0
  3
Verdeckt (.5x) _ _ _ _ _ _ _ _ _ _ _ _ _ _ _ _ 
 72
    65
 73
     2
 40
0.1875
 49
0.125
 49
-0.0625
  0
ENDTAB
  0
TABLE
  2
LAYER
 70
    30
  0
LAYER
  2
0
 70
     0
 62
     7
  6
CONTINUOUS
  0
LAYER
  2
VOLL
 70
     0
 62
     1
  6
CONTINUOUS
  0
LAYER
  2
DEFPOINTS
 70
     0
 62
     7
  6
CONTINUOUS
  0
LAYER
  2
ADSK_ASSOC_ENTITY_BACKUPS
 70
     1
 62
    -7
  6
CONTINUOUS
  0
ENDTAB
  0
TABLE
  2
STYLE
 70
    12
  0
STYLE
  2
STANDARD
 70
     0
 40
0.0
 41
0.8
 50
0.0
 71
     0
 42
3.5
  3
simplex.shx
  4

  0
ENDTAB
  0
TABLE
  2
VIEW
 70
     1
  0
ENDTAB
  0
TABLE
  2
UCS
 70
     0
  0
ENDTAB
  0
TABLE
  2
APPID
 70
    44
  0
APPID
  2
ACAD
 70
     0
  0
APPID
  2
ACAD_NAV_VCDISPLAY
 70
     0
  0
APPID
  2
ACAD_PSEXT
 70
     0
  0
APPID
  2
ACAECLAYERSTANDARD
 70
     0
  0
APPID
  2
ACCMTRANSPARENCY
 70
     0
  0
APPID
  2
ACAD_STEPID
 70
     0
  0
APPID
  2
ACAD_EXEMPT_FROM_CAD_STANDARDS
 70
     0
  0
APPID
  2
ACADANNOPO
 70
     0
  0
APPID
  2
ACDBDYNAMICBLOCKGUID
 70
     0
  0
APPID
  2
ACSYNERGY
 70
     0
  0
APPID
  2
SYNERGY_BODY_TBR_ID
 70
     0
  0
APPID
  2
ACAD_VIEW_EDGE_ID
 70
     0
  0
APPID
  2
ACSYNERGYSKETCH
 70
     0
  0
APPID
  2
ACADANNOMONITORALERTICONDI
 70
     0
  0
APPID
  2
ACAD_DSTYLE_DIMRADIAL_EXTENSION
 70
     0
  0
APPID
  2
ACAD_MODELDOC_XFORM
 70
     0
  0
APPID
  2
ACAD_DSTYLE_DIMJAG
 70
     0
  0
APPID
  2
ACAD_DSTYLE_DIMBREAK
 70
     0
  0
APPID
  2
PLOTTRANSPARENCY
 70
     0
  0
APPID
  2
ACAD_TC
 70
     0
  0
APPID
  2
GRADIENTCOLOR1ACI
 70
     0
  0
APPID
  2
GRADIENTCOLOR2ACI
 70
     0
  0
APPID
  2
ACAD_MLEADERVER
 70
     0
  0
APPID
  2
ACAD_OBJECT_CHANGE_GUID
 70
     0
  0
APPID
  2
MCAD_NO_VIS
 70
     0
  0
APPID
  2
ACAD_TEMP_GRAPHIC
 70
     0
  0
APPID
  2
ACATTRIBSERVICES
 70
     0
  0
APPID
  2
DESIGNERASSEMBLIES
 70
     0
  0
APPID
  2
GENIUS_GENSCREG_15
 70
     0
  0
APPID
  2
GENIUS_GENOBJ-N-SDF_13
 70
     0
  0
APPID
  2
GENIUS_GENODEF_13
 70
     0
  0
APPID
  2
ACAD_DSTYLE_DIMARC_LENGTH_
 70
     0
  0
APPID
  2
ACAD_DSTYLE_DIM_LINETYPE
 70
     0
  0
APPID
  2
ACAD_DSTYLE_DIM_EXT1_LINETYPE
 70
     0
  0
APPID
  2
ACAD_DSTYLE_DIM_EXT2_LINETYPE
 70
     0
  0
APPID
  2
RAK
 70
     0
  0
APPID
  2
GENIUS_GENDTOL_13
 70
     0
  0
APPID
  2
ACAD_DSTYLE_DIMINSPECT
 70
     0
  0
APPID
  2
ACAD_DSTYLE_DIMANGULAR_EXT
 70
     0
  0
APPID
  2
ACAUTHENVIRON
 70
     0
  0
APPID
  2
ACDBDYNAMICBLOCKTRUENAME
 70
     0
  0
APPID
  2
PE_URL
 70
     0
  0
APPID
  2
ACADANNOAV
 70
     0
  0
APPID
  2
AcDbAttr
 70
     0
  0
ENDTAB
  0
TABLE
  2
DIMSTYLE
 70
    21
  0
DIMSTYLE
  2
STANDARD
 70
     0
  3

  4

  5

  6

  7

 40
1.0
 41
0.18
 42
0.0625
 43
0.38
 44
0.18
 45
0.0
 46
0.0
 47
0.0
 48
0.0
140
0.18
141
0.09
142
0.0
143
25.3999999999999986
144
1.0
145
0.0
146
1.0
147
0.09
 71
     0
 72
     0
 73
     1
 74
     1
 75
     0
 76
     0
 77
     0
 78
     0
170
     0
171
     2
172
     0
173
     0
174
     0
175
     0
176
     0
177
     0
178
     0
  0
ENDTAB
  0
ENDSEC
  0
SECTION
  2
BLOCKS
  0
BLOCK
  8
0
  2
$MODEL_SPACE
 70
     0
 10
0.0
 20
0.0
 30
0.0
  3
$MODEL_SPACE
  1

  0
ENDBLK
  5
44
  8
0
  0
BLOCK
 67
     1
  8
0
  2
$PAPER_SPACE
 70
     0
 10
0.0
 20
0.0
 30
0.0
  3
$PAPER_SPACE
  1

  0
ENDBLK
  5
42
 67
     1
  8
0
  0
BLOCK
  8
0
  2
*S0
 70
     1
 10
0.0
 20
0.0
 30
0.0
  3
*S0
  1

  0
ENDBLK
  5
43E
  8
0
  0
BLOCK
  8
0
  2
A$CDF21E951
 70
     0
 10
0.0
 20
0.0
 30
0.0
  3
A$CDF21E951
  1

  0
LINE
  5
2E30
  8
0
  6
CONTINUOUS
 62
     3
 10
-28.6777425319632293
 20
24.1067960236255594
 30
0.0
 11
-82.5662981319700577
 21
24.1067960236255594
 31
-0.000000000000012
  0
LINE
  5
2E31
  8
0
  6
CONTINUOUS
 62
     3
 10
-82.5662981319700577
 20
84.106796023625563
 30
0.0
 11
-28.6778133837014302
 21
84.106796023625563
 31
0.000000000000012
  0
POLYLINE
  8
0
  5
2F07
  62
3
  66
     1
 10
0.00000
 20
0.00000
 30
0.00000
  70
     8
  0
VERTEX
  8
0
  5
2F08
 10
-50.1163
 20
54.1068
 30
-1.12000e-14
  70
    32
  0
VERTEX
  8
0
  5
2F09
 10
-50.1167
 20
54.1761
 30
-1.12000e-14
  70
    32
  0
VERTEX
  8
0
  5
2F0A
 10
-50.1179
 20
54.2459
 30
-1.12000e-14
  70
    32
  0
VERTEX
  8
0
  5
2F0B
 10
-50.1199
 20
54.3161
 30
-1.12000e-14
  70
    32
  0
VERTEX
  8
0
  5
2F0C
 10
-50.1228
 20
54.3866
 30
-1.12000e-14
  70
    32
  0
VERTEX
  8
0
  5
2F0D
 10
-50.1265
 20
54.4575
 30
-1.12001e-14
  70
    32
  0
VERTEX
  8
0
  5
2F0E
 10
-50.1311
 20
54.5288
 30
-1.12002e-14
  70
    32
  0
VERTEX
  8
0
  5
2F0F
 10
-50.1365
 20
54.6004
 30
-1.12003e-14
  70
    32
  0
VERTEX
  8
0
  5
2F10
 10
-50.1428
 20
54.6723
 30
-1.12006e-14
  70
    32
  0
VERTEX
  8
0
  5
2F11
 10
-50.1500
 20
54.7445
 30
-1.12010e-14
  70
    32
  0
VERTEX
  8
0
  5
2F12
 10
-50.1581
 20
54.8171
 30
-1.12016e-14
  70
    32
  0
VERTEX
  8
0
  5
2F13
 10
-50.1672
 20
54.8899
 30
-1.12023e-14
  70
    32
  0
VERTEX
  8
0
  5
2F14
 10
-50.1772
 20
54.9631
 30
-1.12032e-14
  70
    32
  0
VERTEX
  8
0
  5
2F15
 10
-50.1882
 20
55.0365
 30
-1.12043e-14
  70
    32
  0
VERTEX
  8
0
  5
2F16
 10
-50.2002
 20
55.1102
 30
-1.12057e-14
  70
    32
  0
VERTEX
  8
0
  5
2F17
 10
-50.2131
 20
55.1841
 30
-1.12073e-14
  70
    32
  0
VERTEX
  8
0
  5
2F18
 10
-50.2271
 20
55.2583
 30
-1.12092e-14
  70
    32
  0
VERTEX
  8
0
  5
2F19
 10
-50.2421
 20
55.3328
 30
-1.12114e-14
  70
    32
  0
VERTEX
  8
0
  5
2F1A
 10
-50.2582
 20
55.4075
 30
-1.12139e-14
  70
    32
  0
VERTEX
  8
0
  5
2F1B
 10
-50.2753
 20
55.4824
 30
-1.12168e-14
  70
    32
  0
VERTEX
  8
0
  5
2F1C
 10
-50.2936
 20
55.5576
 30
-1.12200e-14
  70
    32
  0
VERTEX
  8
0
  5
2F1D
 10
-50.3129
 20
55.6329
 30
-1.12236e-14
  70
    32
  0
VERTEX
  8
0
  5
2F1E
 10
-50.3333
 20
55.7084
 30
-1.12277e-14
  70
    32
  0
VERTEX
  8
0
  5
2F1F
 10
-50.3549
 20
55.7842
 30
-1.12321e-14
  70
    32
  0
VERTEX
  8
0
  5
2F20
 10
-50.3776
 20
55.8601
 30
-1.12371e-14
  70
    32
  0
VERTEX
  8
0
  5
2F21
 10
-50.4014
 20
55.9362
 30
-1.12425e-14
  70
    32
  0
VERTEX
  8
0
  5
2F22
 10
-50.4265
 20
56.0124
 30
-1.12484e-14
  70
    32
  0
VERTEX
  8
0
  5
2F23
 10
-50.4527
 20
56.0888
 30
-1.12548e-14
  70
    32
  0
VERTEX
  8
0
  5
2F24
 10
-50.4802
 20
56.1654
 30
-1.12618e-14
  70
    32
  0
VERTEX
  8
0
  5
2F25
 10
-50.5089
 20
56.2421
 30
-1.12694e-14
  70
    32
  0
VERTEX
  8
0
  5
2F26
 10
-50.5388
 20
56.3189
 30
-1.12775e-14
  70
    32
  0
VERTEX
  8
0
  5
2F27
 10
-50.5700
 20
56.3958
 30
-1.12863e-14
  70
    32
  0
VERTEX
  8
0
  5
2F28
 10
-50.6025
 20
56.4729
 30
-1.12957e-14
  70
    32
  0
VERTEX
  8
0
  5
2F29
 10
-50.6363
 20
56.5500
 30
-1.13057e-14
  70
    32
  0
VERTEX
  8
0
  5
2F2A
 10
-50.6713
 20
56.6272
 30
-1.13163e-14
  70
    32
  0
VERTEX
  8
0
  5
2F2B
 10
-50.7077
 20
56.7044
 30
-1.13270e-14
  70
    32
  0
VERTEX
  8
0
  5
2F2C
 10
-50.7454
 20
56.7817
 30
-1.13378e-14
  70
    32
  0
VERTEX
  8
0
  5
2F2D
 10
-50.7845
 20
56.8589
 30
-1.13486e-14
  70
    32
  0
VERTEX
  8
0
  5
2F2E
 10
-50.8249
 20
56.9360
 30
-1.13596e-14
  70
    32
  0
VERTEX
  8
0
  5
2F2F
 10
-50.8668
 20
57.0130
 30
-1.13706e-14
  70
    32
  0
VERTEX
  8
0
  5
2F30
 10
-50.9100
 20
57.0900
 30
-1.13817e-14
  70
    32
  0
VERTEX
  8
0
  5
2F31
 10
-50.9547
 20
57.1668
 30
-1.13929e-14
  70
    32
  0
VERTEX
  8
0
  5
2F32
 10
-51.0008
 20
57.2434
 30
-1.14042e-14
  70
    32
  0
VERTEX
  8
0
  5
2F33
 10
-51.0484
 20
57.3199
 30
-1.14156e-14
  70
    32
  0
VERTEX
  8
0
  5
2F34
 10
-51.0974
 20
57.3961
 30
-1.14270e-14
  70
    32
  0
VERTEX
  8
0
  5
2F35
 10
-51.1480
 20
57.4721
 30
-1.14386e-14
  70
    32
  0
VERTEX
  8
0
  5
2F36
 10
-51.2001
 20
57.5478
 30
-1.14502e-14
  70
    32
  0
VERTEX
  8
0
  5
2F37
 10
-51.2538
 20
57.6233
 30
-1.14620e-14
  70
    32
  0
VERTEX
  8
0
  5
2F38
 10
-51.3090
 20
57.6984
 30
-1.14738e-14
  70
    32
  0
VERTEX
  8
0
  5
2F39
 10
-51.3659
 20
57.7731
 30
-1.14857e-14
  70
    32
  0
VERTEX
  8
0
  5
2F3A
 10
-51.4243
 20
57.8476
 30
-1.14977e-14
  70
    32
  0
VERTEX
  8
0
  5
2F3B
 10
-51.4843
 20
57.9216
 30
-1.15098e-14
  70
    32
  0
VERTEX
  8
0
  5
2F3C
 10
-51.5460
 20
57.9951
 30
-1.15220e-14
  70
    32
  0
VERTEX
  8
0
  5
2F3D
 10
-51.6094
 20
58.0683
 30
-1.15343e-14
  70
    32
  0
VERTEX
  8
0
  5
2F3E
 10
-51.6745
 20
58.1410
 30
-1.15467e-14
  70
    32
  0
VERTEX
  8
0
  5
2F3F
 10
-51.7412
 20
58.2131
 30
-1.15592e-14
  70
    32
  0
VERTEX
  8
0
  5
2F40
 10
-51.8097
 20
58.2848
 30
-1.15718e-14
  70
    32
  0
VERTEX
  8
0
  5
2F41
 10
-51.8800
 20
58.3559
 30
-1.15845e-14
  70
    32
  0
VERTEX
  8
0
  5
2F42
 10
-51.9520
 20
58.4264
 30
-1.15973e-14
  70
    32
  0
VERTEX
  8
0
  5
2F43
 10
-52.0258
 20
58.4963
 30
-1.16102e-14
  70
    32
  0
VERTEX
  8
0
  5
2F44
 10
-52.1014
 20
58.5656
 30
-1.16238e-14
  70
    32
  0
VERTEX
  8
0
  5
2F45
 10
-52.1788
 20
58.6341
 30
-1.16388e-14
  70
    32
  0
VERTEX
  8
0
  5
2F46
 10
-52.2580
 20
58.7019
 30
-1.16553e-14
  70
    32
  0
VERTEX
  8
0
  5
2F47
 10
-52.3390
 20
58.7689
 30
-1.16731e-14
  70
    32
  0
VERTEX
  8
0
  5
2F48
 10
-52.4219
 20
58.8350
 30
-1.16921e-14
  70
    32
  0
VERTEX
  8
0
  5
2F49
 10
-52.5067
 20
58.9001
 30
-1.17122e-14
  70
    32
  0
VERTEX
  8
0
  5
2F4A
 10
-52.5934
 20
58.9643
 30
-1.17334e-14
  70
    32
  0
VERTEX
  8
0
  5
2F4B
 10
-52.6819
 20
59.0274
 30
-1.17554e-14
  70
    32
  0
VERTEX
  8
0
  5
2F4C
 10
-52.7724
 20
59.0894
 30
-1.17783e-14
  70
    32
  0
VERTEX
  8
0
  5
2F4D
 10
-52.8648
 20
59.1502
 30
-1.18019e-14
  70
    32
  0
VERTEX
  8
0
  5
2F4E
 10
-52.9592
 20
59.2099
 30
-1.18262e-14
  70
    32
  0
VERTEX
  8
0
  5
2F4F
 10
-53.0555
 20
59.2682
 30
-1.18510e-14
  70
    32
  0
VERTEX
  8
0
  5
2F50
 10
-53.1538
 20
59.3252
 30
-1.18763e-14
  70
    32
  0
VERTEX
  8
0
  5
2F51
 10
-53.2542
 20
59.3808
 30
-1.19019e-14
  70
    32
  0
VERTEX
  8
0
  5
2F52
 10
-53.3565
 20
59.4350
 30
-1.19278e-14
  70
    32
  0
VERTEX
  8
0
  5
2F53
 10
-53.4609
 20
59.4877
 30
-1.19538e-14
  70
    32
  0
VERTEX
  8
0
  5
2F54
 10
-53.5673
 20
59.5388
 30
-1.19799e-14
  70
    32
  0
VERTEX
  8
0
  5
2F55
 10
-53.6759
 20
59.5882
 30
-1.20060e-14
  70
    32
  0
VERTEX
  8
0
  5
2F56
 10
-53.7865
 20
59.6361
 30
-1.20320e-14
  70
    32
  0
VERTEX
  8
0
  5
2F57
 10
-53.8992
 20
59.6821
 30
-1.20578e-14
  70
    32
  0
VERTEX
  8
0
  5
2F58
 10
-54.0138
 20
59.7264
 30
-1.20832e-14
  70
    32
  0
VERTEX
  8
0
  5
2F59
 10
-54.1278
 20
59.7676
 30
-1.21085e-14
  70
    32
  0
VERTEX
  8
0
  5
2F5A
 10
-54.2402
 20
59.8058
 30
-1.21334e-14
  70
    32
  0
VERTEX
  8
0
  5
2F5B
 10
-54.3511
 20
59.8410
 30
-1.21581e-14
  70
    32
  0
VERTEX
  8
0
  5
2F5C
 10
-54.4602
 20
59.8734
 30
-1.21824e-14
  70
    32
  0
VERTEX
  8
0
  5
2F5D
 10
-54.5675
 20
59.9030
 30
-1.22063e-14
  70
    32
  0
VERTEX
  8
0
  5
2F5E
 10
-54.6728
 20
59.9300
 30
-1.22299e-14
  70
    32
  0
VERTEX
  8
0
  5
2F5F
 10
-54.7759
 20
59.9545
 30
-1.22530e-14
  70
    32
  0
VERTEX
  8
0
  5
2F60
 10
-54.8768
 20
59.9766
 30
-1.22757e-14
  70
    32
  0
VERTEX
  8
0
  5
2F61
 10
-54.9754
 20
59.9965
 30
-1.22979e-14
  70
    32
  0
VERTEX
  8
0
  5
2F62
 10
-55.0715
 20
60.0142
 30
-1.23195e-14
  70
    32
  0
VERTEX
  8
0
  5
2F63
 10
-55.1649
 20
60.0300
 30
-1.23406e-14
  70
    32
  0
VERTEX
  8
0
  5
2F64
 10
-55.2556
 20
60.0438
 30
-1.23611e-14
  70
    32
  0
VERTEX
  8
0
  5
2F65
 10
-55.3434
 20
60.0559
 30
-1.23810e-14
  70
    32
  0
VERTEX
  8
0
  5
2F66
 10
-55.4282
 20
60.0663
 30
-1.24002e-14
  70
    32
  0
VERTEX
  8
0
  5
2F67
 10
-55.5099
 20
60.0752
 30
-1.24187e-14
  70
    32
  0
VERTEX
  8
0
  5
2F68
 10
-55.5884
 20
60.0827
 30
-1.24365e-14
  70
    32
  0
VERTEX
  8
0
  5
2F69
 10
-55.6635
 20
60.0889
 30
-1.24535e-14
  70
    32
  0
VERTEX
  8
0
  5
2F6A
 10
-55.7350
 20
60.0939
 30
-1.24698e-14
  70
    32
  0
VERTEX
  8
0
  5
2F6B
 10
-55.8030
 20
60.0979
 30
-1.24852e-14
  70
    32
  0
VERTEX
  8
0
  5
2F6C
 10
-55.8672
 20
60.1010
 30
-1.24998e-14
  70
    32
  0
VERTEX
  8
0
  5
2F6D
 10
-55.9275
 20
60.1032
 30
-1.25134e-14
  70
    32
  0
VERTEX
  8
0
  5
2F6E
 10
-55.9838
 20
60.1048
 30
-1.25262e-14
  70
    32
  0
VERTEX
  8
0
  5
2F6F
 10
-56.0359
 20
60.1059
 30
-1.25380e-14
  70
    32
  0
VERTEX
  8
0
  5
2F70
 10
-56.0838
 20
60.1064
 30
-1.25488e-14
  70
    32
  0
VERTEX
  8
0
  5
2F71
 10
-56.1274
 20
60.1067
 30
-1.25585e-14
  70
    32
  0
VERTEX
  8
0
  5
2F72
 10
-56.1664
 20
60.1068
 30
-1.25673e-14
  70
    32
  0
VERTEX
  8
0
  5
2F73
 10
-56.2019
 20
60.1068
 30
-1.25752e-14
  70
    32
  0
VERTEX
  8
0
  5
2F74
 10
-56.2372
 20
60.1068
 30
-1.25830e-14
  70
    32
  0
VERTEX
  8
0
  5
2F75
 10
-56.2725
 20
60.1068
 30
-1.25908e-14
  70
    32
  0
VERTEX
  8
0
  5
2F76
 10
-56.3079
 20
60.1068
 30
-1.25987e-14
  70
    32
  0
VERTEX
  8
0
  5
2F77
 10
-56.3433
 20
60.1068
 30
-1.26065e-14
  70
    32
  0
VERTEX
  8
0
  5
2F78
 10
-56.3787
 20
60.1068
 30
-1.26143e-14
  70
    32
  0
VERTEX
  8
0
  5
2F79
 10
-56.4142
 20
60.1068
 30
-1.26221e-14
  70
    32
  0
VERTEX
  8
0
  5
2F7A
 10
-56.4497
 20
60.1068
 30
-1.26299e-14
  70
    32
  0
VERTEX
  8
0
  5
2F7B
 10
-56.4852
 20
60.1068
 30
-1.26378e-14
  70
    32
  0
VERTEX
  8
0
  5
2F7C
 10
-56.5208
 20
60.1068
 30
-1.26456e-14
  70
    32
  0
VERTEX
  8
0
  5
2F7D
 10
-56.5564
 20
60.1068
 30
-1.26534e-14
  70
    32
  0
VERTEX
  8
0
  5
2F7E
 10
-56.5920
 20
60.1068
 30
-1.26612e-14
  70
    32
  0
VERTEX
  8
0
  5
2F7F
 10
-56.6277
 20
60.1068
 30
-1.26690e-14
  70
    32
  0
VERTEX
  8
0
  5
2F80
 10
-56.6634
 20
60.1068
 30
-1.26768e-14
  70
    32
  0
VERTEX
  8
0
  5
2F81
 10
-56.6992
 20
60.1068
 30
-1.26846e-14
  70
    32
  0
VERTEX
  8
0
  5
2F82
 10
-56.7349
 20
60.1068
 30
-1.26924e-14
  70
    32
  0
VERTEX
  8
0
  5
2F83
 10
-56.7707
 20
60.1068
 30
-1.27002e-14
  70
    32
  0
VERTEX
  8
0
  5
2F84
 10
-56.8066
 20
60.1068
 30
-1.27080e-14
  70
    32
  0
VERTEX
  8
0
  5
2F85
 10
-56.8425
 20
60.1068
 30
-1.27158e-14
  70
    32
  0
VERTEX
  8
0
  5
2F86
 10
-56.8784
 20
60.1068
 30
-1.27235e-14
  70
    32
  0
VERTEX
  8
0
  5
2F87
 10
-56.9143
 20
60.1068
 30
-1.27313e-14
  70
    32
  0
VERTEX
  8
0
  5
2F88
 10
-56.9503
 20
60.1068
 30
-1.27391e-14
  70
    32
  0
VERTEX
  8
0
  5
2F89
 10
-56.9863
 20
60.1068
 30
-1.27469e-14
  70
    32
  0
VERTEX
  8
0
  5
2F8A
 10
-57.0224
 20
60.1068
 30
-1.27547e-14
  70
    32
  0
VERTEX
  8
0
  5
2F8B
 10
-57.0584
 20
60.1068
 30
-1.27625e-14
  70
    32
  0
VERTEX
  8
0
  5
2F8C
 10
-57.0945
 20
60.1068
 30
-1.27703e-14
  70
    32
  0
VERTEX
  8
0
  5
2F8D
 10
-57.1307
 20
60.1068
 30
-1.27781e-14
  70
    32
  0
VERTEX
  8
0
  5
2F8E
 10
-57.1669
 20
60.1068
 30
-1.27858e-14
  70
    32
  0
VERTEX
  8
0
  5
2F8F
 10
-57.2031
 20
60.1068
 30
-1.27936e-14
  70
    32
  0
VERTEX
  8
0
  5
2F90
 10
-57.2394
 20
60.1068
 30
-1.28014e-14
  70
    32
  0
VERTEX
  8
0
  5
2F91
 10
-57.2756
 20
60.1068
 30
-1.28092e-14
  70
    32
  0
VERTEX
  8
0
  5
2F92
 10
-57.3120
 20
60.1068
 30
-1.28170e-14
  70
    32
  0
VERTEX
  8
0
  5
2F93
 10
-57.3483
 20
60.1068
 30
-1.28248e-14
  70
    32
  0
VERTEX
  8
0
  5
2F94
 10
-57.3847
 20
60.1068
 30
-1.28326e-14
  70
    32
  0
VERTEX
  8
0
  5
2F95
 10
-57.4211
 20
60.1068
 30
-1.28404e-14
  70
    32
  0
VERTEX
  8
0
  5
2F96
 10
-57.4576
 20
60.1068
 30
-1.28482e-14
  70
    32
  0
VERTEX
  8
0
  5
2F97
 10
-57.4941
 20
60.1068
 30
-1.28560e-14
  70
    32
  0
VERTEX
  8
0
  5
2F98
 10
-57.5306
 20
60.1068
 30
-1.28637e-14
  70
    32
  0
VERTEX
  8
0
  5
2F99
 10
-57.5672
 20
60.1068
 30
-1.28715e-14
  70
    32
  0
VERTEX
  8
0
  5
2F9A
 10
-57.6038
 20
60.1068
 30
-1.28793e-14
  70
    32
  0
VERTEX
  8
0
  5
2F9B
 10
-57.6404
 20
60.1068
 30
-1.28871e-14
  70
    32
  0
VERTEX
  8
0
  5
2F9C
 10
-57.6771
 20
60.1068
 30
-1.28950e-14
  70
    32
  0
VERTEX
  8
0
  5
2F9D
 10
-57.7138
 20
60.1068
 30
-1.29028e-14
  70
    32
  0
VERTEX
  8
0
  5
2F9E
 10
-57.7506
 20
60.1068
 30
-1.29106e-14
  70
    32
  0
VERTEX
  8
0
  5
2F9F
 10
-57.7873
 20
60.1068
 30
-1.29184e-14
  70
    32
  0
VERTEX
  8
0
  5
2FA0
 10
-57.8241
 20
60.1068
 30
-1.29262e-14
  70
    32
  0
VERTEX
  8
0
  5
2FA1
 10
-57.8610
 20
60.1068
 30
-1.29340e-14
  70
    32
  0
VERTEX
  8
0
  5
2FA2
 10
-57.8979
 20
60.1068
 30
-1.29418e-14
  70
    32
  0
VERTEX
  8
0
  5
2FA3
 10
-57.9348
 20
60.1068
 30
-1.29497e-14
  70
    32
  0
VERTEX
  8
0
  5
2FA4
 10
-57.9718
 20
60.1068
 30
-1.29575e-14
  70
    32
  0
VERTEX
  8
0
  5
2FA5
 10
-58.0088
 20
60.1068
 30
-1.29653e-14
  70
    32
  0
VERTEX
  8
0
  5
2FA6
 10
-58.0458
 20
60.1068
 30
-1.29732e-14
  70
    32
  0
VERTEX
  8
0
  5
2FA7
 10
-58.0828
 20
60.1068
 30
-1.29810e-14
  70
    32
  0
VERTEX
  8
0
  5
2FA8
 10
-58.1199
 20
60.1068
 30
-1.29889e-14
  70
    32
  0
VERTEX
  8
0
  5
2FA9
 10
-58.1571
 20
60.1068
 30
-1.29967e-14
  70
    32
  0
VERTEX
  8
0
  5
2FAA
 10
-58.1943
 20
60.1068
 30
-1.30046e-14
  70
    32
  0
VERTEX
  8
0
  5
2FAB
 10
-58.2315
 20
60.1068
 30
-1.30124e-14
  70
    32
  0
VERTEX
  8
0
  5
2FAC
 10
-58.2687
 20
60.1068
 30
-1.30203e-14
  70
    32
  0
VERTEX
  8
0
  5
2FAD
 10
-58.3060
 20
60.1068
 30
-1.30282e-14
  70
    32
  0
VERTEX
  8
0
  5
2FAE
 10
-58.3433
 20
60.1068
 30
-1.30360e-14
  70
    32
  0
VERTEX
  8
0
  5
2FAF
 10
-58.3807
 20
60.1068
 30
-1.30439e-14
  70
    32
  0
VERTEX
  8
0
  5
2FB0
 10
-58.4180
 20
60.1068
 30
-1.30518e-14
  70
    32
  0
VERTEX
  8
0
  5
2FB1
 10
-58.4555
 20
60.1068
 30
-1.30597e-14
  70
    32
  0
VERTEX
  8
0
  5
2FB2
 10
-58.4929
 20
60.1068
 30
-1.30676e-14
  70
    32
  0
VERTEX
  8
0
  5
2FB3
 10
-58.5304
 20
60.1068
 30
-1.30755e-14
  70
    32
  0
VERTEX
  8
0
  5
2FB4
 10
-58.5680
 20
60.1068
 30
-1.30834e-14
  70
    32
  0
VERTEX
  8
0
  5
2FB5
 10
-58.6055
 20
60.1068
 30
-1.30914e-14
  70
    32
  0
VERTEX
  8
0
  5
2FB6
 10
-58.6432
 20
60.1068
 30
-1.30993e-14
  70
    32
  0
VERTEX
  8
0
  5
2FB7
 10
-58.6808
 20
60.1068
 30
-1.31072e-14
  70
    32
  0
VERTEX
  8
0
  5
2FB8
 10
-58.7185
 20
60.1068
 30
-1.31152e-14
  70
    32
  0
VERTEX
  8
0
  5
2FB9
 10
-58.7562
 20
60.1068
 30
-1.31231e-14
  70
    32
  0
VERTEX
  8
0
  5
2FBA
 10
-58.7940
 20
60.1068
 30
-1.31311e-14
  70
    32
  0
VERTEX
  8
0
  5
2FBB
 10
-58.8318
 20
60.1068
 30
-1.31390e-14
  70
    32
  0
VERTEX
  8
0
  5
2FBC
 10
-58.8696
 20
60.1068
 30
-1.31470e-14
  70
    32
  0
VERTEX
  8
0
  5
2FBD
 10
-58.9075
 20
60.1068
 30
-1.31550e-14
  70
    32
  0
VERTEX
  8
0
  5
2FBE
 10
-58.9454
 20
60.1068
 30
-1.31630e-14
  70
    32
  0
VERTEX
  8
0
  5
2FBF
 10
-58.9833
 20
60.1068
 30
-1.31710e-14
  70
    32
  0
VERTEX
  8
0
  5
2FC0
 10
-59.0213
 20
60.1068
 30
-1.31790e-14
  70
    32
  0
VERTEX
  8
0
  5
2FC1
 10
-59.0593
 20
60.1068
 30
-1.31870e-14
  70
    32
  0
VERTEX
  8
0
  5
2FC2
 10
-59.0974
 20
60.1068
 30
-1.31950e-14
  70
    32
  0
VERTEX
  8
0
  5
2FC3
 10
-59.1355
 20
60.1068
 30
-1.32030e-14
  70
    32
  0
VERTEX
  8
0
  5
2FC4
 10
-59.1736
 20
60.1068
 30
-1.32111e-14
  70
    32
  0
VERTEX
  8
0
  5
2FC5
 10
-59.2118
 20
60.1068
 30
-1.32191e-14
  70
    32
  0
VERTEX
  8
0
  5
2FC6
 10
-59.2500
 20
60.1068
 30
-1.32272e-14
  70
    32
  0
VERTEX
  8
0
  5
2FC7
 10
-59.2882
 20
60.1068
 30
-1.32352e-14
  70
    32
  0
VERTEX
  8
0
  5
2FC8
 10
-59.3265
 20
60.1068
 30
-1.32433e-14
  70
    32
  0
VERTEX
  8
0
  5
2FC9
 10
-59.3648
 20
60.1068
 30
-1.32514e-14
  70
    32
  0
VERTEX
  8
0
  5
2FCA
 10
-59.4032
 20
60.1068
 30
-1.32595e-14
  70
    32
  0
VERTEX
  8
0
  5
2FCB
 10
-59.4416
 20
60.1068
 30
-1.32676e-14
  70
    32
  0
VERTEX
  8
0
  5
2FCC
 10
-59.4800
 20
60.1068
 30
-1.32757e-14
  70
    32
  0
VERTEX
  8
0
  5
2FCD
 10
-59.5185
 20
60.1068
 30
-1.32839e-14
  70
    32
  0
VERTEX
  8
0
  5
2FCE
 10
-59.5570
 20
60.1068
 30
-1.32920e-14
  70
    32
  0
VERTEX
  8
0
  5
2FCF
 10
-59.5955
 20
60.1068
 30
-1.33002e-14
  70
    32
  0
VERTEX
  8
0
  5
2FD0
 10
-59.6341
 20
60.1068
 30
-1.33083e-14
  70
    32
  0
VERTEX
  8
0
  5
2FD1
 10
-59.6727
 20
60.1068
 30
-1.33165e-14
  70
    32
  0
VERTEX
  8
0
  5
2FD2
 10
-59.7114
 20
60.1068
 30
-1.33247e-14
  70
    32
  0
VERTEX
  8
0
  5
2FD3
 10
-59.7501
 20
60.1068
 30
-1.33329e-14
  70
    32
  0
VERTEX
  8
0
  5
2FD4
 10
-59.7889
 20
60.1068
 30
-1.33411e-14
  70
    32
  0
VERTEX
  8
0
  5
2FD5
 10
-59.8276
 20
60.1068
 30
-1.33493e-14
  70
    32
  0
VERTEX
  8
0
  5
2FD6
 10
-59.8665
 20
60.1068
 30
-1.33575e-14
  70
    32
  0
VERTEX
  8
0
  5
2FD7
 10
-59.9053
 20
60.1068
 30
-1.33658e-14
  70
    32
  0
VERTEX
  8
0
  5
2FD8
 10
-59.9442
 20
60.1068
 30
-1.33740e-14
  70
    32
  0
VERTEX
  8
0
  5
2FD9
 10
-59.9831
 20
60.1068
 30
-1.33823e-14
  70
    32
  0
VERTEX
  8
0
  5
2FDA
 10
-60.0221
 20
60.1068
 30
-1.33906e-14
  70
    32
  0
VERTEX
  8
0
  5
2FDB
 10
-60.0611
 20
60.1068
 30
-1.33989e-14
  70
    32
  0
VERTEX
  8
0
  5
2FDC
 10
-60.1002
 20
60.1068
 30
-1.34072e-14
  70
    32
  0
VERTEX
  8
0
  5
2FDD
 10
-60.1393
 20
60.1068
 30
-1.34155e-14
  70
    32
  0
VERTEX
  8
0
  5
2FDE
 10
-60.1784
 20
60.1068
 30
-1.34239e-14
  70
    32
  0
VERTEX
  8
0
  5
2FDF
 10
-60.2176
 20
60.1068
 30
-1.34322e-14
  70
    32
  0
VERTEX
  8
0
  5
2FE0
 10
-60.2568
 20
60.1068
 30
-1.34406e-14
  70
    32
  0
VERTEX
  8
0
  5
2FE1
 10
-60.2960
 20
60.1068
 30
-1.34490e-14
  70
    32
  0
VERTEX
  8
0
  5
2FE2
 10
-60.3353
 20
60.1068
 30
-1.34573e-14
  70
    32
  0
VERTEX
  8
0
  5
2FE3
 10
-60.3746
 20
60.1068
 30
-1.34657e-14
  70
    32
  0
VERTEX
  8
0
  5
2FE4
 10
-60.4140
 20
60.1068
 30
-1.34742e-14
  70
    32
  0
VERTEX
  8
0
  5
2FE5
 10
-60.4534
 20
60.1068
 30
-1.34826e-14
  70
    32
  0
VERTEX
  8
0
  5
2FE6
 10
-60.4928
 20
60.1068
 30
-1.34911e-14
  70
    32
  0
VERTEX
  8
0
  5
2FE7
 10
-60.5323
 20
60.1068
 30
-1.34995e-14
  70
    32
  0
VERTEX
  8
0
  5
2FE8
 10
-60.5718
 20
60.1068
 30
-1.35080e-14
  70
    32
  0
VERTEX
  8
0
  5
2FE9
 10
-60.6114
 20
60.1068
 30
-1.35165e-14
  70
    32
  0
VERTEX
  8
0
  5
2FEA
 10
-60.6510
 20
60.1068
 30
-1.35250e-14
  70
    32
  0
VERTEX
  8
0
  5
2FEB
 10
-60.6907
 20
60.1068
 30
-1.35335e-14
  70
    32
  0
VERTEX
  8
0
  5
2FEC
 10
-60.7303
 20
60.1068
 30
-1.35421e-14
  70
    32
  0
VERTEX
  8
0
  5
2FED
 10
-60.7701
 20
60.1068
 30
-1.35506e-14
  70
    32
  0
VERTEX
  8
0
  5
2FEE
 10
-60.8098
 20
60.1068
 30
-1.35592e-14
  70
    32
  0
VERTEX
  8
0
  5
2FEF
 10
-60.8496
 20
60.1068
 30
-1.35678e-14
  70
    32
  0
VERTEX
  8
0
  5
2FF0
 10
-60.8895
 20
60.1068
 30
-1.35764e-14
  70
    32
  0
VERTEX
  8
0
  5
2FF1
 10
-60.9293
 20
60.1068
 30
-1.35850e-14
  70
    32
  0
VERTEX
  8
0
  5
2FF2
 10
-60.9693
 20
60.1068
 30
-1.35937e-14
  70
    32
  0
VERTEX
  8
0
  5
2FF3
 10
-61.0092
 20
60.1068
 30
-1.36024e-14
  70
    32
  0
VERTEX
  8
0
  5
2FF4
 10
-61.0492
 20
60.1068
 30
-1.36110e-14
  70
    32
  0
VERTEX
  8
0
  5
2FF5
 10
-61.0893
 20
60.1068
 30
-1.36197e-14
  70
    32
  0
VERTEX
  8
0
  5
2FF6
 10
-61.1294
 20
60.1068
 30
-1.36284e-14
  70
    32
  0
VERTEX
  8
0
  5
2FF7
 10
-61.1695
 20
60.1068
 30
-1.36372e-14
  70
    32
  0
VERTEX
  8
0
  5
2FF8
 10
-61.2097
 20
60.1068
 30
-1.36459e-14
  70
    32
  0
VERTEX
  8
0
  5
2FF9
 10
-61.2499
 20
60.1068
 30
-1.36547e-14
  70
    32
  0
VERTEX
  8
0
  5
2FFA
 10
-61.2901
 20
60.1068
 30
-1.36635e-14
  70
    32
  0
VERTEX
  8
0
  5
2FFB
 10
-61.3304
 20
60.1068
 30
-1.36723e-14
  70
    32
  0
VERTEX
  8
0
  5
2FFC
 10
-61.3707
 20
60.1068
 30
-1.36811e-14
  70
    32
  0
VERTEX
  8
0
  5
2FFD
 10
-61.4111
 20
60.1068
 30
-1.36899e-14
  70
    32
  0
VERTEX
  8
0
  5
2FFE
 10
-61.4515
 20
60.1068
 30
-1.36988e-14
  70
    32
  0
VERTEX
  8
0
  5
2FFF
 10
-61.4920
 20
60.1068
 30
-1.37077e-14
  70
    32
  0
VERTEX
  8
0
  5
3000
 10
-61.5325
 20
60.1068
 30
-1.37166e-14
  70
    32
  0
VERTEX
  8
0
  5
3001
 10
-61.5730
 20
60.1068
 30
-1.37255e-14
  70
    32
  0
VERTEX
  8
0
  5
3002
 10
-61.6136
 20
60.1068
 30
-1.37344e-14
  70
    32
  0
VERTEX
  8
0
  5
3003
 10
-61.6542
 20
60.1068
 30
-1.37434e-14
  70
    32
  0
VERTEX
  8
0
  5
3004
 10
-61.6948
 20
60.1068
 30
-1.37523e-14
  70
    32
  0
VERTEX
  8
0
  5
3005
 10
-61.7355
 20
60.1068
 30
-1.37613e-14
  70
    32
  0
VERTEX
  8
0
  5
3006
 10
-61.7763
 20
60.1068
 30
-1.37703e-14
  70
    32
  0
VERTEX
  8
0
  5
3007
 10
-61.8171
 20
60.1068
 30
-1.37794e-14
  70
    32
  0
VERTEX
  8
0
  5
3008
 10
-61.8579
 20
60.1068
 30
-1.37884e-14
  70
    32
  0
VERTEX
  8
0
  5
3009
 10
-61.8987
 20
60.1068
 30
-1.37975e-14
  70
    32
  0
VERTEX
  8
0
  5
300A
 10
-61.9396
 20
60.1068
 30
-1.38066e-14
  70
    32
  0
VERTEX
  8
0
  5
300B
 10
-61.9806
 20
60.1068
 30
-1.38157e-14
  70
    32
  0
VERTEX
  8
0
  5
300C
 10
-62.0216
 20
60.1068
 30
-1.38249e-14
  70
    32
  0
VERTEX
  8
0
  5
300D
 10
-62.0626
 20
60.1068
 30
-1.38340e-14
  70
    32
  0
VERTEX
  8
0
  5
300E
 10
-62.1037
 20
60.1068
 30
-1.38432e-14
  70
    32
  0
VERTEX
  8
0
  5
300F
 10
-62.1448
 20
60.1068
 30
-1.38524e-14
  70
    32
  0
VERTEX
  8
0
  5
3010
 10
-62.1860
 20
60.1068
 30
-1.38617e-14
  70
    32
  0
VERTEX
  8
0
  5
3011
 10
-62.2272
 20
60.1068
 30
-1.38709e-14
  70
    32
  0
VERTEX
  8
0
  5
3012
 10
-62.2684
 20
60.1068
 30
-1.38802e-14
  70
    32
  0
VERTEX
  8
0
  5
3013
 10
-62.3097
 20
60.1068
 30
-1.38895e-14
  70
    32
  0
VERTEX
  8
0
  5
3014
 10
-62.3510
 20
60.1068
 30
-1.38988e-14
  70
    32
  0
VERTEX
  8
0
  5
3015
 10
-62.3924
 20
60.1068
 30
-1.39081e-14
  70
    32
  0
VERTEX
  8
0
  5
3016
 10
-62.4338
 20
60.1068
 30
-1.39175e-14
  70
    32
  0
VERTEX
  8
0
  5
3017
 10
-62.4752
 20
60.1068
 30
-1.39269e-14
  70
    32
  0
VERTEX
  8
0
  5
3018
 10
-62.5167
 20
60.1068
 30
-1.39363e-14
  70
    32
  0
VERTEX
  8
0
  5
3019
 10
-62.5583
 20
60.1068
 30
-1.39457e-14
  70
    32
  0
VERTEX
  8
0
  5
301A
 10
-62.5999
 20
60.1068
 30
-1.39552e-14
  70
    32
  0
VERTEX
  8
0
  5
301B
 10
-62.6415
 20
60.1068
 30
-1.39646e-14
  70
    32
  0
VERTEX
  8
0
  5
301C
 10
-62.6831
 20
60.1068
 30
-1.39742e-14
  70
    32
  0
VERTEX
  8
0
  5
301D
 10
-62.7249
 20
60.1068
 30
-1.39837e-14
  70
    32
  0
VERTEX
  8
0
  5
301E
 10
-62.7666
 20
60.1068
 30
-1.39932e-14
  70
    32
  0
VERTEX
  8
0
  5
301F
 10
-62.8084
 20
60.1068
 30
-1.40028e-14
  70
    32
  0
VERTEX
  8
0
  5
3020
 10
-62.8502
 20
60.1068
 30
-1.40124e-14
  70
    32
  0
VERTEX
  8
0
  5
3021
 10
-62.8921
 20
60.1068
 30
-1.40220e-14
  70
    32
  0
VERTEX
  8
0
  5
3022
 10
-62.9340
 20
60.1068
 30
-1.40317e-14
  70
    32
  0
VERTEX
  8
0
  5
3023
 10
-62.9760
 20
60.1068
 30
-1.40414e-14
  70
    32
  0
VERTEX
  8
0
  5
3024
 10
-63.0180
 20
60.1068
 30
-1.40511e-14
  70
    32
  0
VERTEX
  8
0
  5
3025
 10
-63.0601
 20
60.1068
 30
-1.40608e-14
  70
    32
  0
VERTEX
  8
0
  5
3026
 10
-63.1022
 20
60.1068
 30
-1.40705e-14
  70
    32
  0
VERTEX
  8
0
  5
3027
 10
-63.1443
 20
60.1068
 30
-1.40803e-14
  70
    32
  0
VERTEX
  8
0
  5
3028
 10
-63.1865
 20
60.1068
 30
-1.40901e-14
  70
    32
  0
VERTEX
  8
0
  5
3029
 10
-63.2287
 20
60.1068
 30
-1.41000e-14
  70
    32
  0
VERTEX
  8
0
  5
302A
 10
-63.2710
 20
60.1068
 30
-1.41098e-14
  70
    32
  0
VERTEX
  8
0
  5
302B
 10
-63.3133
 20
60.1068
 30
-1.41197e-14
  70
    32
  0
VERTEX
  8
0
  5
302C
 10
-63.3557
 20
60.1068
 30
-1.41296e-14
  70
    32
  0
VERTEX
  8
0
  5
302D
 10
-63.3981
 20
60.1068
 30
-1.41395e-14
  70
    32
  0
VERTEX
  8
0
  5
302E
 10
-63.4405
 20
60.1068
 30
-1.41495e-14
  70
    32
  0
VERTEX
  8
0
  5
302F
 10
-63.4830
 20
60.1068
 30
-1.41595e-14
  70
    32
  0
VERTEX
  8
0
  5
3030
 10
-63.5255
 20
60.1068
 30
-1.41695e-14
  70
    32
  0
VERTEX
  8
0
  5
3031
 10
-63.5681
 20
60.1068
 30
-1.41796e-14
  70
    32
  0
VERTEX
  8
0
  5
3032
 10
-63.6107
 20
60.1068
 30
-1.41896e-14
  70
    32
  0
VERTEX
  8
0
  5
3033
 10
-63.6534
 20
60.1068
 30
-1.41997e-14
  70
    32
  0
VERTEX
  8
0
  5
3034
 10
-63.6961
 20
60.1068
 30
-1.42099e-14
  70
    32
  0
VERTEX
  8
0
  5
3035
 10
-63.7388
 20
60.1068
 30
-1.42200e-14
  70
    32
  0
VERTEX
  8
0
  5
3036
 10
-63.7816
 20
60.1068
 30
-1.42302e-14
  70
    32
  0
VERTEX
  8
0
  5
3037
 10
-63.8245
 20
60.1068
 30
-1.42404e-14
  70
    32
  0
VERTEX
  8
0
  5
3038
 10
-63.8674
 20
60.1068
 30
-1.42507e-14
  70
    32
  0
VERTEX
  8
0
  5
3039
 10
-63.9103
 20
60.1068
 30
-1.42609e-14
  70
    32
  0
VERTEX
  8
0
  5
303A
 10
-63.9533
 20
60.1068
 30
-1.42712e-14
  70
    32
  0
VERTEX
  8
0
  5
303B
 10
-63.9963
 20
60.1068
 30
-1.42816e-14
  70
    32
  0
VERTEX
  8
0
  5
303C
 10
-64.0393
 20
60.1068
 30
-1.42919e-14
  70
    32
  0
VERTEX
  8
0
  5
303D
 10
-64.0824
 20
60.1068
 30
-1.43023e-14
  70
    32
  0
VERTEX
  8
0
  5
303E
 10
-64.1256
 20
60.1068
 30
-1.43127e-14
  70
    32
  0
VERTEX
  8
0
  5
303F
 10
-64.1689
 20
60.1068
 30
-1.43231e-14
  70
    32
  0
VERTEX
  8
0
  5
3040
 10
-64.2122
 20
60.1068
 30
-1.43335e-14
  70
    32
  0
VERTEX
  8
0
  5
3041
 10
-64.2557
 20
60.1068
 30
-1.43440e-14
  70
    32
  0
VERTEX
  8
0
  5
3042
 10
-64.2993
 20
60.1068
 30
-1.43544e-14
  70
    32
  0
VERTEX
  8
0
  5
3043
 10
-64.3429
 20
60.1068
 30
-1.43648e-14
  70
    32
  0
VERTEX
  8
0
  5
3044
 10
-64.3867
 20
60.1068
 30
-1.43752e-14
  70
    32
  0
VERTEX
  8
0
  5
3045
 10
-64.4305
 20
60.1068
 30
-1.43857e-14
  70
    32
  0
VERTEX
  8
0
  5
3046
 10
-64.4745
 20
60.1068
 30
-1.43961e-14
  70
    32
  0
VERTEX
  8
0
  5
3047
 10
-64.5185
 20
60.1068
 30
-1.44065e-14
  70
    32
  0
VERTEX
  8
0
  5
3048
 10
-64.5627
 20
60.1068
 30
-1.44170e-14
  70
    32
  0
VERTEX
  8
0
  5
3049
 10
-64.6069
 20
60.1068
 30
-1.44274e-14
  70
    32
  0
VERTEX
  8
0
  5
304A
 10
-64.6513
 20
60.1068
 30
-1.44378e-14
  70
    32
  0
VERTEX
  8
0
  5
304B
 10
-64.6957
 20
60.1068
 30
-1.44483e-14
  70
    32
  0
VERTEX
  8
0
  5
304C
 10
-64.7403
 20
60.1068
 30
-1.44587e-14
  70
    32
  0
VERTEX
  8
0
  5
304D
 10
-64.7849
 20
60.1068
 30
-1.44692e-14
  70
    32
  0
VERTEX
  8
0
  5
304E
 10
-64.8297
 20
60.1068
 30
-1.44796e-14
  70
    32
  0
VERTEX
  8
0
  5
304F
 10
-64.8745
 20
60.1068
 30
-1.44901e-14
  70
    32
  0
VERTEX
  8
0
  5
3050
 10
-64.9195
 20
60.1068
 30
-1.45006e-14
  70
    32
  0
VERTEX
  8
0
  5
3051
 10
-64.9645
 20
60.1068
 30
-1.45110e-14
  70
    32
  0
VERTEX
  8
0
  5
3052
 10
-65.0097
 20
60.1068
 30
-1.45215e-14
  70
    32
  0
VERTEX
  8
0
  5
3053
 10
-65.0550
 20
60.1068
 30
-1.45320e-14
  70
    32
  0
VERTEX
  8
0
  5
3054
 10
-65.1003
 20
60.1068
 30
-1.45425e-14
  70
    32
  0
VERTEX
  8
0
  5
3055
 10
-65.1458
 20
60.1068
 30
-1.45529e-14
  70
    32
  0
VERTEX
  8
0
  5
3056
 10
-65.1914
 20
60.1068
 30
-1.45634e-14
  70
    32
  0
VERTEX
  8
0
  5
3057
 10
-65.2371
 20
60.1068
 30
-1.45739e-14
  70
    32
  0
VERTEX
  8
0
  5
3058
 10
-65.2829
 20
60.1068
 30
-1.45844e-14
  70
    32
  0
VERTEX
  8
0
  5
3059
 10
-65.3288
 20
60.1068
 30
-1.45949e-14
  70
    32
  0
VERTEX
  8
0
  5
305A
 10
-65.3748
 20
60.1068
 30
-1.46054e-14
  70
    32
  0
VERTEX
  8
0
  5
305B
 10
-65.4209
 20
60.1068
 30
-1.46159e-14
  70
    32
  0
VERTEX
  8
0
  5
305C
 10
-65.4671
 20
60.1068
 30
-1.46264e-14
  70
    32
  0
VERTEX
  8
0
  5
305D
 10
-65.5135
 20
60.1068
 30
-1.46369e-14
  70
    32
  0
VERTEX
  8
0
  5
305E
 10
-65.5599
 20
60.1068
 30
-1.46474e-14
  70
    32
  0
VERTEX
  8
0
  5
305F
 10
-65.6064
 20
60.1068
 30
-1.46579e-14
  70
    32
  0
VERTEX
  8
0
  5
3060
 10
-65.6531
 20
60.1068
 30
-1.46684e-14
  70
    32
  0
VERTEX
  8
0
  5
3061
 10
-65.6999
 20
60.1068
 30
-1.46789e-14
  70
    32
  0
VERTEX
  8
0
  5
3062
 10
-65.7467
 20
60.1068
 30
-1.46895e-14
  70
    32
  0
VERTEX
  8
0
  5
3063
 10
-65.7937
 20
60.1068
 30
-1.47000e-14
  70
    32
  0
VERTEX
  8
0
  5
3064
 10
-65.8408
 20
60.1068
 30
-1.47105e-14
  70
    32
  0
VERTEX
  8
0
  5
3065
 10
-65.8880
 20
60.1068
 30
-1.47211e-14
  70
    32
  0
VERTEX
  8
0
  5
3066
 10
-65.9353
 20
60.1068
 30
-1.47316e-14
  70
    32
  0
VERTEX
  8
0
  5
3067
 10
-65.9828
 20
60.1068
 30
-1.47421e-14
  70
    32
  0
VERTEX
  8
0
  5
3068
 10
-66.0303
 20
60.1068
 30
-1.47527e-14
  70
    32
  0
VERTEX
  8
0
  5
3069
 10
-66.0780
 20
60.1068
 30
-1.47632e-14
  70
    32
  0
VERTEX
  8
0
  5
306A
 10
-66.1257
 20
60.1068
 30
-1.47738e-14
  70
    32
  0
VERTEX
  8
0
  5
306B
 10
-66.1736
 20
60.1068
 30
-1.47844e-14
  70
    32
  0
VERTEX
  8
0
  5
306C
 10
-66.2216
 20
60.1068
 30
-1.47949e-14
  70
    32
  0
VERTEX
  8
0
  5
306D
 10
-66.2697
 20
60.1068
 30
-1.48055e-14
  70
    32
  0
VERTEX
  8
0
  5
306E
 10
-66.3180
 20
60.1068
 30
-1.48160e-14
  70
    32
  0
VERTEX
  8
0
  5
306F
 10
-66.3663
 20
60.1068
 30
-1.48266e-14
  70
    32
  0
VERTEX
  8
0
  5
3070
 10
-66.4147
 20
60.1068
 30
-1.48372e-14
  70
    32
  0
VERTEX
  8
0
  5
3071
 10
-66.4633
 20
60.1068
 30
-1.48478e-14
  70
    32
  0
VERTEX
  8
0
  5
3072
 10
-66.5120
 20
60.1068
 30
-1.48584e-14
  70
    32
  0
VERTEX
  8
0
  5
3073
 10
-66.5608
 20
60.1068
 30
-1.48689e-14
  70
    32
  0
VERTEX
  8
0
  5
3074
 10
-66.6097
 20
60.1068
 30
-1.48795e-14
  70
    32
  0
VERTEX
  8
0
  5
3075
 10
-66.6588
 20
60.1068
 30
-1.48901e-14
  70
    32
  0
VERTEX
  8
0
  5
3076
 10
-66.7079
 20
60.1068
 30
-1.49007e-14
  70
    32
  0
VERTEX
  8
0
  5
3077
 10
-66.7572
 20
60.1068
 30
-1.49113e-14
  70
    32
  0
VERTEX
  8
0
  5
3078
 10
-66.8066
 20
60.1068
 30
-1.49219e-14
  70
    32
  0
VERTEX
  8
0
  5
3079
 10
-66.8561
 20
60.1068
 30
-1.49326e-14
  70
    32
  0
VERTEX
  8
0
  5
307A
 10
-66.9057
 20
60.1068
 30
-1.49432e-14
  70
    32
  0
VERTEX
  8
0
  5
307B
 10
-66.9555
 20
60.1068
 30
-1.49538e-14
  70
    32
  0
VERTEX
  8
0
  5
307C
 10
-67.0054
 20
60.1068
 30
-1.49644e-14
  70
    32
  0
VERTEX
  8
0
  5
307D
 10
-67.0553
 20
60.1068
 30
-1.49750e-14
  70
    32
  0
VERTEX
  8
0
  5
307E
 10
-67.1055
 20
60.1068
 30
-1.49857e-14
  70
    32
  0
VERTEX
  8
0
  5
307F
 10
-67.1557
 20
60.1068
 30
-1.49963e-14
  70
    32
  0
VERTEX
  8
0
  5
3080
 10
-67.2060
 20
60.1068
 30
-1.50070e-14
  70
    32
  0
VERTEX
  8
0
  5
3081
 10
-67.2565
 20
60.1068
 30
-1.50176e-14
  70
    32
  0
VERTEX
  8
0
  5
3082
 10
-67.3071
 20
60.1068
 30
-1.50282e-14
  70
    32
  0
VERTEX
  8
0
  5
3083
 10
-67.3578
 20
60.1068
 30
-1.50389e-14
  70
    32
  0
VERTEX
  8
0
  5
3084
 10
-67.4087
 20
60.1068
 30
-1.50496e-14
  70
    32
  0
VERTEX
  8
0
  5
3085
 10
-67.4597
 20
60.1068
 30
-1.50602e-14
  70
    32
  0
VERTEX
  8
0
  5
3086
 10
-67.5108
 20
60.1068
 30
-1.50709e-14
  70
    32
  0
VERTEX
  8
0
  5
3087
 10
-67.5620
 20
60.1068
 30
-1.50816e-14
  70
    32
  0
VERTEX
  8
0
  5
3088
 10
-67.6133
 20
60.1068
 30
-1.50922e-14
  70
    32
  0
VERTEX
  8
0
  5
3089
 10
-67.6648
 20
60.1068
 30
-1.51029e-14
  70
    32
  0
VERTEX
  8
0
  5
308A
 10
-67.7164
 20
60.1068
 30
-1.51136e-14
  70
    32
  0
VERTEX
  8
0
  5
308B
 10
-67.7681
 20
60.1068
 30
-1.51243e-14
  70
    32
  0
VERTEX
  8
0
  5
308C
 10
-67.8200
 20
60.1068
 30
-1.51350e-14
  70
    32
  0
VERTEX
  8
0
  5
308D
 10
-67.8719
 20
60.1068
 30
-1.51457e-14
  70
    32
  0
VERTEX
  8
0
  5
308E
 10
-67.9240
 20
60.1068
 30
-1.51564e-14
  70
    32
  0
VERTEX
  8
0
  5
308F
 10
-67.9763
 20
60.1068
 30
-1.51671e-14
  70
    32
  0
VERTEX
  8
0
  5
3090
 10
-68.0286
 20
60.1068
 30
-1.51778e-14
  70
    32
  0
VERTEX
  8
0
  5
3091
 10
-68.0811
 20
60.1068
 30
-1.51885e-14
  70
    32
  0
VERTEX
  8
0
  5
3092
 10
-68.1337
 20
60.1068
 30
-1.51992e-14
  70
    32
  0
VERTEX
  8
0
  5
3093
 10
-68.1863
 20
60.1068
 30
-1.52099e-14
  70
    32
  0
VERTEX
  8
0
  5
3094
 10
-68.2375
 20
60.1068
 30
-1.52203e-14
  70
    32
  0
VERTEX
  8
0
  5
3095
 10
-68.2870
 20
60.1068
 30
-1.52303e-14
  70
    32
  0
VERTEX
  8
0
  5
3096
 10
-68.3348
 20
60.1068
 30
-1.52399e-14
  70
    32
  0
VERTEX
  8
0
  5
3097
 10
-68.3810
 20
60.1068
 30
-1.52491e-14
  70
    32
  0
VERTEX
  8
0
  5
3098
 10
-68.4256
 20
60.1069
 30
-1.52580e-14
  70
    32
  0
VERTEX
  8
0
  5
3099
 10
-68.4687
 20
60.1069
 30
-1.52666e-14
  70
    32
  0
VERTEX
  8
0
  5
309A
 10
-68.5102
 20
60.1069
 30
-1.52748e-14
  70
    32
  0
VERTEX
  8
0
  5
309B
 10
-68.5503
 20
60.1069
 30
-1.52827e-14
  70
    32
  0
VERTEX
  8
0
  5
309C
 10
-68.5889
 20
60.1069
 30
-1.52902e-14
  70
    32
  0
VERTEX
  8
0
  5
309D
 10
-68.6261
 20
60.1070
 30
-1.52975e-14
  70
    32
  0
VERTEX
  8
0
  5
309E
 10
-68.6620
 20
60.1070
 30
-1.53044e-14
  70
    32
  0
VERTEX
  8
0
  5
309F
 10
-68.6965
 20
60.1070
 30
-1.53111e-14
  70
    32
  0
VERTEX
  8
0
  5
30A0
 10
-68.7297
 20
60.1070
 30
-1.53175e-14
  70
    32
  0
VERTEX
  8
0
  5
30A1
 10
-68.7616
 20
60.1070
 30
-1.53236e-14
  70
    32
  0
VERTEX
  8
0
  5
30A2
 10
-68.7923
 20
60.1070
 30
-1.53294e-14
  70
    32
  0
VERTEX
  8
0
  5
30A3
 10
-68.8218
 20
60.1071
 30
-1.53350e-14
  70
    32
  0
VERTEX
  8
0
  5
30A4
 10
-68.8502
 20
60.1071
 30
-1.53403e-14
  70
    32
  0
VERTEX
  8
0
  5
30A5
 10
-68.8774
 20
60.1071
 30
-1.53454e-14
  70
    32
  0
VERTEX
  8
0
  5
30A6
 10
-68.9036
 20
60.1071
 30
-1.53502e-14
  70
    32
  0
VERTEX
  8
0
  5
30A7
 10
-68.9287
 20
60.1070
 30
-1.53549e-14
  70
    32
  0
VERTEX
  8
0
  5
30A8
 10
-68.9528
 20
60.1070
 30
-1.53593e-14
  70
    32
  0
VERTEX
  8
0
  5
30A9
 10
-68.9759
 20
60.1070
 30
-1.53635e-14
  70
    32
  0
VERTEX
  8
0
  5
30AA
 10
-68.9980
 20
60.1070
 30
-1.53675e-14
  70
    32
  0
VERTEX
  8
0
  5
30AB
 10
-69.0193
 20
60.1069
 30
-1.53713e-14
  70
    32
  0
VERTEX
  8
0
  5
30AC
 10
-69.0397
 20
60.1069
 30
-1.53750e-14
  70
    32
  0
VERTEX
  8
0
  5
30AD
 10
-69.0592
 20
60.1068
 30
-1.53785e-14
  70
    32
  0
VERTEX
  8
0
  5
30AE
 10
-69.0780
 20
60.1068
 30
-1.53818e-14
  70
    32
  0
VERTEX
  8
0
  5
30AF
 10
-69.0960
 20
60.1067
 30
-1.53850e-14
  70
    32
  0
VERTEX
  8
0
  5
30B0
 10
-69.1133
 20
60.1066
 30
-1.53880e-14
  70
    32
  0
VERTEX
  8
0
  5
30B1
 10
-69.1299
 20
60.1065
 30
-1.53909e-14
  70
    32
  0
VERTEX
  8
0
  5
30B2
 10
-69.1458
 20
60.1064
 30
-1.53936e-14
  70
    32
  0
VERTEX
  8
0
  5
30B3
 10
-69.1611
 20
60.1063
 30
-1.53963e-14
  70
    32
  0
VERTEX
  8
0
  5
30B4
 10
-69.1758
 20
60.1061
 30
-1.53988e-14
  70
    32
  0
VERTEX
  8
0
  5
30B5
 10
-69.1900
 20
60.1060
 30
-1.54013e-14
  70
    32
  0
VERTEX
  8
0
  5
30B6
 10
-69.2037
 20
60.1058
 30
-1.54037e-14
  70
    32
  0
VERTEX
  8
0
  5
30B7
 10
-69.2169
 20
60.1057
 30
-1.54059e-14
  70
    32
  0
VERTEX
  8
0
  5
30B8
 10
-69.2296
 20
60.1055
 30
-1.54081e-14
  70
    32
  0
VERTEX
  8
0
  5
30B9
 10
-69.2420
 20
60.1053
 30
-1.54103e-14
  70
    32
  0
VERTEX
  8
0
  5
30BA
 10
-69.2540
 20
60.1050
 30
-1.54124e-14
  70
    32
  0
VERTEX
  8
0
  5
30BB
 10
-69.2656
 20
60.1048
 30
-1.54144e-14
  70
    32
  0
VERTEX
  8
0
  5
30BC
 10
-69.2770
 20
60.1045
 30
-1.54164e-14
  70
    32
  0
VERTEX
  8
0
  5
30BD
 10
-69.2881
 20
60.1043
 30
-1.54184e-14
  70
    32
  0
VERTEX
  8
0
  5
30BE
 10
-69.2990
 20
60.1040
 30
-1.54204e-14
  70
    32
  0
VERTEX
  8
0
  5
30BF
 10
-69.3097
 20
60.1037
 30
-1.54223e-14
  70
    32
  0
VERTEX
  8
0
  5
30C0
 10
-69.3202
 20
60.1033
 30
-1.54243e-14
  70
    32
  0
VERTEX
  8
0
  5
30C1
 10
-69.3306
 20
60.1030
 30
-1.54262e-14
  70
    32
  0
VERTEX
  8
0
  5
30C2
 10
-69.3410
 20
60.1026
 30
-1.54282e-14
  70
    32
  0
VERTEX
  8
0
  5
30C3
 10
-69.3513
 20
60.1022
 30
-1.54302e-14
  70
    32
  0
VERTEX
  8
0
  5
30C4
 10
-69.3616
 20
60.1018
 30
-1.54323e-14
  70
    32
  0
VERTEX
  8
0
  5
30C5
 10
-69.3719
 20
60.1014
 30
-1.54343e-14
  70
    32
  0
VERTEX
  8
0
  5
30C6
 10
-69.3823
 20
60.1009
 30
-1.54365e-14
  70
    32
  0
VERTEX
  8
0
  5
30C7
 10
-69.3928
 20
60.1004
 30
-1.54387e-14
  70
    32
  0
VERTEX
  8
0
  5
30C8
 10
-69.4034
 20
60.0999
 30
-1.54409e-14
  70
    32
  0
VERTEX
  8
0
  5
30C9
 10
-69.4142
 20
60.0994
 30
-1.54433e-14
  70
    32
  0
VERTEX
  8
0
  5
30CA
 10
-69.4251
 20
60.0988
 30
-1.54457e-14
  70
    32
  0
VERTEX
  8
0
  5
30CB
 10
-69.4360
 20
60.0983
 30
-1.54480e-14
  70
    32
  0
VERTEX
  8
0
  5
30CC
 10
-69.4469
 20
60.0977
 30
-1.54504e-14
  70
    32
  0
VERTEX
  8
0
  5
30CD
 10
-69.4578
 20
60.0971
 30
-1.54529e-14
  70
    32
  0
VERTEX
  8
0
  5
30CE
 10
-69.4688
 20
60.0964
 30
-1.54553e-14
  70
    32
  0
VERTEX
  8
0
  5
30CF
 10
-69.4797
 20
60.0958
 30
-1.54577e-14
  70
    32
  0
VERTEX
  8
0
  5
30D0
 10
-69.4907
 20
60.0951
 30
-1.54601e-14
  70
    32
  0
VERTEX
  8
0
  5
30D1
 10
-69.5016
 20
60.0944
 30
-1.54626e-14
  70
    32
  0
VERTEX
  8
0
  5
30D2
 10
-69.5126
 20
60.0937
 30
-1.54650e-14
  70
    32
  0
VERTEX
  8
0
  5
30D3
 10
-69.5236
 20
60.0930
 30
-1.54674e-14
  70
    32
  0
VERTEX
  8
0
  5
30D4
 10
-69.5346
 20
60.0922
 30
-1.54699e-14
  70
    32
  0
VERTEX
  8
0
  5
30D5
 10
-69.5456
 20
60.0915
 30
-1.54723e-14
  70
    32
  0
VERTEX
  8
0
  5
30D6
 10
-69.5566
 20
60.0907
 30
-1.54748e-14
  70
    32
  0
VERTEX
  8
0
  5
30D7
 10
-69.5676
 20
60.0898
 30
-1.54773e-14
  70
    32
  0
VERTEX
  8
0
  5
30D8
 10
-69.5786
 20
60.0890
 30
-1.54798e-14
  70
    32
  0
VERTEX
  8
0
  5
30D9
 10
-69.5896
 20
60.0882
 30
-1.54822e-14
  70
    32
  0
VERTEX
  8
0
  5
30DA
 10
-69.6007
 20
60.0873
 30
-1.54847e-14
  70
    32
  0
VERTEX
  8
0
  5
30DB
 10
-69.6117
 20
60.0864
 30
-1.54872e-14
  70
    32
  0
VERTEX
  8
0
  5
30DC
 10
-69.6228
 20
60.0855
 30
-1.54897e-14
  70
    32
  0
VERTEX
  8
0
  5
30DD
 10
-69.6338
 20
60.0845
 30
-1.54922e-14
  70
    32
  0
VERTEX
  8
0
  5
30DE
 10
-69.6449
 20
60.0836
 30
-1.54947e-14
  70
    32
  0
VERTEX
  8
0
  5
30DF
 10
-69.6560
 20
60.0826
 30
-1.54972e-14
  70
    32
  0
VERTEX
  8
0
  5
30E0
 10
-69.6671
 20
60.0816
 30
-1.54998e-14
  70
    32
  0
VERTEX
  8
0
  5
30E1
 10
-69.6782
 20
60.0806
 30
-1.55023e-14
  70
    32
  0
VERTEX
  8
0
  5
30E2
 10
-69.6893
 20
60.0795
 30
-1.55048e-14
  70
    32
  0
VERTEX
  8
0
  5
30E3
 10
-69.7004
 20
60.0784
 30
-1.55073e-14
  70
    32
  0
VERTEX
  8
0
  5
30E4
 10
-69.7115
 20
60.0774
 30
-1.55099e-14
  70
    32
  0
VERTEX
  8
0
  5
30E5
 10
-69.7227
 20
60.0763
 30
-1.55124e-14
  70
    32
  0
VERTEX
  8
0
  5
30E6
 10
-69.7338
 20
60.0751
 30
-1.55150e-14
  70
    32
  0
VERTEX
  8
0
  5
30E7
 10
-69.7450
 20
60.0740
 30
-1.55175e-14
  70
    32
  0
VERTEX
  8
0
  5
30E8
 10
-69.7561
 20
60.0728
 30
-1.55201e-14
  70
    32
  0
VERTEX
  8
0
  5
30E9
 10
-69.7673
 20
60.0716
 30
-1.55227e-14
  70
    32
  0
VERTEX
  8
0
  5
30EA
 10
-69.7785
 20
60.0704
 30
-1.55252e-14
  70
    32
  0
VERTEX
  8
0
  5
30EB
 10
-69.7896
 20
60.0691
 30
-1.55278e-14
  70
    32
  0
VERTEX
  8
0
  5
30EC
 10
-69.8008
 20
60.0679
 30
-1.55304e-14
  70
    32
  0
VERTEX
  8
0
  5
30ED
 10
-69.8120
 20
60.0666
 30
-1.55330e-14
  70
    32
  0
VERTEX
  8
0
  5
30EE
 10
-69.8232
 20
60.0653
 30
-1.55355e-14
  70
    32
  0
VERTEX
  8
0
  5
30EF
 10
-69.8344
 20
60.0640
 30
-1.55381e-14
  70
    32
  0
VERTEX
  8
0
  5
30F0
 10
-69.8457
 20
60.0626
 30
-1.55407e-14
  70
    32
  0
VERTEX
  8
0
  5
30F1
 10
-69.8569
 20
60.0612
 30
-1.55433e-14
  70
    32
  0
VERTEX
  8
0
  5
30F2
 10
-69.8681
 20
60.0598
 30
-1.55459e-14
  70
    32
  0
VERTEX
  8
0
  5
30F3
 10
-69.8794
 20
60.0584
 30
-1.55485e-14
  70
    32
  0
VERTEX
  8
0
  5
30F4
 10
-69.8906
 20
60.0570
 30
-1.55512e-14
  70
    32
  0
VERTEX
  8
0
  5
30F5
 10
-69.9019
 20
60.0555
 30
-1.55538e-14
  70
    32
  0
VERTEX
  8
0
  5
30F6
 10
-69.9132
 20
60.0540
 30
-1.55564e-14
  70
    32
  0
VERTEX
  8
0
  5
30F7
 10
-69.9244
 20
60.0525
 30
-1.55590e-14
  70
    32
  0
VERTEX
  8
0
  5
30F8
 10
-69.9357
 20
60.0510
 30
-1.55617e-14
  70
    32
  0
VERTEX
  8
0
  5
30F9
 10
-69.9470
 20
60.0494
 30
-1.55643e-14
  70
    32
  0
VERTEX
  8
0
  5
30FA
 10
-69.9583
 20
60.0479
 30
-1.55669e-14
  70
    32
  0
VERTEX
  8
0
  5
30FB
 10
-69.9696
 20
60.0463
 30
-1.55696e-14
  70
    32
  0
VERTEX
  8
0
  5
30FC
 10
-69.9810
 20
60.0446
 30
-1.55722e-14
  70
    32
  0
VERTEX
  8
0
  5
30FD
 10
-69.9923
 20
60.0430
 30
-1.55748e-14
  70
    32
  0
VERTEX
  8
0
  5
30FE
 10
-70.0036
 20
60.0413
 30
-1.55775e-14
  70
    32
  0
VERTEX
  8
0
  5
30FF
 10
-70.0149
 20
60.0396
 30
-1.55802e-14
  70
    32
  0
VERTEX
  8
0
  5
3100
 10
-70.0263
 20
60.0379
 30
-1.55828e-14
  70
    32
  0
VERTEX
  8
0
  5
3101
 10
-70.0376
 20
60.0362
 30
-1.55855e-14
  70
    32
  0
VERTEX
  8
0
  5
3102
 10
-70.0490
 20
60.0344
 30
-1.55881e-14
  70
    32
  0
VERTEX
  8
0
  5
3103
 10
-70.0604
 20
60.0326
 30
-1.55908e-14
  70
    32
  0
VERTEX
  8
0
  5
3104
 10
-70.0717
 20
60.0308
 30
-1.55935e-14
  70
    32
  0
VERTEX
  8
0
  5
3105
 10
-70.0831
 20
60.0290
 30
-1.55961e-14
  70
    32
  0
VERTEX
  8
0
  5
3106
 10
-70.0945
 20
60.0271
 30
-1.55988e-14
  70
    32
  0
VERTEX
  8
0
  5
3107
 10
-70.1059
 20
60.0252
 30
-1.56015e-14
  70
    32
  0
VERTEX
  8
0
  5
3108
 10
-70.1173
 20
60.0233
 30
-1.56042e-14
  70
    32
  0
VERTEX
  8
0
  5
3109
 10
-70.1287
 20
60.0214
 30
-1.56069e-14
  70
    32
  0
VERTEX
  8
0
  5
310A
 10
-70.1401
 20
60.0194
 30
-1.56095e-14
  70
    32
  0
VERTEX
  8
0
  5
310B
 10
-70.1516
 20
60.0175
 30
-1.56122e-14
  70
    32
  0
VERTEX
  8
0
  5
310C
 10
-70.1630
 20
60.0155
 30
-1.56149e-14
  70
    32
  0
VERTEX
  8
0
  5
310D
 10
-70.1744
 20
60.0134
 30
-1.56176e-14
  70
    32
  0
VERTEX
  8
0
  5
310E
 10
-70.1859
 20
60.0114
 30
-1.56203e-14
  70
    32
  0
VERTEX
  8
0
  5
310F
 10
-70.1973
 20
60.0093
 30
-1.56230e-14
  70
    32
  0
VERTEX
  8
0
  5
3110
 10
-70.2088
 20
60.0072
 30
-1.56257e-14
  70
    32
  0
VERTEX
  8
0
  5
3111
 10
-70.2203
 20
60.0051
 30
-1.56284e-14
  70
    32
  0
VERTEX
  8
0
  5
3112
 10
-70.2317
 20
60.0029
 30
-1.56311e-14
  70
    32
  0
VERTEX
  8
0
  5
3113
 10
-70.2432
 20
60.0008
 30
-1.56338e-14
  70
    32
  0
VERTEX
  8
0
  5
3114
 10
-70.2547
 20
59.9986
 30
-1.56366e-14
  70
    32
  0
VERTEX
  8
0
  5
3115
 10
-70.2662
 20
59.9963
 30
-1.56393e-14
  70
    32
  0
VERTEX
  8
0
  5
3116
 10
-70.2777
 20
59.9941
 30
-1.56420e-14
  70
    32
  0
VERTEX
  8
0
  5
3117
 10
-70.2892
 20
59.9918
 30
-1.56447e-14
  70
    32
  0
VERTEX
  8
0
  5
3118
 10
-70.3007
 20
59.9895
 30
-1.56474e-14
  70
    32
  0
VERTEX
  8
0
  5
3119
 10
-70.3122
 20
59.9872
 30
-1.56501e-14
  70
    32
  0
VERTEX
  8
0
  5
311A
 10
-70.3237
 20
59.9848
 30
-1.56529e-14
  70
    32
  0
VERTEX
  8
0
  5
311B
 10
-70.3353
 20
59.9825
 30
-1.56556e-14
  70
    32
  0
VERTEX
  8
0
  5
311C
 10
-70.3468
 20
59.9801
 30
-1.56583e-14
  70
    32
  0
VERTEX
  8
0
  5
311D
 10
-70.3584
 20
59.9777
 30
-1.56610e-14
  70
    32
  0
VERTEX
  8
0
  5
311E
 10
-70.3699
 20
59.9752
 30
-1.56638e-14
  70
    32
  0
VERTEX
  8
0
  5
311F
 10
-70.3815
 20
59.9727
 30
-1.56665e-14
  70
    32
  0
VERTEX
  8
0
  5
3120
 10
-70.3930
 20
59.9702
 30
-1.56692e-14
  70
    32
  0
VERTEX
  8
0
  5
3121
 10
-70.4046
 20
59.9677
 30
-1.56720e-14
  70
    32
  0
VERTEX
  8
0
  5
3122
 10
-70.4162
 20
59.9652
 30
-1.56747e-14
  70
    32
  0
VERTEX
  8
0
  5
3123
 10
-70.4278
 20
59.9626
 30
-1.56774e-14
  70
    32
  0
VERTEX
  8
0
  5
3124
 10
-70.4393
 20
59.9600
 30
-1.56802e-14
  70
    32
  0
VERTEX
  8
0
  5
3125
 10
-70.4509
 20
59.9574
 30
-1.56829e-14
  70
    32
  0
VERTEX
  8
0
  5
3126
 10
-70.4625
 20
59.9547
 30
-1.56856e-14
  70
    32
  0
VERTEX
  8
0
  5
3127
 10
-70.4741
 20
59.9520
 30
-1.56884e-14
  70
    32
  0
VERTEX
  8
0
  5
3128
 10
-70.4858
 20
59.9493
 30
-1.56911e-14
  70
    32
  0
VERTEX
  8
0
  5
3129
 10
-70.4974
 20
59.9466
 30
-1.56939e-14
  70
    32
  0
VERTEX
  8
0
  5
312A
 10
-70.5090
 20
59.9438
 30
-1.56966e-14
  70
    32
  0
VERTEX
  8
0
  5
312B
 10
-70.5206
 20
59.9410
 30
-1.56993e-14
  70
    32
  0
VERTEX
  8
0
  5
312C
 10
-70.5323
 20
59.9382
 30
-1.57021e-14
  70
    32
  0
VERTEX
  8
0
  5
312D
 10
-70.5439
 20
59.9354
 30
-1.57048e-14
  70
    32
  0
VERTEX
  8
0
  5
312E
 10
-70.5556
 20
59.9325
 30
-1.57076e-14
  70
    32
  0
VERTEX
  8
0
  5
312F
 10
-70.5672
 20
59.9296
 30
-1.57103e-14
  70
    32
  0
VERTEX
  8
0
  5
3130
 10
-70.5789
 20
59.9267
 30
-1.57131e-14
  70
    32
  0
VERTEX
  8
0
  5
3131
 10
-70.5905
 20
59.9238
 30
-1.57158e-14
  70
    32
  0
VERTEX
  8
0
  5
3132
 10
-70.6022
 20
59.9208
 30
-1.57186e-14
  70
    32
  0
VERTEX
  8
0
  5
3133
 10
-70.6139
 20
59.9178
 30
-1.57213e-14
  70
    32
  0
VERTEX
  8
0
  5
3134
 10
-70.6256
 20
59.9148
 30
-1.57241e-14
  70
    32
  0
VERTEX
  8
0
  5
3135
 10
-70.6372
 20
59.9117
 30
-1.57268e-14
  70
    32
  0
VERTEX
  8
0
  5
3136
 10
-70.6489
 20
59.9087
 30
-1.57295e-14
  70
    32
  0
VERTEX
  8
0
  5
3137
 10
-70.6606
 20
59.9055
 30
-1.57323e-14
  70
    32
  0
VERTEX
  8
0
  5
3138
 10
-70.6723
 20
59.9024
 30
-1.57350e-14
  70
    32
  0
VERTEX
  8
0
  5
3139
 10
-70.6840
 20
59.8993
 30
-1.57378e-14
  70
    32
  0
VERTEX
  8
0
  5
313A
 10
-70.6958
 20
59.8961
 30
-1.57405e-14
  70
    32
  0
VERTEX
  8
0
  5
313B
 10
-70.7075
 20
59.8929
 30
-1.57433e-14
  70
    32
  0
VERTEX
  8
0
  5
313C
 10
-70.7192
 20
59.8896
 30
-1.57460e-14
  70
    32
  0
VERTEX
  8
0
  5
313D
 10
-70.7309
 20
59.8863
 30
-1.57488e-14
  70
    32
  0
VERTEX
  8
0
  5
313E
 10
-70.7427
 20
59.8831
 30
-1.57515e-14
  70
    32
  0
VERTEX
  8
0
  5
313F
 10
-70.7544
 20
59.8797
 30
-1.57543e-14
  70
    32
  0
VERTEX
  8
0
  5
3140
 10
-70.7662
 20
59.8764
 30
-1.57570e-14
  70
    32
  0
VERTEX
  8
0
  5
3141
 10
-70.7779
 20
59.8730
 30
-1.57597e-14
  70
    32
  0
VERTEX
  8
0
  5
3142
 10
-70.7897
 20
59.8696
 30
-1.57625e-14
  70
    32
  0
VERTEX
  8
0
  5
3143
 10
-70.8014
 20
59.8662
 30
-1.57652e-14
  70
    32
  0
VERTEX
  8
0
  5
3144
 10
-70.8132
 20
59.8627
 30
-1.57680e-14
  70
    32
  0
VERTEX
  8
0
  5
3145
 10
-70.8250
 20
59.8592
 30
-1.57707e-14
  70
    32
  0
VERTEX
  8
0
  5
3146
 10
-70.8367
 20
59.8557
 30
-1.57734e-14
  70
    32
  0
VERTEX
  8
0
  5
3147
 10
-70.8485
 20
59.8521
 30
-1.57762e-14
  70
    32
  0
VERTEX
  8
0
  5
3148
 10
-70.8603
 20
59.8486
 30
-1.57789e-14
  70
    32
  0
VERTEX
  8
0
  5
3149
 10
-70.8721
 20
59.8450
 30
-1.57816e-14
  70
    32
  0
VERTEX
  8
0
  5
314A
 10
-70.8839
 20
59.8413
 30
-1.57844e-14
  70
    32
  0
VERTEX
  8
0
  5
314B
 10
-70.8957
 20
59.8377
 30
-1.57871e-14
  70
    32
  0
VERTEX
  8
0
  5
314C
 10
-70.9075
 20
59.8340
 30
-1.57898e-14
  70
    32
  0
VERTEX
  8
0
  5
314D
 10
-70.9193
 20
59.8303
 30
-1.57926e-14
  70
    32
  0
VERTEX
  8
0
  5
314E
 10
-70.9311
 20
59.8265
 30
-1.57953e-14
  70
    32
  0
VERTEX
  8
0
  5
314F
 10
-70.9429
 20
59.8227
 30
-1.57980e-14
  70
    32
  0
VERTEX
  8
0
  5
3150
 10
-70.9548
 20
59.8189
 30
-1.58008e-14
  70
    32
  0
VERTEX
  8
0
  5
3151
 10
-70.9666
 20
59.8151
 30
-1.58035e-14
  70
    32
  0
VERTEX
  8
0
  5
3152
 10
-70.9784
 20
59.8112
 30
-1.58062e-14
  70
    32
  0
VERTEX
  8
0
  5
3153
 10
-70.9902
 20
59.8074
 30
-1.58089e-14
  70
    32
  0
VERTEX
  8
0
  5
3154
 10
-71.0021
 20
59.8034
 30
-1.58116e-14
  70
    32
  0
VERTEX
  8
0
  5
3155
 10
-71.0139
 20
59.7995
 30
-1.58144e-14
  70
    32
  0
VERTEX
  8
0
  5
3156
 10
-71.0258
 20
59.7955
 30
-1.58171e-14
  70
    32
  0
VERTEX
  8
0
  5
3157
 10
-71.0376
 20
59.7915
 30
-1.58198e-14
  70
    32
  0
VERTEX
  8
0
  5
3158
 10
-71.0495
 20
59.7875
 30
-1.58225e-14
  70
    32
  0
VERTEX
  8
0
  5
3159
 10
-71.0614
 20
59.7834
 30
-1.58252e-14
  70
    32
  0
VERTEX
  8
0
  5
315A
 10
-71.0732
 20
59.7793
 30
-1.58279e-14
  70
    32
  0
VERTEX
  8
0
  5
315B
 10
-71.0851
 20
59.7752
 30
-1.58306e-14
  70
    32
  0
VERTEX
  8
0
  5
315C
 10
-71.0970
 20
59.7710
 30
-1.58333e-14
  70
    32
  0
VERTEX
  8
0
  5
315D
 10
-71.1088
 20
59.7669
 30
-1.58360e-14
  70
    32
  0
VERTEX
  8
0
  5
315E
 10
-71.1207
 20
59.7626
 30
-1.58387e-14
  70
    32
  0
VERTEX
  8
0
  5
315F
 10
-71.1326
 20
59.7584
 30
-1.58414e-14
  70
    32
  0
VERTEX
  8
0
  5
3160
 10
-71.1445
 20
59.7541
 30
-1.58441e-14
  70
    32
  0
VERTEX
  8
0
  5
3161
 10
-71.1564
 20
59.7498
 30
-1.58468e-14
  70
    32
  0
VERTEX
  8
0
  5
3162
 10
-71.1683
 20
59.7455
 30
-1.58495e-14
  70
    32
  0
VERTEX
  8
0
  5
3163
 10
-71.1802
 20
59.7411
 30
-1.58522e-14
  70
    32
  0
VERTEX
  8
0
  5
3164
 10
-71.1921
 20
59.7368
 30
-1.58548e-14
  70
    32
  0
VERTEX
  8
0
  5
3165
 10
-71.2040
 20
59.7323
 30
-1.58575e-14
  70
    32
  0
VERTEX
  8
0
  5
3166
 10
-71.2159
 20
59.7279
 30
-1.58602e-14
  70
    32
  0
VERTEX
  8
0
  5
3167
 10
-71.2279
 20
59.7234
 30
-1.58629e-14
  70
    32
  0
VERTEX
  8
0
  5
3168
 10
-71.2398
 20
59.7189
 30
-1.58655e-14
  70
    32
  0
VERTEX
  8
0
  5
3169
 10
-71.2517
 20
59.7143
 30
-1.58682e-14
  70
    32
  0
VERTEX
  8
0
  5
316A
 10
-71.2636
 20
59.7098
 30
-1.58709e-14
  70
    32
  0
VERTEX
  8
0
  5
316B
 10
-71.2756
 20
59.7052
 30
-1.58735e-14
  70
    32
  0
VERTEX
  8
0
  5
316C
 10
-71.2875
 20
59.7005
 30
-1.58762e-14
  70
    32
  0
VERTEX
  8
0
  5
316D
 10
-71.2994
 20
59.6959
 30
-1.58788e-14
  70
    32
  0
VERTEX
  8
0
  5
316E
 10
-71.3114
 20
59.6912
 30
-1.58815e-14
  70
    32
  0
VERTEX
  8
0
  5
316F
 10
-71.3233
 20
59.6864
 30
-1.58841e-14
  70
    32
  0
VERTEX
  8
0
  5
3170
 10
-71.3353
 20
59.6817
 30
-1.58868e-14
  70
    32
  0
VERTEX
  8
0
  5
3171
 10
-71.3472
 20
59.6769
 30
-1.58894e-14
  70
    32
  0
VERTEX
  8
0
  5
3172
 10
-71.3592
 20
59.6721
 30
-1.58920e-14
  70
    32
  0
VERTEX
  8
0
  5
3173
 10
-71.3712
 20
59.6672
 30
-1.58947e-14
  70
    32
  0
VERTEX
  8
0
  5
3174
 10
-71.3831
 20
59.6623
 30
-1.58973e-14
  70
    32
  0
VERTEX
  8
0
  5
3175
 10
-71.3951
 20
59.6574
 30
-1.58999e-14
  70
    32
  0
VERTEX
  8
0
  5
3176
 10
-71.4071
 20
59.6525
 30
-1.59025e-14
  70
    32
  0
VERTEX
  8
0
  5
3177
 10
-71.4190
 20
59.6475
 30
-1.59052e-14
  70
    32
  0
VERTEX
  8
0
  5
3178
 10
-71.4310
 20
59.6425
 30
-1.59078e-14
  70
    32
  0
VERTEX
  8
0
  5
3179
 10
-71.4430
 20
59.6375
 30
-1.59104e-14
  70
    32
  0
VERTEX
  8
0
  5
317A
 10
-71.4550
 20
59.6324
 30
-1.59130e-14
  70
    32
  0
VERTEX
  8
0
  5
317B
 10
-71.4670
 20
59.6273
 30
-1.59156e-14
  70
    32
  0
VERTEX
  8
0
  5
317C
 10
-71.4789
 20
59.6222
 30
-1.59182e-14
  70
    32
  0
VERTEX
  8
0
  5
317D
 10
-71.4909
 20
59.6170
 30
-1.59208e-14
  70
    32
  0
VERTEX
  8
0
  5
317E
 10
-71.5029
 20
59.6118
 30
-1.59234e-14
  70
    32
  0
VERTEX
  8
0
  5
317F
 10
-71.5149
 20
59.6066
 30
-1.59259e-14
  70
    32
  0
VERTEX
  8
0
  5
3180
 10
-71.5269
 20
59.6013
 30
-1.59285e-14
  70
    32
  0
VERTEX
  8
0
  5
3181
 10
-71.5389
 20
59.5960
 30
-1.59311e-14
  70
    32
  0
VERTEX
  8
0
  5
3182
 10
-71.5509
 20
59.5907
 30
-1.59337e-14
  70
    32
  0
VERTEX
  8
0
  5
3183
 10
-71.5630
 20
59.5853
 30
-1.59362e-14
  70
    32
  0
VERTEX
  8
0
  5
3184
 10
-71.5750
 20
59.5800
 30
-1.59388e-14
  70
    32
  0
VERTEX
  8
0
  5
3185
 10
-71.5870
 20
59.5745
 30
-1.59413e-14
  70
    32
  0
VERTEX
  8
0
  5
3186
 10
-71.5990
 20
59.5691
 30
-1.59439e-14
  70
    32
  0
VERTEX
  8
0
  5
3187
 10
-71.6110
 20
59.5636
 30
-1.59464e-14
  70
    32
  0
VERTEX
  8
0
  5
3188
 10
-71.6230
 20
59.5581
 30
-1.59490e-14
  70
    32
  0
VERTEX
  8
0
  5
3189
 10
-71.6351
 20
59.5525
 30
-1.59515e-14
  70
    32
  0
VERTEX
  8
0
  5
318A
 10
-71.6471
 20
59.5469
 30
-1.59540e-14
  70
    32
  0
VERTEX
  8
0
  5
318B
 10
-71.6591
 20
59.5413
 30
-1.59565e-14
  70
    32
  0
VERTEX
  8
0
  5
318C
 10
-71.6712
 20
59.5357
 30
-1.59591e-14
  70
    32
  0
VERTEX
  8
0
  5
318D
 10
-71.6832
 20
59.5300
 30
-1.59616e-14
  70
    32
  0
VERTEX
  8
0
  5
318E
 10
-71.6952
 20
59.5243
 30
-1.59641e-14
  70
    32
  0
VERTEX
  8
0
  5
318F
 10
-71.7073
 20
59.5185
 30
-1.59666e-14
  70
    32
  0
VERTEX
  8
0
  5
3190
 10
-71.7193
 20
59.5127
 30
-1.59691e-14
  70
    32
  0
VERTEX
  8
0
  5
3191
 10
-71.7314
 20
59.5069
 30
-1.59717e-14
  70
    32
  0
VERTEX
  8
0
  5
3192
 10
-71.7434
 20
59.5011
 30
-1.59742e-14
  70
    32
  0
VERTEX
  8
0
  5
3193
 10
-71.7554
 20
59.4952
 30
-1.59768e-14
  70
    32
  0
VERTEX
  8
0
  5
3194
 10
-71.7675
 20
59.4893
 30
-1.59793e-14
  70
    32
  0
VERTEX
  8
0
  5
3195
 10
-71.7795
 20
59.4834
 30
-1.59819e-14
  70
    32
  0
VERTEX
  8
0
  5
3196
 10
-71.7916
 20
59.4774
 30
-1.59845e-14
  70
    32
  0
VERTEX
  8
0
  5
3197
 10
-71.8036
 20
59.4714
 30
-1.59872e-14
  70
    32
  0
VERTEX
  8
0
  5
3198
 10
-71.8157
 20
59.4653
 30
-1.59898e-14
  70
    32
  0
VERTEX
  8
0
  5
3199
 10
-71.8277
 20
59.4592
 30
-1.59924e-14
  70
    32
  0
VERTEX
  8
0
  5
319A
 10
-71.8398
 20
59.4531
 30
-1.59951e-14
  70
    32
  0
VERTEX
  8
0
  5
319B
 10
-71.8518
 20
59.4470
 30
-1.59978e-14
  70
    32
  0
VERTEX
  8
0
  5
319C
 10
-71.8639
 20
59.4408
 30
-1.60004e-14
  70
    32
  0
VERTEX
  8
0
  5
319D
 10
-71.8759
 20
59.4346
 30
-1.60031e-14
  70
    32
  0
VERTEX
  8
0
  5
319E
 10
-71.8880
 20
59.4283
 30
-1.60058e-14
  70
    32
  0
VERTEX
  8
0
  5
319F
 10
-71.9000
 20
59.4221
 30
-1.60086e-14
  70
    32
  0
VERTEX
  8
0
  5
31A0
 10
-71.9121
 20
59.4158
 30
-1.60113e-14
  70
    32
  0
VERTEX
  8
0
  5
31A1
 10
-71.9241
 20
59.4094
 30
-1.60140e-14
  70
    32
  0
VERTEX
  8
0
  5
31A2
 10
-71.9362
 20
59.4030
 30
-1.60168e-14
  70
    32
  0
VERTEX
  8
0
  5
31A3
 10
-71.9482
 20
59.3966
 30
-1.60195e-14
  70
    32
  0
VERTEX
  8
0
  5
31A4
 10
-71.9602
 20
59.3902
 30
-1.60223e-14
  70
    32
  0
VERTEX
  8
0
  5
31A5
 10
-71.9723
 20
59.3837
 30
-1.60251e-14
  70
    32
  0
VERTEX
  8
0
  5
31A6
 10
-71.9843
 20
59.3772
 30
-1.60279e-14
  70
    32
  0
VERTEX
  8
0
  5
31A7
 10
-71.9964
 20
59.3706
 30
-1.60307e-14
  70
    32
  0
VERTEX
  8
0
  5
31A8
 10
-72.0084
 20
59.3640
 30
-1.60335e-14
  70
    32
  0
VERTEX
  8
0
  5
31A9
 10
-72.0204
 20
59.3574
 30
-1.60363e-14
  70
    32
  0
VERTEX
  8
0
  5
31AA
 10
-72.0325
 20
59.3507
 30
-1.60391e-14
  70
    32
  0
VERTEX
  8
0
  5
31AB
 10
-72.0445
 20
59.3440
 30
-1.60419e-14
  70
    32
  0
VERTEX
  8
0
  5
31AC
 10
-72.0566
 20
59.3373
 30
-1.60448e-14
  70
    32
  0
VERTEX
  8
0
  5
31AD
 10
-72.0686
 20
59.3305
 30
-1.60476e-14
  70
    32
  0
VERTEX
  8
0
  5
31AE
 10
-72.0806
 20
59.3237
 30
-1.60505e-14
  70
    32
  0
VERTEX
  8
0
  5
31AF
 10
-72.0926
 20
59.3169
 30
-1.60534e-14
  70
    32
  0
VERTEX
  8
0
  5
31B0
 10
-72.1047
 20
59.3100
 30
-1.60562e-14
  70
    32
  0
VERTEX
  8
0
  5
31B1
 10
-72.1167
 20
59.3031
 30
-1.60591e-14
  70
    32
  0
VERTEX
  8
0
  5
31B2
 10
-72.1287
 20
59.2962
 30
-1.60620e-14
  70
    32
  0
VERTEX
  8
0
  5
31B3
 10
-72.1407
 20
59.2892
 30
-1.60649e-14
  70
    32
  0
VERTEX
  8
0
  5
31B4
 10
-72.1528
 20
59.2822
 30
-1.60678e-14
  70
    32
  0
VERTEX
  8
0
  5
31B5
 10
-72.1648
 20
59.2751
 30
-1.60707e-14
  70
    32
  0
VERTEX
  8
0
  5
31B6
 10
-72.1768
 20
59.2681
 30
-1.60736e-14
  70
    32
  0
VERTEX
  8
0
  5
31B7
 10
-72.1888
 20
59.2609
 30
-1.60766e-14
  70
    32
  0
VERTEX
  8
0
  5
31B8
 10
-72.2008
 20
59.2538
 30
-1.60795e-14
  70
    32
  0
VERTEX
  8
0
  5
31B9
 10
-72.2128
 20
59.2466
 30
-1.60824e-14
  70
    32
  0
VERTEX
  8
0
  5
31BA
 10
-72.2248
 20
59.2394
 30
-1.60854e-14
  70
    32
  0
VERTEX
  8
0
  5
31BB
 10
-72.2368
 20
59.2321
 30
-1.60883e-14
  70
    32
  0
VERTEX
  8
0
  5
31BC
 10
-72.2488
 20
59.2248
 30
-1.60913e-14
  70
    32
  0
VERTEX
  8
0
  5
31BD
 10
-72.2608
 20
59.2174
 30
-1.60942e-14
  70
    32
  0
VERTEX
  8
0
  5
31BE
 10
-72.2728
 20
59.2101
 30
-1.60972e-14
  70
    32
  0
VERTEX
  8
0
  5
31BF
 10
-72.2847
 20
59.2027
 30
-1.61001e-14
  70
    32
  0
VERTEX
  8
0
  5
31C0
 10
-72.2967
 20
59.1952
 30
-1.61031e-14
  70
    32
  0
VERTEX
  8
0
  5
31C1
 10
-72.3087
 20
59.1877
 30
-1.61061e-14
  70
    32
  0
VERTEX
  8
0
  5
31C2
 10
-72.3207
 20
59.1802
 30
-1.61091e-14
  70
    32
  0
VERTEX
  8
0
  5
31C3
 10
-72.3326
 20
59.1726
 30
-1.61120e-14
  70
    32
  0
VERTEX
  8
0
  5
31C4
 10
-72.3446
 20
59.1650
 30
-1.61150e-14
  70
    32
  0
VERTEX
  8
0
  5
31C5
 10
-72.3565
 20
59.1574
 30
-1.61180e-14
  70
    32
  0
VERTEX
  8
0
  5
31C6
 10
-72.3685
 20
59.1497
 30
-1.61210e-14
  70
    32
  0
VERTEX
  8
0
  5
31C7
 10
-72.3804
 20
59.1420
 30
-1.61240e-14
  70
    32
  0
VERTEX
  8
0
  5
31C8
 10
-72.3924
 20
59.1343
 30
-1.61270e-14
  70
    32
  0
VERTEX
  8
0
  5
31C9
 10
-72.4043
 20
59.1265
 30
-1.61300e-14
  70
    32
  0
VERTEX
  8
0
  5
31CA
 10
-72.4163
 20
59.1187
 30
-1.61330e-14
  70
    32
  0
VERTEX
  8
0
  5
31CB
 10
-72.4282
 20
59.1108
 30
-1.61360e-14
  70
    32
  0
VERTEX
  8
0
  5
31CC
 10
-72.4401
 20
59.1029
 30
-1.61390e-14
  70
    32
  0
VERTEX
  8
0
  5
31CD
 10
-72.4520
 20
59.0950
 30
-1.61420e-14
  70
    32
  0
VERTEX
  8
0
  5
31CE
 10
-72.4639
 20
59.0870
 30
-1.61450e-14
  70
    32
  0
VERTEX
  8
0
  5
31CF
 10
-72.4759
 20
59.0790
 30
-1.61480e-14
  70
    32
  0
VERTEX
  8
0
  5
31D0
 10
-72.4878
 20
59.0709
 30
-1.61510e-14
  70
    32
  0
VERTEX
  8
0
  5
31D1
 10
-72.4997
 20
59.0629
 30
-1.61540e-14
  70
    32
  0
VERTEX
  8
0
  5
31D2
 10
-72.5115
 20
59.0547
 30
-1.61570e-14
  70
    32
  0
VERTEX
  8
0
  5
31D3
 10
-72.5234
 20
59.0466
 30
-1.61600e-14
  70
    32
  0
VERTEX
  8
0
  5
31D4
 10
-72.5353
 20
59.0384
 30
-1.61630e-14
  70
    32
  0
VERTEX
  8
0
  5
31D5
 10
-72.5472
 20
59.0301
 30
-1.61661e-14
  70
    32
  0
VERTEX
  8
0
  5
31D6
 10
-72.5590
 20
59.0218
 30
-1.61691e-14
  70
    32
  0
VERTEX
  8
0
  5
31D7
 10
-72.5709
 20
59.0135
 30
-1.61721e-14
  70
    32
  0
VERTEX
  8
0
  5
31D8
 10
-72.5828
 20
59.0052
 30
-1.61751e-14
  70
    32
  0
VERTEX
  8
0
  5
31D9
 10
-72.5946
 20
58.9968
 30
-1.61781e-14
  70
    32
  0
VERTEX
  8
0
  5
31DA
 10
-72.6064
 20
58.9883
 30
-1.61811e-14
  70
    32
  0
VERTEX
  8
0
  5
31DB
 10
-72.6183
 20
58.9798
 30
-1.61841e-14
  70
    32
  0
VERTEX
  8
0
  5
31DC
 10
-72.6301
 20
58.9713
 30
-1.61871e-14
  70
    32
  0
VERTEX
  8
0
  5
31DD
 10
-72.6419
 20
58.9628
 30
-1.61901e-14
  70
    32
  0
VERTEX
  8
0
  5
31DE
 10
-72.6537
 20
58.9542
 30
-1.61931e-14
  70
    32
  0
VERTEX
  8
0
  5
31DF
 10
-72.6656
 20
58.9455
 30
-1.61961e-14
  70
    32
  0
VERTEX
  8
0
  5
31E0
 10
-72.6774
 20
58.9369
 30
-1.61991e-14
  70
    32
  0
VERTEX
  8
0
  5
31E1
 10
-72.6891
 20
58.9282
 30
-1.62021e-14
  70
    32
  0
VERTEX
  8
0
  5
31E2
 10
-72.7009
 20
58.9194
 30
-1.62050e-14
  70
    32
  0
VERTEX
  8
0
  5
31E3
 10
-72.7127
 20
58.9106
 30
-1.62080e-14
  70
    32
  0
VERTEX
  8
0
  5
31E4
 10
-72.7245
 20
58.9018
 30
-1.62110e-14
  70
    32
  0
VERTEX
  8
0
  5
31E5
 10
-72.7362
 20
58.8929
 30
-1.62140e-14
  70
    32
  0
VERTEX
  8
0
  5
31E6
 10
-72.7480
 20
58.8840
 30
-1.62170e-14
  70
    32
  0
VERTEX
  8
0
  5
31E7
 10
-72.7597
 20
58.8750
 30
-1.62199e-14
  70
    32
  0
VERTEX
  8
0
  5
31E8
 10
-72.7715
 20
58.8660
 30
-1.62229e-14
  70
    32
  0
VERTEX
  8
0
  5
31E9
 10
-72.7832
 20
58.8570
 30
-1.62258e-14
  70
    32
  0
VERTEX
  8
0
  5
31EA
 10
-72.7949
 20
58.8479
 30
-1.62288e-14
  70
    32
  0
VERTEX
  8
0
  5
31EB
 10
-72.8066
 20
58.8388
 30
-1.62317e-14
  70
    32
  0
VERTEX
  8
0
  5
31EC
 10
-72.8183
 20
58.8297
 30
-1.62347e-14
  70
    32
  0
VERTEX
  8
0
  5
31ED
 10
-72.8300
 20
58.8205
 30
-1.62376e-14
  70
    32
  0
VERTEX
  8
0
  5
31EE
 10
-72.8417
 20
58.8112
 30
-1.62406e-14
  70
    32
  0
VERTEX
  8
0
  5
31EF
 10
-72.8534
 20
58.8019
 30
-1.62435e-14
  70
    32
  0
VERTEX
  8
0
  5
31F0
 10
-72.8651
 20
58.7926
 30
-1.62464e-14
  70
    32
  0
VERTEX
  8
0
  5
31F1
 10
-72.8767
 20
58.7833
 30
-1.62493e-14
  70
    32
  0
VERTEX
  8
0
  5
31F2
 10
-72.8884
 20
58.7739
 30
-1.62522e-14
  70
    32
  0
VERTEX
  8
0
  5
31F3
 10
-72.9000
 20
58.7644
 30
-1.62551e-14
  70
    32
  0
VERTEX
  8
0
  5
31F4
 10
-72.9117
 20
58.7549
 30
-1.62580e-14
  70
    32
  0
VERTEX
  8
0
  5
31F5
 10
-72.9233
 20
58.7454
 30
-1.62609e-14
  70
    32
  0
VERTEX
  8
0
  5
31F6
 10
-72.9349
 20
58.7358
 30
-1.62638e-14
  70
    32
  0
VERTEX
  8
0
  5
31F7
 10
-72.9465
 20
58.7262
 30
-1.62667e-14
  70
    32
  0
VERTEX
  8
0
  5
31F8
 10
-72.9581
 20
58.7166
 30
-1.62695e-14
  70
    32
  0
VERTEX
  8
0
  5
31F9
 10
-72.9697
 20
58.7069
 30
-1.62724e-14
  70
    32
  0
VERTEX
  8
0
  5
31FA
 10
-72.9812
 20
58.6972
 30
-1.62752e-14
  70
    32
  0
VERTEX
  8
0
  5
31FB
 10
-72.9928
 20
58.6874
 30
-1.62781e-14
  70
    32
  0
VERTEX
  8
0
  5
31FC
 10
-73.0044
 20
58.6776
 30
-1.62809e-14
  70
    32
  0
VERTEX
  8
0
  5
31FD
 10
-73.0159
 20
58.6677
 30
-1.62837e-14
  70
    32
  0
VERTEX
  8
0
  5
31FE
 10
-73.0274
 20
58.6578
 30
-1.62865e-14
  70
    32
  0
VERTEX
  8
0
  5
31FF
 10
-73.0390
 20
58.6478
 30
-1.62893e-14
  70
    32
  0
VERTEX
  8
0
  5
3200
 10
-73.0505
 20
58.6379
 30
-1.62921e-14
  70
    32
  0
VERTEX
  8
0
  5
3201
 10
-73.0620
 20
58.6278
 30
-1.62949e-14
  70
    32
  0
VERTEX
  8
0
  5
3202
 10
-73.0735
 20
58.6178
 30
-1.62977e-14
  70
    32
  0
VERTEX
  8
0
  5
3203
 10
-73.0849
 20
58.6076
 30
-1.63005e-14
  70
    32
  0
VERTEX
  8
0
  5
3204
 10
-73.0964
 20
58.5975
 30
-1.63032e-14
  70
    32
  0
VERTEX
  8
0
  5
3205
 10
-73.1079
 20
58.5873
 30
-1.63060e-14
  70
    32
  0
VERTEX
  8
0
  5
3206
 10
-73.1193
 20
58.5770
 30
-1.63087e-14
  70
    32
  0
VERTEX
  8
0
  5
3207
 10
-73.1307
 20
58.5667
 30
-1.63114e-14
  70
    32
  0
VERTEX
  8
0
  5
3208
 10
-73.1422
 20
58.5564
 30
-1.63141e-14
  70
    32
  0
VERTEX
  8
0
  5
3209
 10
-73.1536
 20
58.5460
 30
-1.63168e-14
  70
    32
  0
VERTEX
  8
0
  5
320A
 10
-73.1650
 20
58.5356
 30
-1.63195e-14
  70
    32
  0
VERTEX
  8
0
  5
320B
 10
-73.1764
 20
58.5252
 30
-1.63222e-14
  70
    32
  0
VERTEX
  8
0
  5
320C
 10
-73.1877
 20
58.5147
 30
-1.63249e-14
  70
    32
  0
VERTEX
  8
0
  5
320D
 10
-73.1991
 20
58.5041
 30
-1.63275e-14
  70
    32
  0
VERTEX
  8
0
  5
320E
 10
-73.2104
 20
58.4935
 30
-1.63302e-14
  70
    32
  0
VERTEX
  8
0
  5
320F
 10
-73.2218
 20
58.4829
 30
-1.63328e-14
  70
    32
  0
VERTEX
  8
0
  5
3210
 10
-73.2331
 20
58.4722
 30
-1.63354e-14
  70
    32
  0
VERTEX
  8
0
  5
3211
 10
-73.2444
 20
58.4615
 30
-1.63380e-14
  70
    32
  0
VERTEX
  8
0
  5
3212
 10
-73.2557
 20
58.4507
 30
-1.63406e-14
  70
    32
  0
VERTEX
  8
0
  5
3213
 10
-73.2670
 20
58.4399
 30
-1.63432e-14
  70
    32
  0
VERTEX
  8
0
  5
3214
 10
-73.2783
 20
58.4291
 30
-1.63457e-14
  70
    32
  0
VERTEX
  8
0
  5
3215
 10
-73.2896
 20
58.4182
 30
-1.63483e-14
  70
    32
  0
VERTEX
  8
0
  5
3216
 10
-73.3008
 20
58.4072
 30
-1.63508e-14
  70
    32
  0
VERTEX
  8
0
  5
3217
 10
-73.3120
 20
58.3962
 30
-1.63533e-14
  70
    32
  0
VERTEX
  8
0
  5
3218
 10
-73.3233
 20
58.3852
 30
-1.63558e-14
  70
    32
  0
VERTEX
  8
0
  5
3219
 10
-73.3345
 20
58.3741
 30
-1.63583e-14
  70
    32
  0
VERTEX
  8
0
  5
321A
 10
-73.3457
 20
58.3630
 30
-1.63608e-14
  70
    32
  0
VERTEX
  8
0
  5
321B
 10
-73.3569
 20
58.3518
 30
-1.63633e-14
  70
    32
  0
VERTEX
  8
0
  5
321C
 10
-73.3680
 20
58.3406
 30
-1.63657e-14
  70
    32
  0
VERTEX
  8
0
  5
321D
 10
-73.3792
 20
58.3294
 30
-1.63681e-14
  70
    32
  0
VERTEX
  8
0
  5
321E
 10
-73.3903
 20
58.3181
 30
-1.63705e-14
  70
    32
  0
VERTEX
  8
0
  5
321F
 10
-73.4014
 20
58.3067
 30
-1.63729e-14
  70
    32
  0
VERTEX
  8
0
  5
3220
 10
-73.4126
 20
58.2953
 30
-1.63753e-14
  70
    32
  0
VERTEX
  8
0
  5
3221
 10
-73.4237
 20
58.2839
 30
-1.63777e-14
  70
    32
  0
VERTEX
  8
0
  5
3222
 10
-73.4347
 20
58.2724
 30
-1.63800e-14
  70
    32
  0
VERTEX
  8
0
  5
3223
 10
-73.4458
 20
58.2609
 30
-1.63824e-14
  70
    32
  0
VERTEX
  8
0
  5
3224
 10
-73.4569
 20
58.2493
 30
-1.63847e-14
  70
    32
  0
VERTEX
  8
0
  5
3225
 10
-73.4679
 20
58.2377
 30
-1.63870e-14
  70
    32
  0
VERTEX
  8
0
  5
3226
 10
-73.4789
 20
58.2260
 30
-1.63892e-14
  70
    32
  0
VERTEX
  8
0
  5
3227
 10
-73.4900
 20
58.2143
 30
-1.63915e-14
  70
    32
  0
VERTEX
  8
0
  5
3228
 10
-73.5010
 20
58.2026
 30
-1.63937e-14
  70
    32
  0
VERTEX
  8
0
  5
3229
 10
-73.5119
 20
58.1908
 30
-1.63960e-14
  70
    32
  0
VERTEX
  8
0
  5
322A
 10
-73.5229
 20
58.1789
 30
-1.63982e-14
  70
    32
  0
VERTEX
  8
0
  5
322B
 10
-73.5339
 20
58.1670
 30
-1.64003e-14
  70
    32
  0
VERTEX
  8
0
  5
322C
 10
-73.5448
 20
58.1551
 30
-1.64025e-14
  70
    32
  0
VERTEX
  8
0
  5
322D
 10
-73.5557
 20
58.1431
 30
-1.64047e-14
  70
    32
  0
VERTEX
  8
0
  5
322E
 10
-73.5666
 20
58.1311
 30
-1.64068e-14
  70
    32
  0
VERTEX
  8
0
  5
322F
 10
-73.5775
 20
58.1190
 30
-1.64089e-14
  70
    32
  0
VERTEX
  8
0
  5
3230
 10
-73.5884
 20
58.1068
 30
-1.64110e-14
  70
    32
  0
VERTEX
  8
0
  5
3231
 10
-73.5992
 20
58.0947
 30
-1.64131e-14
  70
    32
  0
VERTEX
  8
0
  5
3232
 10
-73.6101
 20
58.0825
 30
-1.64151e-14
  70
    32
  0
VERTEX
  8
0
  5
3233
 10
-73.6209
 20
58.0702
 30
-1.64172e-14
  70
    32
  0
VERTEX
  8
0
  5
3234
 10
-73.6317
 20
58.0579
 30
-1.64193e-14
  70
    32
  0
VERTEX
  8
0
  5
3235
 10
-73.6425
 20
58.0455
 30
-1.64214e-14
  70
    32
  0
VERTEX
  8
0
  5
3236
 10
-73.6533
 20
58.0331
 30
-1.64235e-14
  70
    32
  0
VERTEX
  8
0
  5
3237
 10
-73.6640
 20
58.0207
 30
-1.64256e-14
  70
    32
  0
VERTEX
  8
0
  5
3238
 10
-73.6748
 20
58.0082
 30
-1.64277e-14
  70
    32
  0
VERTEX
  8
0
  5
3239
 10
-73.6855
 20
57.9956
 30
-1.64298e-14
  70
    32
  0
VERTEX
  8
0
  5
323A
 10
-73.6962
 20
57.9830
 30
-1.64319e-14
  70
    32
  0
VERTEX
  8
0
  5
323B
 10
-73.7069
 20
57.9704
 30
-1.64340e-14
  70
    32
  0
VERTEX
  8
0
  5
323C
 10
-73.7176
 20
57.9577
 30
-1.64361e-14
  70
    32
  0
VERTEX
  8
0
  5
323D
 10
-73.7282
 20
57.9449
 30
-1.64382e-14
  70
    32
  0
VERTEX
  8
0
  5
323E
 10
-73.7388
 20
57.9322
 30
-1.64403e-14
  70
    32
  0
VERTEX
  8
0
  5
323F
 10
-73.7494
 20
57.9193
 30
-1.64424e-14
  70
    32
  0
VERTEX
  8
0
  5
3240
 10
-73.7600
 20
57.9065
 30
-1.64445e-14
  70
    32
  0
VERTEX
  8
0
  5
3241
 10
-73.7706
 20
57.8935
 30
-1.64467e-14
  70
    32
  0
VERTEX
  8
0
  5
3242
 10
-73.7811
 20
57.8806
 30
-1.64488e-14
  70
    32
  0
VERTEX
  8
0
  5
3243
 10
-73.7917
 20
57.8675
 30
-1.64509e-14
  70
    32
  0
VERTEX
  8
0
  5
3244
 10
-73.8022
 20
57.8545
 30
-1.64530e-14
  70
    32
  0
VERTEX
  8
0
  5
3245
 10
-73.8126
 20
57.8413
 30
-1.64551e-14
  70
    32
  0
VERTEX
  8
0
  5
3246
 10
-73.8231
 20
57.8282
 30
-1.64573e-14
  70
    32
  0
VERTEX
  8
0
  5
3247
 10
-73.8335
 20
57.8150
 30
-1.64594e-14
  70
    32
  0
VERTEX
  8
0
  5
3248
 10
-73.8440
 20
57.8017
 30
-1.64615e-14
  70
    32
  0
VERTEX
  8
0
  5
3249
 10
-73.8544
 20
57.7884
 30
-1.64637e-14
  70
    32
  0
VERTEX
  8
0
  5
324A
 10
-73.8647
 20
57.7750
 30
-1.64658e-14
  70
    32
  0
VERTEX
  8
0
  5
324B
 10
-73.8751
 20
57.7616
 30
-1.64679e-14
  70
    32
  0
VERTEX
  8
0
  5
324C
 10
-73.8854
 20
57.7482
 30
-1.64700e-14
  70
    32
  0
VERTEX
  8
0
  5
324D
 10
-73.8957
 20
57.7347
 30
-1.64722e-14
  70
    32
  0
VERTEX
  8
0
  5
324E
 10
-73.9060
 20
57.7211
 30
-1.64743e-14
  70
    32
  0
VERTEX
  8
0
  5
324F
 10
-73.9163
 20
57.7075
 30
-1.64764e-14
  70
    32
  0
VERTEX
  8
0
  5
3250
 10
-73.9265
 20
57.6938
 30
-1.64786e-14
  70
    32
  0
VERTEX
  8
0
  5
3251
 10
-73.9367
 20
57.6801
 30
-1.64807e-14
  70
    32
  0
VERTEX
  8
0
  5
3252
 10
-73.9469
 20
57.6664
 30
-1.64828e-14
  70
    32
  0
VERTEX
  8
0
  5
3253
 10
-73.9570
 20
57.6526
 30
-1.64849e-14
  70
    32
  0
VERTEX
  8
0
  5
3254
 10
-73.9672
 20
57.6388
 30
-1.64871e-14
  70
    32
  0
VERTEX
  8
0
  5
3255
 10
-73.9773
 20
57.6249
 30
-1.64892e-14
  70
    32
  0
VERTEX
  8
0
  5
3256
 10
-73.9874
 20
57.6109
 30
-1.64913e-14
  70
    32
  0
VERTEX
  8
0
  5
3257
 10
-73.9974
 20
57.5969
 30
-1.64934e-14
  70
    32
  0
VERTEX
  8
0
  5
3258
 10
-74.0075
 20
57.5829
 30
-1.64956e-14
  70
    32
  0
VERTEX
  8
0
  5
3259
 10
-74.0175
 20
57.5688
 30
-1.64977e-14
  70
    32
  0
VERTEX
  8
0
  5
325A
 10
-74.0275
 20
57.5546
 30
-1.64998e-14
  70
    32
  0
VERTEX
  8
0
  5
325B
 10
-74.0374
 20
57.5404
 30
-1.65019e-14
  70
    32
  0
VERTEX
  8
0
  5
325C
 10
-74.0473
 20
57.5262
 30
-1.65040e-14
  70
    32
  0
VERTEX
  8
0
  5
325D
 10
-74.0572
 20
57.5119
 30
-1.65061e-14
  70
    32
  0
VERTEX
  8
0
  5
325E
 10
-74.0671
 20
57.4975
 30
-1.65082e-14
  70
    32
  0
VERTEX
  8
0
  5
325F
 10
-74.0770
 20
57.4831
 30
-1.65103e-14
  70
    32
  0
VERTEX
  8
0
  5
3260
 10
-74.0868
 20
57.4687
 30
-1.65124e-14
  70
    32
  0
VERTEX
  8
0
  5
3261
 10
-74.0966
 20
57.4542
 30
-1.65145e-14
  70
    32
  0
VERTEX
  8
0
  5
3262
 10
-74.1063
 20
57.4397
 30
-1.65166e-14
  70
    32
  0
VERTEX
  8
0
  5
3263
 10
-74.1161
 20
57.4251
 30
-1.65187e-14
  70
    32
  0
VERTEX
  8
0
  5
3264
 10
-74.1258
 20
57.4104
 30
-1.65208e-14
  70
    32
  0
VERTEX
  8
0
  5
3265
 10
-74.1355
 20
57.3957
 30
-1.65229e-14
  70
    32
  0
VERTEX
  8
0
  5
3266
 10
-74.1451
 20
57.3810
 30
-1.65249e-14
  70
    32
  0
VERTEX
  8
0
  5
3267
 10
-74.1547
 20
57.3662
 30
-1.65270e-14
  70
    32
  0
VERTEX
  8
0
  5
3268
 10
-74.1643
 20
57.3513
 30
-1.65291e-14
  70
    32
  0
VERTEX
  8
0
  5
3269
 10
-74.1739
 20
57.3364
 30
-1.65311e-14
  70
    32
  0
VERTEX
  8
0
  5
326A
 10
-74.1834
 20
57.3215
 30
-1.65332e-14
  70
    32
  0
VERTEX
  8
0
  5
326B
 10
-74.1929
 20
57.3065
 30
-1.65352e-14
  70
    32
  0
VERTEX
  8
0
  5
326C
 10
-74.2024
 20
57.2914
 30
-1.65373e-14
  70
    32
  0
VERTEX
  8
0
  5
326D
 10
-74.2118
 20
57.2763
 30
-1.65393e-14
  70
    32
  0
VERTEX
  8
0
  5
326E
 10
-74.2212
 20
57.2611
 30
-1.65414e-14
  70
    32
  0
VERTEX
  8
0
  5
326F
 10
-74.2306
 20
57.2459
 30
-1.65434e-14
  70
    32
  0
VERTEX
  8
0
  5
3270
 10
-74.2399
 20
57.2307
 30
-1.65454e-14
  70
    32
  0
VERTEX
  8
0
  5
3271
 10
-74.2492
 20
57.2153
 30
-1.65474e-14
  70
    32
  0
VERTEX
  8
0
  5
3272
 10
-74.2585
 20
57.2000
 30
-1.65495e-14
  70
    32
  0
VERTEX
  8
0
  5
3273
 10
-74.2677
 20
57.1846
 30
-1.65515e-14
  70
    32
  0
VERTEX
  8
0
  5
3274
 10
-74.2769
 20
57.1691
 30
-1.65535e-14
  70
    32
  0
VERTEX
  8
0
  5
3275
 10
-74.2861
 20
57.1536
 30
-1.65555e-14
  70
    32
  0
VERTEX
  8
0
  5
3276
 10
-74.2953
 20
57.1380
 30
-1.65575e-14
  70
    32
  0
VERTEX
  8
0
  5
3277
 10
-74.3044
 20
57.1224
 30
-1.65594e-14
  70
    32
  0
VERTEX
  8
0
  5
3278
 10
-74.3135
 20
57.1067
 30
-1.65614e-14
  70
    32
  0
VERTEX
  8
0
  5
3279
 10
-74.3225
 20
57.0910
 30
-1.65634e-14
  70
    32
  0
VERTEX
  8
0
  5
327A
 10
-74.3315
 20
57.0752
 30
-1.65653e-14
  70
    32
  0
VERTEX
  8
0
  5
327B
 10
-74.3405
 20
57.0594
 30
-1.65673e-14
  70
    32
  0
VERTEX
  8
0
  5
327C
 10
-74.3494
 20
57.0435
 30
-1.65692e-14
  70
    32
  0
VERTEX
  8
0
  5
327D
 10
-74.3583
 20
57.0275
 30
-1.65712e-14
  70
    32
  0
VERTEX
  8
0
  5
327E
 10
-74.3672
 20
57.0115
 30
-1.65731e-14
  70
    32
  0
VERTEX
  8
0
  5
327F
 10
-74.3760
 20
56.9955
 30
-1.65750e-14
  70
    32
  0
VERTEX
  8
0
  5
3280
 10
-74.3848
 20
56.9794
 30
-1.65769e-14
  70
    32
  0
VERTEX
  8
0
  5
3281
 10
-74.3936
 20
56.9632
 30
-1.65788e-14
  70
    32
  0
VERTEX
  8
0
  5
3282
 10
-74.4023
 20
56.9470
 30
-1.65807e-14
  70
    32
  0
VERTEX
  8
0
  5
3283
 10
-74.4110
 20
56.9308
 30
-1.65826e-14
  70
    32
  0
VERTEX
  8
0
  5
3284
 10
-74.4197
 20
56.9145
 30
-1.65845e-14
  70
    32
  0
VERTEX
  8
0
  5
3285
 10
-74.4283
 20
56.8981
 30
-1.65864e-14
  70
    32
  0
VERTEX
  8
0
  5
3286
 10
-74.4368
 20
56.8817
 30
-1.65882e-14
  70
    32
  0
VERTEX
  8
0
  5
3287
 10
-74.4454
 20
56.8652
 30
-1.65901e-14
  70
    32
  0
VERTEX
  8
0
  5
3288
 10
-74.4539
 20
56.8487
 30
-1.65919e-14
  70
    32
  0
VERTEX
  8
0
  5
3289
 10
-74.4624
 20
56.8321
 30
-1.65937e-14
  70
    32
  0
VERTEX
  8
0
  5
328A
 10
-74.4708
 20
56.8155
 30
-1.65956e-14
  70
    32
  0
VERTEX
  8
0
  5
328B
 10
-74.4792
 20
56.7988
 30
-1.65974e-14
  70
    32
  0
VERTEX
  8
0
  5
328C
 10
-74.4875
 20
56.7821
 30
-1.65992e-14
  70
    32
  0
VERTEX
  8
0
  5
328D
 10
-74.4958
 20
56.7653
 30
-1.66010e-14
  70
    32
  0
VERTEX
  8
0
  5
328E
 10
-74.5041
 20
56.7484
 30
-1.66027e-14
  70
    32
  0
VERTEX
  8
0
  5
328F
 10
-74.5123
 20
56.7315
 30
-1.66045e-14
  70
    32
  0
VERTEX
  8
0
  5
3290
 10
-74.5205
 20
56.7146
 30
-1.66063e-14
  70
    32
  0
VERTEX
  8
0
  5
3291
 10
-74.5287
 20
56.6976
 30
-1.66080e-14
  70
    32
  0
VERTEX
  8
0
  5
3292
 10
-74.5368
 20
56.6805
 30
-1.66097e-14
  70
    32
  0
VERTEX
  8
0
  5
3293
 10
-74.5449
 20
56.6634
 30
-1.66115e-14
  70
    32
  0
VERTEX
  8
0
  5
3294
 10
-74.5529
 20
56.6462
 30
-1.66132e-14
  70
    32
  0
VERTEX
  8
0
  5
3295
 10
-74.5609
 20
56.6290
 30
-1.66149e-14
  70
    32
  0
VERTEX
  8
0
  5
3296
 10
-74.5688
 20
56.6117
 30
-1.66166e-14
  70
    32
  0
VERTEX
  8
0
  5
3297
 10
-74.5768
 20
56.5943
 30
-1.66183e-14
  70
    32
  0
VERTEX
  8
0
  5
3298
 10
-74.5846
 20
56.5770
 30
-1.66199e-14
  70
    32
  0
VERTEX
  8
0
  5
3299
 10
-74.5924
 20
56.5595
 30
-1.66216e-14
  70
    32
  0
VERTEX
  8
0
  5
329A
 10
-74.6002
 20
56.5420
 30
-1.66232e-14
  70
    32
  0
VERTEX
  8
0
  5
329B
 10
-74.6080
 20
56.5244
 30
-1.66248e-14
  70
    32
  0
VERTEX
  8
0
  5
329C
 10
-74.6157
 20
56.5068
 30
-1.66265e-14
  70
    32
  0
VERTEX
  8
0
  5
329D
 10
-74.6233
 20
56.4892
 30
-1.66281e-14
  70
    32
  0
VERTEX
  8
0
  5
329E
 10
-74.6309
 20
56.4714
 30
-1.66296e-14
  70
    32
  0
VERTEX
  8
0
  5
329F
 10
-74.6385
 20
56.4537
 30
-1.66312e-14
  70
    32
  0
VERTEX
  8
0
  5
32A0
 10
-74.6460
 20
56.4358
 30
-1.66328e-14
  70
    32
  0
VERTEX
  8
0
  5
32A1
 10
-74.6535
 20
56.4179
 30
-1.66343e-14
  70
    32
  0
VERTEX
  8
0
  5
32A2
 10
-74.6609
 20
56.4000
 30
-1.66359e-14
  70
    32
  0
VERTEX
  8
0
  5
32A3
 10
-74.6683
 20
56.3820
 30
-1.66374e-14
  70
    32
  0
VERTEX
  8
0
  5
32A4
 10
-74.6757
 20
56.3639
 30
-1.66389e-14
  70
    32
  0
VERTEX
  8
0
  5
32A5
 10
-74.6830
 20
56.3458
 30
-1.66404e-14
  70
    32
  0
VERTEX
  8
0
  5
32A6
 10
-74.6902
 20
56.3276
 30
-1.66419e-14
  70
    32
  0
VERTEX
  8
0
  5
32A7
 10
-74.6975
 20
56.3094
 30
-1.66433e-14
  70
    32
  0
VERTEX
  8
0
  5
32A8
 10
-74.7046
 20
56.2911
 30
-1.66448e-14
  70
    32
  0
VERTEX
  8
0
  5
32A9
 10
-74.7117
 20
56.2728
 30
-1.66462e-14
  70
    32
  0
VERTEX
  8
0
  5
32AA
 10
-74.7188
 20
56.2544
 30
-1.66476e-14
  70
    32
  0
VERTEX
  8
0
  5
32AB
 10
-74.7258
 20
56.2359
 30
-1.66490e-14
  70
    32
  0
VERTEX
  8
0
  5
32AC
 10
-74.7328
 20
56.2174
 30
-1.66504e-14
  70
    32
  0
VERTEX
  8
0
  5
32AD
 10
-74.7398
 20
56.1989
 30
-1.66518e-14
  70
    32
  0
VERTEX
  8
0
  5
32AE
 10
-74.7466
 20
56.1803
 30
-1.66531e-14
  70
    32
  0
VERTEX
  8
0
  5
32AF
 10
-74.7535
 20
56.1616
 30
-1.66545e-14
  70
    32
  0
VERTEX
  8
0
  5
32B0
 10
-74.7603
 20
56.1428
 30
-1.66558e-14
  70
    32
  0
VERTEX
  8
0
  5
32B1
 10
-74.7670
 20
56.1240
 30
-1.66571e-14
  70
    32
  0
VERTEX
  8
0
  5
32B2
 10
-74.7737
 20
56.1052
 30
-1.66585e-14
  70
    32
  0
VERTEX
  8
0
  5
32B3
 10
-74.7804
 20
56.0863
 30
-1.66599e-14
  70
    32
  0
VERTEX
  8
0
  5
32B4
 10
-74.7870
 20
56.0673
 30
-1.66613e-14
  70
    32
  0
VERTEX
  8
0
  5
32B5
 10
-74.7935
 20
56.0483
 30
-1.66627e-14
  70
    32
  0
VERTEX
  8
0
  5
32B6
 10
-74.8000
 20
56.0292
 30
-1.66642e-14
  70
    32
  0
VERTEX
  8
0
  5
32B7
 10
-74.8065
 20
56.0101
 30
-1.66657e-14
  70
    32
  0
VERTEX
  8
0
  5
32B8
 10
-74.8129
 20
55.9909
 30
-1.66673e-14
  70
    32
  0
VERTEX
  8
0
  5
32B9
 10
-74.8192
 20
55.9717
 30
-1.66688e-14
  70
    32
  0
VERTEX
  8
0
  5
32BA
 10
-74.8255
 20
55.9524
 30
-1.66704e-14
  70
    32
  0
VERTEX
  8
0
  5
32BB
 10
-74.8317
 20
55.9330
 30
-1.66720e-14
  70
    32
  0
VERTEX
  8
0
  5
32BC
 10
-74.8379
 20
55.9136
 30
-1.66737e-14
  70
    32
  0
VERTEX
  8
0
  5
32BD
 10
-74.8440
 20
55.8941
 30
-1.66753e-14
  70
    32
  0
VERTEX
  8
0
  5
32BE
 10
-74.8501
 20
55.8746
 30
-1.66770e-14
  70
    32
  0
VERTEX
  8
0
  5
32BF
 10
-74.8561
 20
55.8550
 30
-1.66787e-14
  70
    32
  0
VERTEX
  8
0
  5
32C0
 10
-74.8621
 20
55.8354
 30
-1.66804e-14
  70
    32
  0
VERTEX
  8
0
  5
32C1
 10
-74.8680
 20
55.8157
 30
-1.66821e-14
  70
    32
  0
VERTEX
  8
0
  5
32C2
 10
-74.8739
 20
55.7959
 30
-1.66839e-14
  70
    32
  0
VERTEX
  8
0
  5
32C3
 10
-74.8797
 20
55.7761
 30
-1.66856e-14
  70
    32
  0
VERTEX
  8
0
  5
32C4
 10
-74.8854
 20
55.7563
 30
-1.66874e-14
  70
    32
  0
VERTEX
  8
0
  5
32C5
 10
-74.8911
 20
55.7363
 30
-1.66892e-14
  70
    32
  0
VERTEX
  8
0
  5
32C6
 10
-74.8967
 20
55.7164
 30
-1.66910e-14
  70
    32
  0
VERTEX
  8
0
  5
32C7
 10
-74.9023
 20
55.6963
 30
-1.66929e-14
  70
    32
  0
VERTEX
  8
0
  5
32C8
 10
-74.9078
 20
55.6762
 30
-1.66947e-14
  70
    32
  0
VERTEX
  8
0
  5
32C9
 10
-74.9132
 20
55.6561
 30
-1.66966e-14
  70
    32
  0
VERTEX
  8
0
  5
32CA
 10
-74.9186
 20
55.6359
 30
-1.66984e-14
  70
    32
  0
VERTEX
  8
0
  5
32CB
 10
-74.9239
 20
55.6156
 30
-1.67003e-14
  70
    32
  0
VERTEX
  8
0
  5
32CC
 10
-74.9292
 20
55.5953
 30
-1.67022e-14
  70
    32
  0
VERTEX
  8
0
  5
32CD
 10
-74.9344
 20
55.5750
 30
-1.67040e-14
  70
    32
  0
VERTEX
  8
0
  5
32CE
 10
-74.9395
 20
55.5545
 30
-1.67059e-14
  70
    32
  0
VERTEX
  8
0
  5
32CF
 10
-74.9446
 20
55.5340
 30
-1.67078e-14
  70
    32
  0
VERTEX
  8
0
  5
32D0
 10
-74.9496
 20
55.5135
 30
-1.67097e-14
  70
    32
  0
VERTEX
  8
0
  5
32D1
 10
-74.9546
 20
55.4929
 30
-1.67116e-14
  70
    32
  0
VERTEX
  8
0
  5
32D2
 10
-74.9594
 20
55.4723
 30
-1.67135e-14
  70
    32
  0
VERTEX
  8
0
  5
32D3
 10
-74.9643
 20
55.4516
 30
-1.67155e-14
  70
    32
  0
VERTEX
  8
0
  5
32D4
 10
-74.9690
 20
55.4308
 30
-1.67174e-14
  70
    32
  0
VERTEX
  8
0
  5
32D5
 10
-74.9737
 20
55.4100
 30
-1.67193e-14
  70
    32
  0
VERTEX
  8
0
  5
32D6
 10
-74.9783
 20
55.3891
 30
-1.67212e-14
  70
    32
  0
VERTEX
  8
0
  5
32D7
 10
-74.9829
 20
55.3682
 30
-1.67231e-14
  70
    32
  0
VERTEX
  8
0
  5
32D8
 10
-74.9874
 20
55.3472
 30
-1.67250e-14
  70
    32
  0
VERTEX
  8
0
  5
32D9
 10
-74.9918
 20
55.3261
 30
-1.67269e-14
  70
    32
  0
VERTEX
  8
0
  5
32DA
 10
-74.9961
 20
55.3050
 30
-1.67288e-14
  70
    32
  0
VERTEX
  8
0
  5
32DB
 10
-75.0004
 20
55.2839
 30
-1.67307e-14
  70
    32
  0
VERTEX
  8
0
  5
32DC
 10
-75.0046
 20
55.2627
 30
-1.67326e-14
  70
    32
  0
VERTEX
  8
0
  5
32DD
 10
-75.0088
 20
55.2414
 30
-1.67345e-14
  70
    32
  0
VERTEX
  8
0
  5
32DE
 10
-75.0129
 20
55.2201
 30
-1.67363e-14
  70
    32
  0
VERTEX
  8
0
  5
32DF
 10
-75.0169
 20
55.1987
 30
-1.67382e-14
  70
    32
  0
VERTEX
  8
0
  5
32E0
 10
-75.0208
 20
55.1773
 30
-1.67400e-14
  70
    32
  0
VERTEX
  8
0
  5
32E1
 10
-75.0247
 20
55.1558
 30
-1.67419e-14
  70
    32
  0
VERTEX
  8
0
  5
32E2
 10
-75.0285
 20
55.1342
 30
-1.67437e-14
  70
    32
  0
VERTEX
  8
0
  5
32E3
 10
-75.0322
 20
55.1126
 30
-1.67455e-14
  70
    32
  0
VERTEX
  8
0
  5
32E4
 10
-75.0358
 20
55.0910
 30
-1.67473e-14
  70
    32
  0
VERTEX
  8
0
  5
32E5
 10
-75.0394
 20
55.0693
 30
-1.67491e-14
  70
    32
  0
VERTEX
  8
0
  5
32E6
 10
-75.0429
 20
55.0475
 30
-1.67509e-14
  70
    32
  0
VERTEX
  8
0
  5
32E7
 10
-75.0463
 20
55.0257
 30
-1.67527e-14
  70
    32
  0
VERTEX
  8
0
  5
32E8
 10
-75.0496
 20
55.0038
 30
-1.67544e-14
  70
    32
  0
VERTEX
  8
0
  5
32E9
 10
-75.0529
 20
54.9818
 30
-1.67561e-14
  70
    32
  0
VERTEX
  8
0
  5
32EA
 10
-75.0561
 20
54.9598
 30
-1.67578e-14
  70
    32
  0
VERTEX
  8
0
  5
32EB
 10
-75.0592
 20
54.9378
 30
-1.67595e-14
  70
    32
  0
VERTEX
  8
0
  5
32EC
 10
-75.0623
 20
54.9157
 30
-1.67612e-14
  70
    32
  0
VERTEX
  8
0
  5
32ED
 10
-75.0652
 20
54.8935
 30
-1.67628e-14
  70
    32
  0
VERTEX
  8
0
  5
32EE
 10
-75.0681
 20
54.8713
 30
-1.67644e-14
  70
    32
  0
VERTEX
  8
0
  5
32EF
 10
-75.0709
 20
54.8490
 30
-1.67660e-14
  70
    32
  0
VERTEX
  8
0
  5
32F0
 10
-75.0737
 20
54.8267
 30
-1.67676e-14
  70
    32
  0
VERTEX
  8
0
  5
32F1
 10
-75.0763
 20
54.8043
 30
-1.67691e-14
  70
    32
  0
VERTEX
  8
0
  5
32F2
 10
-75.0789
 20
54.7819
 30
-1.67707e-14
  70
    32
  0
VERTEX
  8
0
  5
32F3
 10
-75.0814
 20
54.7594
 30
-1.67721e-14
  70
    32
  0
VERTEX
  8
0
  5
32F4
 10
-75.0838
 20
54.7368
 30
-1.67736e-14
  70
    32
  0
VERTEX
  8
0
  5
32F5
 10
-75.0861
 20
54.7142
 30
-1.67750e-14
  70
    32
  0
VERTEX
  8
0
  5
32F6
 10
-75.0883
 20
54.6916
 30
-1.67764e-14
  70
    32
  0
VERTEX
  8
0
  5
32F7
 10
-75.0905
 20
54.6689
 30
-1.67778e-14
  70
    32
  0
VERTEX
  8
0
  5
32F8
 10
-75.0926
 20
54.6461
 30
-1.67792e-14
  70
    32
  0
VERTEX
  8
0
  5
32F9
 10
-75.0946
 20
54.6233
 30
-1.67805e-14
  70
    32
  0
VERTEX
  8
0
  5
32FA
 10
-75.0965
 20
54.6004
 30
-1.67817e-14
  70
    32
  0
VERTEX
  8
0
  5
32FB
 10
-75.0983
 20
54.5774
 30
-1.67830e-14
  70
    32
  0
VERTEX
  8
0
  5
32FC
 10
-75.1000
 20
54.5544
 30
-1.67842e-14
  70
    32
  0
VERTEX
  8
0
  5
32FD
 10
-75.1017
 20
54.5314
 30
-1.67853e-14
  70
    32
  0
VERTEX
  8
0
  5
32FE
 10
-75.1033
 20
54.5083
 30
-1.67865e-14
  70
    32
  0
VERTEX
  8
0
  5
32FF
 10
-75.1048
 20
54.4851
 30
-1.67876e-14
  70
    32
  0
VERTEX
  8
0
  5
3300
 10
-75.1062
 20
54.4619
 30
-1.67886e-14
  70
    32
  0
VERTEX
  8
0
  5
3301
 10
-75.1075
 20
54.4386
 30
-1.67896e-14
  70
    32
  0
VERTEX
  8
0
  5
3302
 10
-75.1087
 20
54.4153
 30
-1.67906e-14
  70
    32
  0
VERTEX
  8
0
  5
3303
 10
-75.1098
 20
54.3919
 30
-1.67915e-14
  70
    32
  0
VERTEX
  8
0
  5
3304
 10
-75.1109
 20
54.3685
 30
-1.67924e-14
  70
    32
  0
VERTEX
  8
0
  5
3305
 10
-75.1118
 20
54.3450
 30
-1.67932e-14
  70
    32
  0
VERTEX
  8
0
  5
3306
 10
-75.1127
 20
54.3214
 30
-1.67940e-14
  70
    32
  0
VERTEX
  8
0
  5
3307
 10
-75.1135
 20
54.2978
 30
-1.67948e-14
  70
    32
  0
VERTEX
  8
0
  5
3308
 10
-75.1141
 20
54.2742
 30
-1.67955e-14
  70
    32
  0
VERTEX
  8
0
  5
3309
 10
-75.1147
 20
54.2504
 30
-1.67962e-14
  70
    32
  0
VERTEX
  8
0
  5
330A
 10
-75.1152
 20
54.2267
 30
-1.67968e-14
  70
    32
  0
VERTEX
  8
0
  5
330B
 10
-75.1156
 20
54.2028
 30
-1.67973e-14
  70
    32
  0
VERTEX
  8
0
  5
330C
 10
-75.1160
 20
54.1790
 30
-1.67978e-14
  70
    32
  0
VERTEX
  8
0
  5
330D
 10
-75.1162
 20
54.1550
 30
-1.67983e-14
  70
    32
  0
VERTEX
  8
0
  5
330E
 10
-75.1163
 20
54.1310
 30
-1.67987e-14
  70
    32
  0
VERTEX
  8
0
  5
330F
 10
-75.1163
 20
54.1070
 30
-1.67990e-14
  70
    32
  0
VERTEX
  8
0
  5
3310
 10
-75.1163
 20
54.0829
 30
-1.67993e-14
  70
    32
  0
VERTEX
  8
0
  5
3311
 10
-75.1161
 20
54.0587
 30
-1.67996e-14
  70
    32
  0
VERTEX
  8
0
  5
3312
 10
-75.1159
 20
54.0345
 30
-1.67998e-14
  70
    32
  0
VERTEX
  8
0
  5
3313
 10
-75.1155
 20
54.0102
 30
-1.67999e-14
  70
    32
  0
VERTEX
  8
0
  5
3314
 10
-75.1151
 20
53.9859
 30
-1.68000e-14
  70
    32
  0
VERTEX
  8
0
  5
3315
 10
-75.1145
 20
53.9615
 30
-1.68000e-14
  70
    32
  0
VERTEX
  8
0
  5
3316
 10
-75.1139
 20
53.9371
 30
-1.67999e-14
  70
    32
  0
VERTEX
  8
0
  5
3317
 10
-75.1132
 20
53.9126
 30
-1.67998e-14
  70
    32
  0
VERTEX
  8
0
  5
3318
 10
-75.1123
 20
53.8881
 30
-1.67996e-14
  70
    32
  0
VERTEX
  8
0
  5
3319
 10
-75.1114
 20
53.8635
 30
-1.67993e-14
  70
    32
  0
VERTEX
  8
0
  5
331A
 10
-75.1103
 20
53.8389
 30
-1.67990e-14
  70
    32
  0
VERTEX
  8
0
  5
331B
 10
-75.1092
 20
53.8142
 30
-1.67985e-14
  70
    32
  0
VERTEX
  8
0
  5
331C
 10
-75.1080
 20
53.7895
 30
-1.67981e-14
  70
    32
  0
VERTEX
  8
0
  5
331D
 10
-75.1066
 20
53.7647
 30
-1.67975e-14
  70
    32
  0
VERTEX
  8
0
  5
331E
 10
-75.1052
 20
53.7399
 30
-1.67969e-14
  70
    32
  0
VERTEX
  8
0
  5
331F
 10
-75.1036
 20
53.7151
 30
-1.67962e-14
  70
    32
  0
VERTEX
  8
0
  5
3320
 10
-75.1020
 20
53.6902
 30
-1.67954e-14
  70
    32
  0
VERTEX
  8
0
  5
3321
 10
-75.1002
 20
53.6652
 30
-1.67946e-14
  70
    32
  0
VERTEX
  8
0
  5
3322
 10
-75.0983
 20
53.6402
 30
-1.67937e-14
  70
    32
  0
VERTEX
  8
0
  5
3323
 10
-75.0963
 20
53.6152
 30
-1.67928e-14
  70
    32
  0
VERTEX
  8
0
  5
3324
 10
-75.0943
 20
53.5901
 30
-1.67918e-14
  70
    32
  0
VERTEX
  8
0
  5
3325
 10
-75.0921
 20
53.5650
 30
-1.67907e-14
  70
    32
  0
VERTEX
  8
0
  5
3326
 10
-75.0898
 20
53.5398
 30
-1.67896e-14
  70
    32
  0
VERTEX
  8
0
  5
3327
 10
-75.0873
 20
53.5146
 30
-1.67884e-14
  70
    32
  0
VERTEX
  8
0
  5
3328
 10
-75.0848
 20
53.4894
 30
-1.67872e-14
  70
    32
  0
VERTEX
  8
0
  5
3329
 10
-75.0822
 20
53.4641
 30
-1.67859e-14
  70
    32
  0
VERTEX
  8
0
  5
332A
 10
-75.0794
 20
53.4387
 30
-1.67846e-14
  70
    32
  0
VERTEX
  8
0
  5
332B
 10
-75.0765
 20
53.4134
 30
-1.67832e-14
  70
    32
  0
VERTEX
  8
0
  5
332C
 10
-75.0736
 20
53.3880
 30
-1.67818e-14
  70
    32
  0
VERTEX
  8
0
  5
332D
 10
-75.0705
 20
53.3625
 30
-1.67803e-14
  70
    32
  0
VERTEX
  8
0
  5
332E
 10
-75.0672
 20
53.3370
 30
-1.67788e-14
  70
    32
  0
VERTEX
  8
0
  5
332F
 10
-75.0639
 20
53.3115
 30
-1.67772e-14
  70
    32
  0
VERTEX
  8
0
  5
3330
 10
-75.0605
 20
53.2859
 30
-1.67756e-14
  70
    32
  0
VERTEX
  8
0
  5
3331
 10
-75.0569
 20
53.2603
 30
-1.67740e-14
  70
    32
  0
VERTEX
  8
0
  5
3332
 10
-75.0532
 20
53.2346
 30
-1.67723e-14
  70
    32
  0
VERTEX
  8
0
  5
3333
 10
-75.0494
 20
53.2089
 30
-1.67705e-14
  70
    32
  0
VERTEX
  8
0
  5
3334
 10
-75.0455
 20
53.1832
 30
-1.67687e-14
  70
    32
  0
VERTEX
  8
0
  5
3335
 10
-75.0414
 20
53.1574
 30
-1.67669e-14
  70
    32
  0
VERTEX
  8
0
  5
3336
 10
-75.0373
 20
53.1316
 30
-1.67651e-14
  70
    32
  0
VERTEX
  8
0
  5
3337
 10
-75.0330
 20
53.1058
 30
-1.67632e-14
  70
    32
  0
VERTEX
  8
0
  5
3338
 10
-75.0286
 20
53.0799
 30
-1.67613e-14
  70
    32
  0
VERTEX
  8
0
  5
3339
 10
-75.0240
 20
53.0540
 30
-1.67593e-14
  70
    32
  0
VERTEX
  8
0
  5
333A
 10
-75.0193
 20
53.0280
 30
-1.67574e-14
  70
    32
  0
VERTEX
  8
0
  5
333B
 10
-75.0146
 20
53.0021
 30
-1.67554e-14
  70
    32
  0
VERTEX
  8
0
  5
333C
 10
-75.0096
 20
52.9760
 30
-1.67533e-14
  70
    32
  0
VERTEX
  8
0
  5
333D
 10
-75.0046
 20
52.9500
 30
-1.67512e-14
  70
    32
  0
VERTEX
  8
0
  5
333E
 10
-74.9994
 20
52.9239
 30
-1.67492e-14
  70
    32
  0
VERTEX
  8
0
  5
333F
 10
-74.9941
 20
52.8978
 30
-1.67470e-14
  70
    32
  0
VERTEX
  8
0
  5
3340
 10
-74.9887
 20
52.8716
 30
-1.67449e-14
  70
    32
  0
VERTEX
  8
0
  5
3341
 10
-74.9831
 20
52.8454
 30
-1.67427e-14
  70
    32
  0
VERTEX
  8
0
  5
3342
 10
-74.9774
 20
52.8192
 30
-1.67406e-14
  70
    32
  0
VERTEX
  8
0
  5
3343
 10
-74.9716
 20
52.7930
 30
-1.67383e-14
  70
    32
  0
VERTEX
  8
0
  5
3344
 10
-74.9656
 20
52.7667
 30
-1.67361e-14
  70
    32
  0
VERTEX
  8
0
  5
3345
 10
-74.9595
 20
52.7404
 30
-1.67339e-14
  70
    32
  0
VERTEX
  8
0
  5
3346
 10
-74.9533
 20
52.7140
 30
-1.67316e-14
  70
    32
  0
VERTEX
  8
0
  5
3347
 10
-74.9469
 20
52.6876
 30
-1.67294e-14
  70
    32
  0
VERTEX
  8
0
  5
3348
 10
-74.9404
 20
52.6612
 30
-1.67271e-14
  70
    32
  0
VERTEX
  8
0
  5
3349
 10
-74.9338
 20
52.6348
 30
-1.67248e-14
  70
    32
  0
VERTEX
  8
0
  5
334A
 10
-74.9270
 20
52.6083
 30
-1.67225e-14
  70
    32
  0
VERTEX
  8
0
  5
334B
 10
-74.9201
 20
52.5818
 30
-1.67202e-14
  70
    32
  0
VERTEX
  8
0
  5
334C
 10
-74.9131
 20
52.5553
 30
-1.67178e-14
  70
    32
  0
VERTEX
  8
0
  5
334D
 10
-74.9059
 20
52.5288
 30
-1.67155e-14
  70
    32
  0
VERTEX
  8
0
  5
334E
 10
-74.8986
 20
52.5022
 30
-1.67132e-14
  70
    32
  0
VERTEX
  8
0
  5
334F
 10
-74.8911
 20
52.4756
 30
-1.67108e-14
  70
    32
  0
VERTEX
  8
0
  5
3350
 10
-74.8835
 20
52.4489
 30
-1.67085e-14
  70
    32
  0
VERTEX
  8
0
  5
3351
 10
-74.8757
 20
52.4223
 30
-1.67062e-14
  70
    32
  0
VERTEX
  8
0
  5
3352
 10
-74.8678
 20
52.3956
 30
-1.67038e-14
  70
    32
  0
VERTEX
  8
0
  5
3353
 10
-74.8598
 20
52.3689
 30
-1.67015e-14
  70
    32
  0
VERTEX
  8
0
  5
3354
 10
-74.8516
 20
52.3421
 30
-1.66991e-14
  70
    32
  0
VERTEX
  8
0
  5
3355
 10
-74.8433
 20
52.3153
 30
-1.66968e-14
  70
    32
  0
VERTEX
  8
0
  5
3356
 10
-74.8348
 20
52.2886
 30
-1.66945e-14
  70
    32
  0
VERTEX
  8
0
  5
3357
 10
-74.8261
 20
52.2617
 30
-1.66921e-14
  70
    32
  0
VERTEX
  8
0
  5
3358
 10
-74.8174
 20
52.2349
 30
-1.66898e-14
  70
    32
  0
VERTEX
  8
0
  5
3359
 10
-74.8084
 20
52.2080
 30
-1.66875e-14
  70
    32
  0
VERTEX
  8
0
  5
335A
 10
-74.7994
 20
52.1811
 30
-1.66852e-14
  70
    32
  0
VERTEX
  8
0
  5
335B
 10
-74.7901
 20
52.1542
 30
-1.66829e-14
  70
    32
  0
VERTEX
  8
0
  5
335C
 10
-74.7808
 20
52.1273
 30
-1.66806e-14
  70
    32
  0
VERTEX
  8
0
  5
335D
 10
-74.7712
 20
52.1003
 30
-1.66783e-14
  70
    32
  0
VERTEX
  8
0
  5
335E
 10
-74.7616
 20
52.0734
 30
-1.66761e-14
  70
    32
  0
VERTEX
  8
0
  5
335F
 10
-74.7517
 20
52.0463
 30
-1.66739e-14
  70
    32
  0
VERTEX
  8
0
  5
3360
 10
-74.7417
 20
52.0193
 30
-1.66716e-14
  70
    32
  0
VERTEX
  8
0
  5
3361
 10
-74.7316
 20
51.9923
 30
-1.66694e-14
  70
    32
  0
VERTEX
  8
0
  5
3362
 10
-74.7213
 20
51.9652
 30
-1.66673e-14
  70
    32
  0
VERTEX
  8
0
  5
3363
 10
-74.7108
 20
51.9381
 30
-1.66651e-14
  70
    32
  0
VERTEX
  8
0
  5
3364
 10
-74.7002
 20
51.9110
 30
-1.66630e-14
  70
    32
  0
VERTEX
  8
0
  5
3365
 10
-74.6895
 20
51.8839
 30
-1.66608e-14
  70
    32
  0
VERTEX
  8
0
  5
3366
 10
-74.6785
 20
51.8568
 30
-1.66588e-14
  70
    32
  0
VERTEX
  8
0
  5
3367
 10
-74.6674
 20
51.8296
 30
-1.66567e-14
  70
    32
  0
VERTEX
  8
0
  5
3368
 10
-74.6562
 20
51.8024
 30
-1.66547e-14
  70
    32
  0
VERTEX
  8
0
  5
3369
 10
-74.6448
 20
51.7752
 30
-1.66527e-14
  70
    32
  0
VERTEX
  8
0
  5
336A
 10
-74.6332
 20
51.7480
 30
-1.66507e-14
  70
    32
  0
VERTEX
  8
0
  5
336B
 10
-74.6215
 20
51.7208
 30
-1.66487e-14
  70
    32
  0
VERTEX
  8
0
  5
336C
 10
-74.6096
 20
51.6935
 30
-1.66468e-14
  70
    32
  0
VERTEX
  8
0
  5
336D
 10
-74.5975
 20
51.6662
 30
-1.66449e-14
  70
    32
  0
VERTEX
  8
0
  5
336E
 10
-74.5853
 20
51.6390
 30
-1.66430e-14
  70
    32
  0
VERTEX
  8
0
  5
336F
 10
-74.5729
 20
51.6117
 30
-1.66411e-14
  70
    32
  0
VERTEX
  8
0
  5
3370
 10
-74.5603
 20
51.5844
 30
-1.66390e-14
  70
    32
  0
VERTEX
  8
0
  5
3371
 10
-74.5476
 20
51.5571
 30
-1.66369e-14
  70
    32
  0
VERTEX
  8
0
  5
3372
 10
-74.5347
 20
51.5298
 30
-1.66348e-14
  70
    32
  0
VERTEX
  8
0
  5
3373
 10
-74.5217
 20
51.5024
 30
-1.66326e-14
  70
    32
  0
VERTEX
  8
0
  5
3374
 10
-74.5085
 20
51.4751
 30
-1.66303e-14
  70
    32
  0
VERTEX
  8
0
  5
3375
 10
-74.4951
 20
51.4478
 30
-1.66279e-14
  70
    32
  0
VERTEX
  8
0
  5
3376
 10
-74.4815
 20
51.4205
 30
-1.66255e-14
  70
    32
  0
VERTEX
  8
0
  5
3377
 10
-74.4678
 20
51.3932
 30
-1.66231e-14
  70
    32
  0
VERTEX
  8
0
  5
3378
 10
-74.4539
 20
51.3658
 30
-1.66205e-14
  70
    32
  0
VERTEX
  8
0
  5
3379
 10
-74.4398
 20
51.3385
 30
-1.66179e-14
  70
    32
  0
VERTEX
  8
0
  5
337A
 10
-74.4255
 20
51.3112
 30
-1.66152e-14
  70
    32
  0
VERTEX
  8
0
  5
337B
 10
-74.4111
 20
51.2839
 30
-1.66125e-14
  70
    32
  0
VERTEX
  8
0
  5
337C
 10
-74.3965
 20
51.2566
 30
-1.66097e-14
  70
    32
  0
VERTEX
  8
0
  5
337D
 10
-74.3817
 20
51.2293
 30
-1.66069e-14
  70
    32
  0
VERTEX
  8
0
  5
337E
 10
-74.3667
 20
51.2020
 30
-1.66039e-14
  70
    32
  0
VERTEX
  8
0
  5
337F
 10
-74.3516
 20
51.1747
 30
-1.66009e-14
  70
    32
  0
VERTEX
  8
0
  5
3380
 10
-74.3362
 20
51.1474
 30
-1.65979e-14
  70
    32
  0
VERTEX
  8
0
  5
3381
 10
-74.3207
 20
51.1201
 30
-1.65947e-14
  70
    32
  0
VERTEX
  8
0
  5
3382
 10
-74.3050
 20
51.0929
 30
-1.65915e-14
  70
    32
  0
VERTEX
  8
0
  5
3383
 10
-74.2892
 20
51.0657
 30
-1.65883e-14
  70
    32
  0
VERTEX
  8
0
  5
3384
 10
-74.2731
 20
51.0384
 30
-1.65850e-14
  70
    32
  0
VERTEX
  8
0
  5
3385
 10
-74.2568
 20
51.0112
 30
-1.65816e-14
  70
    32
  0
VERTEX
  8
0
  5
3386
 10
-74.2404
 20
50.9840
 30
-1.65781e-14
  70
    32
  0
VERTEX
  8
0
  5
3387
 10
-74.2238
 20
50.9569
 30
-1.65746e-14
  70
    32
  0
VERTEX
  8
0
  5
3388
 10
-74.2070
 20
50.9297
 30
-1.65710e-14
  70
    32
  0
VERTEX
  8
0
  5
3389
 10
-74.1900
 20
50.9026
 30
-1.65673e-14
  70
    32
  0
VERTEX
  8
0
  5
338A
 10
-74.1728
 20
50.8755
 30
-1.65636e-14
  70
    32
  0
VERTEX
  8
0
  5
338B
 10
-74.1554
 20
50.8484
 30
-1.65598e-14
  70
    32
  0
VERTEX
  8
0
  5
338C
 10
-74.1378
 20
50.8213
 30
-1.65559e-14
  70
    32
  0
VERTEX
  8
0
  5
338D
 10
-74.1200
 20
50.7943
 30
-1.65520e-14
  70
    32
  0
VERTEX
  8
0
  5
338E
 10
-74.1021
 20
50.7673
 30
-1.65480e-14
  70
    32
  0
VERTEX
  8
0
  5
338F
 10
-74.0839
 20
50.7403
 30
-1.65439e-14
  70
    32
  0
VERTEX
  8
0
  5
3390
 10
-74.0655
 20
50.7133
 30
-1.65398e-14
  70
    32
  0
VERTEX
  8
0
  5
3391
 10
-74.0470
 20
50.6864
 30
-1.65356e-14
  70
    32
  0
VERTEX
  8
0
  5
3392
 10
-74.0282
 20
50.6595
 30
-1.65313e-14
  70
    32
  0
VERTEX
  8
0
  5
3393
 10
-74.0093
 20
50.6327
 30
-1.65269e-14
  70
    32
  0
VERTEX
  8
0
  5
3394
 10
-73.9901
 20
50.6058
 30
-1.65225e-14
  70
    32
  0
VERTEX
  8
0
  5
3395
 10
-73.9707
 20
50.5790
 30
-1.65180e-14
  70
    32
  0
VERTEX
  8
0
  5
3396
 10
-73.9512
 20
50.5523
 30
-1.65134e-14
  70
    32
  0
VERTEX
  8
0
  5
3397
 10
-73.9314
 20
50.5256
 30
-1.65088e-14
  70
    32
  0
VERTEX
  8
0
  5
3398
 10
-73.9114
 20
50.4989
 30
-1.65041e-14
  70
    32
  0
VERTEX
  8
0
  5
3399
 10
-73.8913
 20
50.4722
 30
-1.64993e-14
  70
    32
  0
VERTEX
  8
0
  5
339A
 10
-73.8709
 20
50.4456
 30
-1.64945e-14
  70
    32
  0
VERTEX
  8
0
  5
339B
 10
-73.8503
 20
50.4191
 30
-1.64896e-14
  70
    32
  0
VERTEX
  8
0
  5
339C
 10
-73.8295
 20
50.3926
 30
-1.64846e-14
  70
    32
  0
VERTEX
  8
0
  5
339D
 10
-73.8085
 20
50.3661
 30
-1.64795e-14
  70
    32
  0
VERTEX
  8
0
  5
339E
 10
-73.7872
 20
50.3397
 30
-1.64744e-14
  70
    32
  0
VERTEX
  8
0
  5
339F
 10
-73.7658
 20
50.3133
 30
-1.64692e-14
  70
    32
  0
VERTEX
  8
0
  5
33A0
 10
-73.7441
 20
50.2869
 30
-1.64639e-14
  70
    32
  0
VERTEX
  8
0
  5
33A1
 10
-73.7223
 20
50.2607
 30
-1.64586e-14
  70
    32
  0
VERTEX
  8
0
  5
33A2
 10
-73.7002
 20
50.2344
 30
-1.64531e-14
  70
    32
  0
VERTEX
  8
0
  5
33A3
 10
-73.6779
 20
50.2082
 30
-1.64476e-14
  70
    32
  0
VERTEX
  8
0
  5
33A4
 10
-73.6554
 20
50.1821
 30
-1.64421e-14
  70
    32
  0
VERTEX
  8
0
  5
33A5
 10
-73.6327
 20
50.1560
 30
-1.64364e-14
  70
    32
  0
VERTEX
  8
0
  5
33A6
 10
-73.6097
 20
50.1300
 30
-1.64307e-14
  70
    32
  0
VERTEX
  8
0
  5
33A7
 10
-73.5865
 20
50.1040
 30
-1.64249e-14
  70
    32
  0
VERTEX
  8
0
  5
33A8
 10
-73.5631
 20
50.0781
 30
-1.64190e-14
  70
    32
  0
VERTEX
  8
0
  5
33A9
 10
-73.5395
 20
50.0523
 30
-1.64131e-14
  70
    32
  0
VERTEX
  8
0
  5
33AA
 10
-73.5157
 20
50.0265
 30
-1.64071e-14
  70
    32
  0
VERTEX
  8
0
  5
33AB
 10
-73.4916
 20
50.0007
 30
-1.64010e-14
  70
    32
  0
VERTEX
  8
0
  5
33AC
 10
-73.4673
 20
49.9751
 30
-1.63948e-14
  70
    32
  0
VERTEX
  8
0
  5
33AD
 10
-73.4428
 20
49.9495
 30
-1.63886e-14
  70
    32
  0
VERTEX
  8
0
  5
33AE
 10
-73.4181
 20
49.9239
 30
-1.63823e-14
  70
    32
  0
VERTEX
  8
0
  5
33AF
 10
-73.3931
 20
49.8984
 30
-1.63759e-14
  70
    32
  0
VERTEX
  8
0
  5
33B0
 10
-73.3679
 20
49.8730
 30
-1.63694e-14
  70
    32
  0
VERTEX
  8
0
  5
33B1
 10
-73.3425
 20
49.8477
 30
-1.63629e-14
  70
    32
  0
VERTEX
  8
0
  5
33B2
 10
-73.3168
 20
49.8224
 30
-1.63563e-14
  70
    32
  0
VERTEX
  8
0
  5
33B3
 10
-73.2909
 20
49.7972
 30
-1.63496e-14
  70
    32
  0
VERTEX
  8
0
  5
33B4
 10
-73.2648
 20
49.7721
 30
-1.63428e-14
  70
    32
  0
VERTEX
  8
0
  5
33B5
 10
-73.2385
 20
49.7470
 30
-1.63360e-14
  70
    32
  0
VERTEX
  8
0
  5
33B6
 10
-73.2119
 20
49.7220
 30
-1.63290e-14
  70
    32
  0
VERTEX
  8
0
  5
33B7
 10
-73.1850
 20
49.6971
 30
-1.63222e-14
  70
    32
  0
VERTEX
  8
0
  5
33B8
 10
-73.1580
 20
49.6723
 30
-1.63154e-14
  70
    32
  0
VERTEX
  8
0
  5
33B9
 10
-73.1307
 20
49.6475
 30
-1.63086e-14
  70
    32
  0
VERTEX
  8
0
  5
33BA
 10
-73.1031
 20
49.6228
 30
-1.63019e-14
  70
    32
  0
VERTEX
  8
0
  5
33BB
 10
-73.0753
 20
49.5983
 30
-1.62952e-14
  70
    32
  0
VERTEX
  8
0
  5
33BC
 10
-73.0473
 20
49.5738
 30
-1.62885e-14
  70
    32
  0
VERTEX
  8
0
  5
33BD
 10
-73.0191
 20
49.5494
 30
-1.62819e-14
  70
    32
  0
VERTEX
  8
0
  5
33BE
 10
-72.9906
 20
49.5251
 30
-1.62754e-14
  70
    32
  0
VERTEX
  8
0
  5
33BF
 10
-72.9618
 20
49.5009
 30
-1.62688e-14
  70
    32
  0
VERTEX
  8
0
  5
33C0
 10
-72.9328
 20
49.4768
 30
-1.62623e-14
  70
    32
  0
VERTEX
  8
0
  5
33C1
 10
-72.9036
 20
49.4528
 30
-1.62559e-14
  70
    32
  0
VERTEX
  8
0
  5
33C2
 10
-72.8741
 20
49.4289
 30
-1.62494e-14
  70
    32
  0
VERTEX
  8
0
  5
33C3
 10
-72.8444
 20
49.4051
 30
-1.62430e-14
  70
    32
  0
VERTEX
  8
0
  5
33C4
 10
-72.8145
 20
49.3815
 30
-1.62366e-14
  70
    32
  0
VERTEX
  8
0
  5
33C5
 10
-72.7842
 20
49.3579
 30
-1.62301e-14
  70
    32
  0
VERTEX
  8
0
  5
33C6
 10
-72.7538
 20
49.3345
 30
-1.62237e-14
  70
    32
  0
VERTEX
  8
0
  5
33C7
 10
-72.7231
 20
49.3112
 30
-1.62174e-14
  70
    32
  0
VERTEX
  8
0
  5
33C8
 10
-72.6921
 20
49.2880
 30
-1.62110e-14
  70
    32
  0
VERTEX
  8
0
  5
33C9
 10
-72.6609
 20
49.2649
 30
-1.62046e-14
  70
    32
  0
VERTEX
  8
0
  5
33CA
 10
-72.6294
 20
49.2420
 30
-1.61982e-14
  70
    32
  0
VERTEX
  8
0
  5
33CB
 10
-72.5977
 20
49.2192
 30
-1.61918e-14
  70
    32
  0
VERTEX
  8
0
  5
33CC
 10
-72.5657
 20
49.1966
 30
-1.61854e-14
  70
    32
  0
VERTEX
  8
0
  5
33CD
 10
-72.5334
 20
49.1740
 30
-1.61789e-14
  70
    32
  0
VERTEX
  8
0
  5
33CE
 10
-72.5009
 20
49.1516
 30
-1.61725e-14
  70
    32
  0
VERTEX
  8
0
  5
33CF
 10
-72.4682
 20
49.1294
 30
-1.61660e-14
  70
    32
  0
VERTEX
  8
0
  5
33D0
 10
-72.4352
 20
49.1073
 30
-1.61596e-14
  70
    32
  0
VERTEX
  8
0
  5
33D1
 10
-72.4019
 20
49.0854
 30
-1.61531e-14
  70
    32
  0
VERTEX
  8
0
  5
33D2
 10
-72.3683
 20
49.0636
 30
-1.61465e-14
  70
    32
  0
VERTEX
  8
0
  5
33D3
 10
-72.3345
 20
49.0419
 30
-1.61399e-14
  70
    32
  0
VERTEX
  8
0
  5
33D4
 10
-72.3005
 20
49.0204
 30
-1.61333e-14
  70
    32
  0
VERTEX
  8
0
  5
33D5
 10
-72.2662
 20
48.9991
 30
-1.61267e-14
  70
    32
  0
VERTEX
  8
0
  5
33D6
 10
-72.2316
 20
48.9780
 30
-1.61200e-14
  70
    32
  0
VERTEX
  8
0
  5
33D7
 10
-72.1967
 20
48.9570
 30
-1.61133e-14
  70
    32
  0
VERTEX
  8
0
  5
33D8
 10
-72.1616
 20
48.9361
 30
-1.61065e-14
  70
    32
  0
VERTEX
  8
0
  5
33D9
 10
-72.1262
 20
48.9155
 30
-1.60997e-14
  70
    32
  0
VERTEX
  8
0
  5
33DA
 10
-72.0905
 20
48.8950
 30
-1.60928e-14
  70
    32
  0
VERTEX
  8
0
  5
33DB
 10
-72.0546
 20
48.8747
 30
-1.60859e-14
  70
    32
  0
VERTEX
  8
0
  5
33DC
 10
-72.0184
 20
48.8545
 30
-1.60788e-14
  70
    32
  0
VERTEX
  8
0
  5
33DD
 10
-71.9819
 20
48.8346
 30
-1.60718e-14
  70
    32
  0
VERTEX
  8
0
  5
33DE
 10
-71.9451
 20
48.8148
 30
-1.60646e-14
  70
    32
  0
VERTEX
  8
0
  5
33DF
 10
-71.9081
 20
48.7952
 30
-1.60574e-14
  70
    32
  0
VERTEX
  8
0
  5
33E0
 10
-71.8708
 20
48.7758
 30
-1.60502e-14
  70
    32
  0
VERTEX
  8
0
  5
33E1
 10
-71.8332
 20
48.7566
 30
-1.60428e-14
  70
    32
  0
VERTEX
  8
0
  5
33E2
 10
-71.7954
 20
48.7376
 30
-1.60354e-14
  70
    32
  0
VERTEX
  8
0
  5
33E3
 10
-71.7573
 20
48.7188
 30
-1.60278e-14
  70
    32
  0
VERTEX
  8
0
  5
33E4
 10
-71.7188
 20
48.7002
 30
-1.60202e-14
  70
    32
  0
VERTEX
  8
0
  5
33E5
 10
-71.6802
 20
48.6818
 30
-1.60125e-14
  70
    32
  0
VERTEX
  8
0
  5
33E6
 10
-71.6412
 20
48.6636
 30
-1.60047e-14
  70
    32
  0
VERTEX
  8
0
  5
33E7
 10
-71.6019
 20
48.6456
 30
-1.59969e-14
  70
    32
  0
VERTEX
  8
0
  5
33E8
 10
-71.5624
 20
48.6279
 30
-1.59889e-14
  70
    32
  0
VERTEX
  8
0
  5
33E9
 10
-71.5226
 20
48.6103
 30
-1.59808e-14
  70
    32
  0
VERTEX
  8
0
  5
33EA
 10
-71.4825
 20
48.5930
 30
-1.59726e-14
  70
    32
  0
VERTEX
  8
0
  5
33EB
 10
-71.4421
 20
48.5758
 30
-1.59643e-14
  70
    32
  0
VERTEX
  8
0
  5
33EC
 10
-71.4014
 20
48.5589
 30
-1.59559e-14
  70
    32
  0
VERTEX
  8
0
  5
33ED
 10
-71.3604
 20
48.5423
 30
-1.59473e-14
  70
    32
  0
VERTEX
  8
0
  5
33EE
 10
-71.3192
 20
48.5258
 30
-1.59387e-14
  70
    32
  0
VERTEX
  8
0
  5
33EF
 10
-71.2776
 20
48.5096
 30
-1.59299e-14
  70
    32
  0
VERTEX
  8
0
  5
33F0
 10
-71.2358
 20
48.4936
 30
-1.59209e-14
  70
    32
  0
VERTEX
  8
0
  5
33F1
 10
-71.1936
 20
48.4779
 30
-1.59118e-14
  70
    32
  0
VERTEX
  8
0
  5
33F2
 10
-71.1512
 20
48.4624
 30
-1.59024e-14
  70
    32
  0
VERTEX
  8
0
  5
33F3
 10
-71.1085
 20
48.4471
 30
-1.58929e-14
  70
    32
  0
VERTEX
  8
0
  5
33F4
 10
-71.0655
 20
48.4321
 30
-1.58832e-14
  70
    32
  0
VERTEX
  8
0
  5
33F5
 10
-71.0223
 20
48.4174
 30
-1.58733e-14
  70
    32
  0
VERTEX
  8
0
  5
33F6
 10
-70.9787
 20
48.4029
 30
-1.58633e-14
  70
    32
  0
VERTEX
  8
0
  5
33F7
 10
-70.9348
 20
48.3888
 30
-1.58531e-14
  70
    32
  0
VERTEX
  8
0
  5
33F8
 10
-70.8907
 20
48.3749
 30
-1.58427e-14
  70
    32
  0
VERTEX
  8
0
  5
33F9
 10
-70.8462
 20
48.3612
 30
-1.58321e-14
  70
    32
  0
VERTEX
  8
0
  5
33FA
 10
-70.8015
 20
48.3479
 30
-1.58215e-14
  70
    32
  0
VERTEX
  8
0
  5
33FB
 10
-70.7565
 20
48.3349
 30
-1.58106e-14
  70
    32
  0
VERTEX
  8
0
  5
33FC
 10
-70.7112
 20
48.3221
 30
-1.57996e-14
  70
    32
  0
VERTEX
  8
0
  5
33FD
 10
-70.6656
 20
48.3097
 30
-1.57885e-14
  70
    32
  0
VERTEX
  8
0
  5
33FE
 10
-70.6197
 20
48.2976
 30
-1.57772e-14
  70
    32
  0
VERTEX
  8
0
  5
33FF
 10
-70.5736
 20
48.2858
 30
-1.57659e-14
  70
    32
  0
VERTEX
  8
0
  5
3400
 10
-70.5271
 20
48.2743
 30
-1.57543e-14
  70
    32
  0
VERTEX
  8
0
  5
3401
 10
-70.4804
 20
48.2632
 30
-1.57427e-14
  70
    32
  0
VERTEX
  8
0
  5
3402
 10
-70.4334
 20
48.2524
 30
-1.57310e-14
  70
    32
  0
VERTEX
  8
0
  5
3403
 10
-70.3860
 20
48.2419
 30
-1.57191e-14
  70
    32
  0
VERTEX
  8
0
  5
3404
 10
-70.3384
 20
48.2318
 30
-1.57071e-14
  70
    32
  0
VERTEX
  8
0
  5
3405
 10
-70.2905
 20
48.2220
 30
-1.56951e-14
  70
    32
  0
VERTEX
  8
0
  5
3406
 10
-70.2423
 20
48.2126
 30
-1.56829e-14
  70
    32
  0
VERTEX
  8
0
  5
3407
 10
-70.1939
 20
48.2036
 30
-1.56706e-14
  70
    32
  0
VERTEX
  8
0
  5
3408
 10
-70.1451
 20
48.1949
 30
-1.56583e-14
  70
    32
  0
VERTEX
  8
0
  5
3409
 10
-70.0961
 20
48.1866
 30
-1.56458e-14
  70
    32
  0
VERTEX
  8
0
  5
340A
 10
-70.0467
 20
48.1786
 30
-1.56333e-14
  70
    32
  0
VERTEX
  8
0
  5
340B
 10
-69.9971
 20
48.1711
 30
-1.56207e-14
  70
    32
  0
VERTEX
  8
0
  5
340C
 10
-69.9472
 20
48.1639
 30
-1.56081e-14
  70
    32
  0
VERTEX
  8
0
  5
340D
 10
-69.8970
 20
48.1572
 30
-1.55953e-14
  70
    32
  0
VERTEX
  8
0
  5
340E
 10
-69.8465
 20
48.1508
 30
-1.55826e-14
  70
    32
  0
VERTEX
  8
0
  5
340F
 10
-69.7957
 20
48.1448
 30
-1.55697e-14
  70
    32
  0
VERTEX
  8
0
  5
3410
 10
-69.7447
 20
48.1393
 30
-1.55568e-14
  70
    32
  0
VERTEX
  8
0
  5
3411
 10
-69.6933
 20
48.1341
 30
-1.55439e-14
  70
    32
  0
VERTEX
  8
0
  5
3412
 10
-69.6417
 20
48.1294
 30
-1.55309e-14
  70
    32
  0
VERTEX
  8
0
  5
3413
 10
-69.5898
 20
48.1252
 30
-1.55179e-14
  70
    32
  0
VERTEX
  8
0
  5
3414
 10
-69.5375
 20
48.1213
 30
-1.55048e-14
  70
    32
  0
VERTEX
  8
0
  5
3415
 10
-69.4850
 20
48.1179
 30
-1.54917e-14
  70
    32
  0
VERTEX
  8
0
  5
3416
 10
-69.4322
 20
48.1149
 30
-1.54786e-14
  70
    32
  0
VERTEX
  8
0
  5
3417
 10
-69.3792
 20
48.1124
 30
-1.54655e-14
  70
    32
  0
VERTEX
  8
0
  5
3418
 10
-69.3258
 20
48.1104
 30
-1.54523e-14
  70
    32
  0
VERTEX
  8
0
  5
3419
 10
-69.2721
 20
48.1088
 30
-1.54392e-14
  70
    32
  0
VERTEX
  8
0
  5
341A
 10
-69.2182
 20
48.1076
 30
-1.54260e-14
  70
    32
  0
VERTEX
  8
0
  5
341B
 10
-69.1640
 20
48.1070
 30
-1.54128e-14
  70
    32
  0
VERTEX
  8
0
  5
341C
 10
-69.1090
 20
48.1068
 30
-1.54004e-14
  70
    32
  0
VERTEX
  8
0
  5
341D
 10
-69.0436
 20
48.1068
 30
-1.53874e-14
  70
    32
  0
VERTEX
  8
0
  5
341E
 10
-68.9768
 20
48.1068
 30
-1.53727e-14
  70
    32
  0
VERTEX
  8
0
  5
341F
 10
-68.9100
 20
48.1068
 30
-1.53579e-14
  70
    32
  0
VERTEX
  8
0
  5
3420
 10
-68.8432
 20
48.1068
 30
-1.53432e-14
  70
    32
  0
VERTEX
  8
0
  5
3421
 10
-68.7764
 20
48.1068
 30
-1.53284e-14
  70
    32
  0
VERTEX
  8
0
  5
3422
 10
-68.7096
 20
48.1068
 30
-1.53137e-14
  70
    32
  0
VERTEX
  8
0
  5
3423
 10
-68.6429
 20
48.1068
 30
-1.52989e-14
  70
    32
  0
VERTEX
  8
0
  5
3424
 10
-68.5761
 20
48.1068
 30
-1.52842e-14
  70
    32
  0
VERTEX
  8
0
  5
3425
 10
-68.5093
 20
48.1068
 30
-1.52694e-14
  70
    32
  0
VERTEX
  8
0
  5
3426
 10
-68.4425
 20
48.1068
 30
-1.52546e-14
  70
    32
  0
VERTEX
  8
0
  5
3427
 10
-68.3757
 20
48.1068
 30
-1.52399e-14
  70
    32
  0
VERTEX
  8
0
  5
3428
 10
-68.3089
 20
48.1068
 30
-1.52251e-14
  70
    32
  0
VERTEX
  8
0
  5
3429
 10
-68.2421
 20
48.1068
 30
-1.52104e-14
  70
    32
  0
VERTEX
  8
0
  5
342A
 10
-68.1754
 20
48.1068
 30
-1.51956e-14
  70
    32
  0
VERTEX
  8
0
  5
342B
 10
-68.1086
 20
48.1068
 30
-1.51808e-14
  70
    32
  0
VERTEX
  8
0
  5
342C
 10
-68.0418
 20
48.1068
 30
-1.51661e-14
  70
    32
  0
VERTEX
  8
0
  5
342D
 10
-67.9750
 20
48.1068
 30
-1.51513e-14
  70
    32
  0
VERTEX
  8
0
  5
342E
 10
-67.9082
 20
48.1068
 30
-1.51365e-14
  70
    32
  0
VERTEX
  8
0
  5
342F
 10
-67.8414
 20
48.1068
 30
-1.51218e-14
  70
    32
  0
VERTEX
  8
0
  5
3430
 10
-67.7746
 20
48.1068
 30
-1.51070e-14
  70
    32
  0
VERTEX
  8
0
  5
3431
 10
-67.7079
 20
48.1068
 30
-1.50922e-14
  70
    32
  0
VERTEX
  8
0
  5
3432
 10
-67.6411
 20
48.1068
 30
-1.50775e-14
  70
    32
  0
VERTEX
  8
0
  5
3433
 10
-67.5743
 20
48.1068
 30
-1.50627e-14
  70
    32
  0
VERTEX
  8
0
  5
3434
 10
-67.5075
 20
48.1068
 30
-1.50479e-14
  70
    32
  0
VERTEX
  8
0
  5
3435
 10
-67.4407
 20
48.1068
 30
-1.50332e-14
  70
    32
  0
VERTEX
  8
0
  5
3436
 10
-67.3739
 20
48.1068
 30
-1.50184e-14
  70
    32
  0
VERTEX
  8
0
  5
3437
 10
-67.3071
 20
48.1068
 30
-1.50036e-14
  70
    32
  0
VERTEX
  8
0
  5
3438
 10
-67.2404
 20
48.1068
 30
-1.49889e-14
  70
    32
  0
VERTEX
  8
0
  5
3439
 10
-67.1736
 20
48.1068
 30
-1.49741e-14
  70
    32
  0
VERTEX
  8
0
  5
343A
 10
-67.1068
 20
48.1068
 30
-1.49593e-14
  70
    32
  0
VERTEX
  8
0
  5
343B
 10
-67.0400
 20
48.1068
 30
-1.49445e-14
  70
    32
  0
VERTEX
  8
0
  5
343C
 10
-66.9732
 20
48.1068
 30
-1.49298e-14
  70
    32
  0
VERTEX
  8
0
  5
343D
 10
-66.9064
 20
48.1068
 30
-1.49150e-14
  70
    32
  0
VERTEX
  8
0
  5
343E
 10
-66.8396
 20
48.1068
 30
-1.49002e-14
  70
    32
  0
VERTEX
  8
0
  5
343F
 10
-66.7729
 20
48.1068
 30
-1.48855e-14
  70
    32
  0
VERTEX
  8
0
  5
3440
 10
-66.7061
 20
48.1068
 30
-1.48707e-14
  70
    32
  0
VERTEX
  8
0
  5
3441
 10
-66.6393
 20
48.1068
 30
-1.48559e-14
  70
    32
  0
VERTEX
  8
0
  5
3442
 10
-66.5725
 20
48.1068
 30
-1.48411e-14
  70
    32
  0
VERTEX
  8
0
  5
3443
 10
-66.5057
 20
48.1068
 30
-1.48263e-14
  70
    32
  0
VERTEX
  8
0
  5
3444
 10
-66.4389
 20
48.1068
 30
-1.48116e-14
  70
    32
  0
VERTEX
  8
0
  5
3445
 10
-66.3721
 20
48.1068
 30
-1.47968e-14
  70
    32
  0
VERTEX
  8
0
  5
3446
 10
-66.3053
 20
48.1068
 30
-1.47820e-14
  70
    32
  0
VERTEX
  8
0
  5
3447
 10
-66.2386
 20
48.1068
 30
-1.47672e-14
  70
    32
  0
VERTEX
  8
0
  5
3448
 10
-66.1718
 20
48.1068
 30
-1.47525e-14
  70
    32
  0
VERTEX
  8
0
  5
3449
 10
-66.1050
 20
48.1068
 30
-1.47377e-14
  70
    32
  0
VERTEX
  8
0
  5
344A
 10
-66.0382
 20
48.1068
 30
-1.47229e-14
  70
    32
  0
VERTEX
  8
0
  5
344B
 10
-65.9714
 20
48.1068
 30
-1.47081e-14
  70
    32
  0
VERTEX
  8
0
  5
344C
 10
-65.9046
 20
48.1068
 30
-1.46933e-14
  70
    32
  0
VERTEX
  8
0
  5
344D
 10
-65.8378
 20
48.1068
 30
-1.46785e-14
  70
    32
  0
VERTEX
  8
0
  5
344E
 10
-65.7711
 20
48.1068
 30
-1.46638e-14
  70
    32
  0
VERTEX
  8
0
  5
344F
 10
-65.7043
 20
48.1068
 30
-1.46490e-14
  70
    32
  0
VERTEX
  8
0
  5
3450
 10
-65.6375
 20
48.1068
 30
-1.46342e-14
  70
    32
  0
VERTEX
  8
0
  5
3451
 10
-65.5707
 20
48.1068
 30
-1.46194e-14
  70
    32
  0
VERTEX
  8
0
  5
3452
 10
-65.5039
 20
48.1068
 30
-1.46046e-14
  70
    32
  0
VERTEX
  8
0
  5
3453
 10
-65.4371
 20
48.1068
 30
-1.45898e-14
  70
    32
  0
VERTEX
  8
0
  5
3454
 10
-65.3703
 20
48.1068
 30
-1.45751e-14
  70
    32
  0
VERTEX
  8
0
  5
3455
 10
-65.3036
 20
48.1068
 30
-1.45603e-14
  70
    32
  0
VERTEX
  8
0
  5
3456
 10
-65.2368
 20
48.1068
 30
-1.45455e-14
  70
    32
  0
VERTEX
  8
0
  5
3457
 10
-65.1700
 20
48.1068
 30
-1.45307e-14
  70
    32
  0
VERTEX
  8
0
  5
3458
 10
-65.1032
 20
48.1068
 30
-1.45159e-14
  70
    32
  0
VERTEX
  8
0
  5
3459
 10
-65.0364
 20
48.1068
 30
-1.45011e-14
  70
    32
  0
VERTEX
  8
0
  5
345A
 10
-64.9696
 20
48.1068
 30
-1.44863e-14
  70
    32
  0
VERTEX
  8
0
  5
345B
 10
-64.9028
 20
48.1068
 30
-1.44715e-14
  70
    32
  0
VERTEX
  8
0
  5
345C
 10
-64.8361
 20
48.1068
 30
-1.44568e-14
  70
    32
  0
VERTEX
  8
0
  5
345D
 10
-64.7693
 20
48.1068
 30
-1.44420e-14
  70
    32
  0
VERTEX
  8
0
  5
345E
 10
-64.7025
 20
48.1068
 30
-1.44272e-14
  70
    32
  0
VERTEX
  8
0
  5
345F
 10
-64.6357
 20
48.1068
 30
-1.44124e-14
  70
    32
  0
VERTEX
  8
0
  5
3460
 10
-64.5689
 20
48.1068
 30
-1.43976e-14
  70
    32
  0
VERTEX
  8
0
  5
3461
 10
-64.5021
 20
48.1068
 30
-1.43828e-14
  70
    32
  0
VERTEX
  8
0
  5
3462
 10
-64.4353
 20
48.1068
 30
-1.43680e-14
  70
    32
  0
VERTEX
  8
0
  5
3463
 10
-64.3686
 20
48.1068
 30
-1.43532e-14
  70
    32
  0
VERTEX
  8
0
  5
3464
 10
-64.3018
 20
48.1068
 30
-1.43384e-14
  70
    32
  0
VERTEX
  8
0
  5
3465
 10
-64.2350
 20
48.1068
 30
-1.43236e-14
  70
    32
  0
VERTEX
  8
0
  5
3466
 10
-64.1682
 20
48.1068
 30
-1.43088e-14
  70
    32
  0
VERTEX
  8
0
  5
3467
 10
-64.1014
 20
48.1068
 30
-1.42940e-14
  70
    32
  0
VERTEX
  8
0
  5
3468
 10
-64.0346
 20
48.1068
 30
-1.42793e-14
  70
    32
  0
VERTEX
  8
0
  5
3469
 10
-63.9678
 20
48.1068
 30
-1.42645e-14
  70
    32
  0
VERTEX
  8
0
  5
346A
 10
-63.9010
 20
48.1068
 30
-1.42497e-14
  70
    32
  0
VERTEX
  8
0
  5
346B
 10
-63.8343
 20
48.1068
 30
-1.42349e-14
  70
    32
  0
VERTEX
  8
0
  5
346C
 10
-63.7675
 20
48.1068
 30
-1.42201e-14
  70
    32
  0
VERTEX
  8
0
  5
346D
 10
-63.7007
 20
48.1068
 30
-1.42053e-14
  70
    32
  0
VERTEX
  8
0
  5
346E
 10
-63.6339
 20
48.1068
 30
-1.41905e-14
  70
    32
  0
VERTEX
  8
0
  5
346F
 10
-63.5671
 20
48.1068
 30
-1.41757e-14
  70
    32
  0
VERTEX
  8
0
  5
3470
 10
-63.5003
 20
48.1068
 30
-1.41609e-14
  70
    32
  0
VERTEX
  8
0
  5
3471
 10
-63.4335
 20
48.1068
 30
-1.41461e-14
  70
    32
  0
VERTEX
  8
0
  5
3472
 10
-63.3668
 20
48.1068
 30
-1.41313e-14
  70
    32
  0
VERTEX
  8
0
  5
3473
 10
-63.3000
 20
48.1068
 30
-1.41165e-14
  70
    32
  0
VERTEX
  8
0
  5
3474
 10
-63.2332
 20
48.1068
 30
-1.41017e-14
  70
    32
  0
VERTEX
  8
0
  5
3475
 10
-63.1664
 20
48.1068
 30
-1.40869e-14
  70
    32
  0
VERTEX
  8
0
  5
3476
 10
-63.0996
 20
48.1068
 30
-1.40721e-14
  70
    32
  0
VERTEX
  8
0
  5
3477
 10
-63.0328
 20
48.1068
 30
-1.40573e-14
  70
    32
  0
VERTEX
  8
0
  5
3478
 10
-62.9660
 20
48.1068
 30
-1.40425e-14
  70
    32
  0
VERTEX
  8
0
  5
3479
 10
-62.8993
 20
48.1068
 30
-1.40277e-14
  70
    32
  0
VERTEX
  8
0
  5
347A
 10
-62.8325
 20
48.1068
 30
-1.40129e-14
  70
    32
  0
VERTEX
  8
0
  5
347B
 10
-62.7657
 20
48.1068
 30
-1.39981e-14
  70
    32
  0
VERTEX
  8
0
  5
347C
 10
-62.6989
 20
48.1068
 30
-1.39833e-14
  70
    32
  0
VERTEX
  8
0
  5
347D
 10
-62.6321
 20
48.1068
 30
-1.39685e-14
  70
    32
  0
VERTEX
  8
0
  5
347E
 10
-62.5653
 20
48.1068
 30
-1.39537e-14
  70
    32
  0
VERTEX
  8
0
  5
347F
 10
-62.4985
 20
48.1068
 30
-1.39389e-14
  70
    32
  0
VERTEX
  8
0
  5
3480
 10
-62.4318
 20
48.1068
 30
-1.39241e-14
  70
    32
  0
VERTEX
  8
0
  5
3481
 10
-62.3650
 20
48.1068
 30
-1.39093e-14
  70
    32
  0
VERTEX
  8
0
  5
3482
 10
-62.2982
 20
48.1068
 30
-1.38945e-14
  70
    32
  0
VERTEX
  8
0
  5
3483
 10
-62.2314
 20
48.1068
 30
-1.38797e-14
  70
    32
  0
VERTEX
  8
0
  5
3484
 10
-62.1646
 20
48.1068
 30
-1.38649e-14
  70
    32
  0
VERTEX
  8
0
  5
3485
 10
-62.0978
 20
48.1068
 30
-1.38501e-14
  70
    32
  0
VERTEX
  8
0
  5
3486
 10
-62.0310
 20
48.1068
 30
-1.38353e-14
  70
    32
  0
VERTEX
  8
0
  5
3487
 10
-61.9643
 20
48.1068
 30
-1.38205e-14
  70
    32
  0
VERTEX
  8
0
  5
3488
 10
-61.8975
 20
48.1068
 30
-1.38057e-14
  70
    32
  0
VERTEX
  8
0
  5
3489
 10
-61.8307
 20
48.1068
 30
-1.37909e-14
  70
    32
  0
VERTEX
  8
0
  5
348A
 10
-61.7639
 20
48.1068
 30
-1.37761e-14
  70
    32
  0
VERTEX
  8
0
  5
348B
 10
-61.6971
 20
48.1068
 30
-1.37613e-14
  70
    32
  0
VERTEX
  8
0
  5
348C
 10
-61.6303
 20
48.1068
 30
-1.37465e-14
  70
    32
  0
VERTEX
  8
0
  5
348D
 10
-61.5635
 20
48.1068
 30
-1.37317e-14
  70
    32
  0
VERTEX
  8
0
  5
348E
 10
-61.4967
 20
48.1068
 30
-1.37169e-14
  70
    32
  0
VERTEX
  8
0
  5
348F
 10
-61.4300
 20
48.1068
 30
-1.37021e-14
  70
    32
  0
VERTEX
  8
0
  5
3490
 10
-61.3632
 20
48.1068
 30
-1.36873e-14
  70
    32
  0
VERTEX
  8
0
  5
3491
 10
-61.2964
 20
48.1068
 30
-1.36725e-14
  70
    32
  0
VERTEX
  8
0
  5
3492
 10
-61.2296
 20
48.1068
 30
-1.36576e-14
  70
    32
  0
VERTEX
  8
0
  5
3493
 10
-61.1628
 20
48.1068
 30
-1.36428e-14
  70
    32
  0
VERTEX
  8
0
  5
3494
 10
-61.0960
 20
48.1068
 30
-1.36280e-14
  70
    32
  0
VERTEX
  8
0
  5
3495
 10
-61.0292
 20
48.1068
 30
-1.36132e-14
  70
    32
  0
VERTEX
  8
0
  5
3496
 10
-60.9625
 20
48.1068
 30
-1.35984e-14
  70
    32
  0
VERTEX
  8
0
  5
3497
 10
-60.8957
 20
48.1068
 30
-1.35836e-14
  70
    32
  0
VERTEX
  8
0
  5
3498
 10
-60.8289
 20
48.1068
 30
-1.35688e-14
  70
    32
  0
VERTEX
  8
0
  5
3499
 10
-60.7621
 20
48.1068
 30
-1.35540e-14
  70
    32
  0
VERTEX
  8
0
  5
349A
 10
-60.6953
 20
48.1068
 30
-1.35392e-14
  70
    32
  0
VERTEX
  8
0
  5
349B
 10
-60.6285
 20
48.1068
 30
-1.35244e-14
  70
    32
  0
VERTEX
  8
0
  5
349C
 10
-60.5617
 20
48.1068
 30
-1.35096e-14
  70
    32
  0
VERTEX
  8
0
  5
349D
 10
-60.4950
 20
48.1068
 30
-1.34948e-14
  70
    32
  0
VERTEX
  8
0
  5
349E
 10
-60.4282
 20
48.1068
 30
-1.34800e-14
  70
    32
  0
VERTEX
  8
0
  5
349F
 10
-60.3614
 20
48.1068
 30
-1.34652e-14
  70
    32
  0
VERTEX
  8
0
  5
34A0
 10
-60.2946
 20
48.1068
 30
-1.34504e-14
  70
    32
  0
VERTEX
  8
0
  5
34A1
 10
-60.2278
 20
48.1068
 30
-1.34356e-14
  70
    32
  0
VERTEX
  8
0
  5
34A2
 10
-60.1610
 20
48.1068
 30
-1.34208e-14
  70
    32
  0
VERTEX
  8
0
  5
34A3
 10
-60.0942
 20
48.1068
 30
-1.34060e-14
  70
    32
  0
VERTEX
  8
0
  5
34A4
 10
-60.0275
 20
48.1068
 30
-1.33912e-14
  70
    32
  0
VERTEX
  8
0
  5
34A5
 10
-59.9607
 20
48.1068
 30
-1.33763e-14
  70
    32
  0
VERTEX
  8
0
  5
34A6
 10
-59.8939
 20
48.1068
 30
-1.33615e-14
  70
    32
  0
VERTEX
  8
0
  5
34A7
 10
-59.8271
 20
48.1068
 30
-1.33467e-14
  70
    32
  0
VERTEX
  8
0
  5
34A8
 10
-59.7603
 20
48.1068
 30
-1.33319e-14
  70
    32
  0
VERTEX
  8
0
  5
34A9
 10
-59.6935
 20
48.1068
 30
-1.33171e-14
  70
    32
  0
VERTEX
  8
0
  5
34AA
 10
-59.6267
 20
48.1068
 30
-1.33023e-14
  70
    32
  0
VERTEX
  8
0
  5
34AB
 10
-59.5598
 20
48.1068
 30
-1.32909e-14
  70
    32
  0
VERTEX
  8
0
  5
34AC
 10
-59.4925
 20
48.1068
 30
-1.32794e-14
  70
    32
  0
VERTEX
  8
0
  5
34AD
 10
-59.4247
 20
48.1068
 30
-1.32672e-14
  70
    32
  0
VERTEX
  8
0
  5
34AE
 10
-59.3565
 20
48.1068
 30
-1.32544e-14
  70
    32
  0
VERTEX
  8
0
  5
34AF
 10
-59.2878
 20
48.1068
 30
-1.32410e-14
  70
    32
  0
VERTEX
  8
0
  5
34B0
 10
-59.2188
 20
48.1068
 30
-1.32271e-14
  70
    32
  0
VERTEX
  8
0
  5
34B1
 10
-59.1492
 20
48.1068
 30
-1.32126e-14
  70
    32
  0
VERTEX
  8
0
  5
34B2
 10
-59.0793
 20
48.1068
 30
-1.31977e-14
  70
    32
  0
VERTEX
  8
0
  5
34B3
 10
-59.0088
 20
48.1068
 30
-1.31823e-14
  70
    32
  0
VERTEX
  8
0
  5
34B4
 10
-58.9380
 20
48.1068
 30
-1.31665e-14
  70
    32
  0
VERTEX
  8
0
  5
34B5
 10
-58.8666
 20
48.1068
 30
-1.31504e-14
  70
    32
  0
VERTEX
  8
0
  5
34B6
 10
-58.7948
 20
48.1068
 30
-1.31340e-14
  70
    32
  0
VERTEX
  8
0
  5
34B7
 10
-58.7225
 20
48.1068
 30
-1.31172e-14
  70
    32
  0
VERTEX
  8
0
  5
34B8
 10
-58.6497
 20
48.1068
 30
-1.31002e-14
  70
    32
  0
VERTEX
  8
0
  5
34B9
 10
-58.5765
 20
48.1068
 30
-1.30830e-14
  70
    32
  0
VERTEX
  8
0
  5
34BA
 10
-58.5028
 20
48.1068
 30
-1.30657e-14
  70
    32
  0
VERTEX
  8
0
  5
34BB
 10
-58.4285
 20
48.1068
 30
-1.30482e-14
  70
    32
  0
VERTEX
  8
0
  5
34BC
 10
-58.3538
 20
48.1068
 30
-1.30306e-14
  70
    32
  0
VERTEX
  8
0
  5
34BD
 10
-58.2786
 20
48.1068
 30
-1.30129e-14
  70
    32
  0
VERTEX
  8
0
  5
34BE
 10
-58.2029
 20
48.1068
 30
-1.29953e-14
  70
    32
  0
VERTEX
  8
0
  5
34BF
 10
-58.1266
 20
48.1068
 30
-1.29776e-14
  70
    32
  0
VERTEX
  8
0
  5
34C0
 10
-58.0499
 20
48.1068
 30
-1.29601e-14
  70
    32
  0
VERTEX
  8
0
  5
34C1
 10
-57.9726
 20
48.1068
 30
-1.29426e-14
  70
    32
  0
VERTEX
  8
0
  5
34C2
 10
-57.8948
 20
48.1068
 30
-1.29252e-14
  70
    32
  0
VERTEX
  8
0
  5
34C3
 10
-57.8165
 20
48.1068
 30
-1.29081e-14
  70
    32
  0
VERTEX
  8
0
  5
34C4
 10
-57.7376
 20
48.1068
 30
-1.28911e-14
  70
    32
  0
VERTEX
  8
0
  5
34C5
 10
-57.6582
 20
48.1068
 30
-1.28744e-14
  70
    32
  0
VERTEX
  8
0
  5
34C6
 10
-57.5782
 20
48.1068
 30
-1.28580e-14
  70
    32
  0
VERTEX
  8
0
  5
34C7
 10
-57.4977
 20
48.1068
 30
-1.28417e-14
  70
    32
  0
VERTEX
  8
0
  5
34C8
 10
-57.4157
 20
48.1068
 30
-1.28226e-14
  70
    32
  0
VERTEX
  8
0
  5
34C9
 10
-57.3320
 20
48.1068
 30
-1.28006e-14
  70
    32
  0
VERTEX
  8
0
  5
34CA
 10
-57.2466
 20
48.1068
 30
-1.27765e-14
  70
    32
  0
VERTEX
  8
0
  5
34CB
 10
-57.1594
 20
48.1068
 30
-1.27510e-14
  70
    32
  0
VERTEX
  8
0
  5
34CC
 10
-57.0704
 20
48.1068
 30
-1.27250e-14
  70
    32
  0
VERTEX
  8
0
  5
34CD
 10
-56.9795
 20
48.1068
 30
-1.26990e-14
  70
    32
  0
VERTEX
  8
0
  5
34CE
 10
-56.8865
 20
48.1068
 30
-1.26740e-14
  70
    32
  0
VERTEX
  8
0
  5
34CF
 10
-56.7916
 20
48.1068
 30
-1.26506e-14
  70
    32
  0
VERTEX
  8
0
  5
34D0
 10
-56.6955
 20
48.1068
 30
-1.26295e-14
  70
    32
  0
VERTEX
  8
0
  5
34D1
 10
-56.6058
 20
48.1068
 30
-1.26106e-14
  70
    32
  0
VERTEX
  8
0
  5
34D2
 10
-56.5237
 20
48.1067
 30
-1.25935e-14
  70
    32
  0
VERTEX
  8
0
  5
34D3
 10
-56.4489
 20
48.1066
 30
-1.25782e-14
  70
    32
  0
VERTEX
  8
0
  5
34D4
 10
-56.3807
 20
48.1066
 30
-1.25645e-14
  70
    32
  0
VERTEX
  8
0
  5
34D5
 10
-56.3186
 20
48.1065
 30
-1.25523e-14
  70
    32
  0
VERTEX
  8
0
  5
34D6
 10
-56.2621
 20
48.1065
 30
-1.25414e-14
  70
    32
  0
VERTEX
  8
0
  5
34D7
 10
-56.2107
 20
48.1065
 30
-1.25317e-14
  70
    32
  0
VERTEX
  8
0
  5
34D8
 10
-56.1639
 20
48.1066
 30
-1.25230e-14
  70
    32
  0
VERTEX
  8
0
  5
34D9
 10
-56.1210
 20
48.1067
 30
-1.25153e-14
  70
    32
  0
VERTEX
  8
0
  5
34DA
 10
-56.0817
 20
48.1070
 30
-1.25083e-14
  70
    32
  0
VERTEX
  8
0
  5
34DB
 10
-56.0454
 20
48.1073
 30
-1.25019e-14
  70
    32
  0
VERTEX
  8
0
  5
34DC
 10
-56.0115
 20
48.1077
 30
-1.24961e-14
  70
    32
  0
VERTEX
  8
0
  5
34DD
 10
-55.9795
 20
48.1083
 30
-1.24905e-14
  70
    32
  0
VERTEX
  8
0
  5
34DE
 10
-55.9490
 20
48.1090
 30
-1.24852e-14
  70
    32
  0
VERTEX
  8
0
  5
34DF
 10
-55.9193
 20
48.1099
 30
-1.24799e-14
  70
    32
  0
VERTEX
  8
0
  5
34E0
 10
-55.8900
 20
48.1109
 30
-1.24746e-14
  70
    32
  0
VERTEX
  8
0
  5
34E1
 10
-55.8606
 20
48.1121
 30
-1.24690e-14
  70
    32
  0
VERTEX
  8
0
  5
34E2
 10
-55.8304
 20
48.1136
 30
-1.24631e-14
  70
    32
  0
VERTEX
  8
0
  5
34E3
 10
-55.7990
 20
48.1152
 30
-1.24567e-14
  70
    32
  0
VERTEX
  8
0
  5
34E4
 10
-55.7662
 20
48.1170
 30
-1.24498e-14
  70
    32
  0
VERTEX
  8
0
  5
34E5
 10
-55.7330
 20
48.1190
 30
-1.24427e-14
  70
    32
  0
VERTEX
  8
0
  5
34E6
 10
-55.6998
 20
48.1213
 30
-1.24355e-14
  70
    32
  0
VERTEX
  8
0
  5
34E7
 10
-55.6664
 20
48.1237
 30
-1.24283e-14
  70
    32
  0
VERTEX
  8
0
  5
34E8
 10
-55.6331
 20
48.1262
 30
-1.24210e-14
  70
    32
  0
VERTEX
  8
0
  5
34E9
 10
-55.5996
 20
48.1290
 30
-1.24136e-14
  70
    32
  0
VERTEX
  8
0
  5
34EA
 10
-55.5661
 20
48.1320
 30
-1.24062e-14
  70
    32
  0
VERTEX
  8
0
  5
34EB
 10
-55.5324
 20
48.1352
 30
-1.23988e-14
  70
    32
  0
VERTEX
  8
0
  5
34EC
 10
-55.4988
 20
48.1385
 30
-1.23913e-14
  70
    32
  0
VERTEX
  8
0
  5
34ED
 10
-55.4650
 20
48.1421
 30
-1.23837e-14
  70
    32
  0
VERTEX
  8
0
  5
34EE
 10
-55.4312
 20
48.1458
 30
-1.23761e-14
  70
    32
  0
VERTEX
  8
0
  5
34EF
 10
-55.3973
 20
48.1498
 30
-1.23685e-14
  70
    32
  0
VERTEX
  8
0
  5
34F0
 10
-55.3634
 20
48.1540
 30
-1.23608e-14
  70
    32
  0
VERTEX
  8
0
  5
34F1
 10
-55.3294
 20
48.1583
 30
-1.23530e-14
  70
    32
  0
VERTEX
  8
0
  5
34F2
 10
-55.2953
 20
48.1629
 30
-1.23452e-14
  70
    32
  0
VERTEX
  8
0
  5
34F3
 10
-55.2612
 20
48.1677
 30
-1.23374e-14
  70
    32
  0
VERTEX
  8
0
  5
34F4
 10
-55.2270
 20
48.1727
 30
-1.23296e-14
  70
    32
  0
VERTEX
  8
0
  5
34F5
 10
-55.1927
 20
48.1779
 30
-1.23217e-14
  70
    32
  0
VERTEX
  8
0
  5
34F6
 10
-55.1584
 20
48.1833
 30
-1.23137e-14
  70
    32
  0
VERTEX
  8
0
  5
34F7
 10
-55.1240
 20
48.1889
 30
-1.23058e-14
  70
    32
  0
VERTEX
  8
0
  5
34F8
 10
-55.0896
 20
48.1948
 30
-1.22978e-14
  70
    32
  0
VERTEX
  8
0
  5
34F9
 10
-55.0551
 20
48.2008
 30
-1.22897e-14
  70
    32
  0
VERTEX
  8
0
  5
34FA
 10
-55.0205
 20
48.2071
 30
-1.22817e-14
  70
    32
  0
VERTEX
  8
0
  5
34FB
 10
-54.9859
 20
48.2136
 30
-1.22736e-14
  70
    32
  0
VERTEX
  8
0
  5
34FC
 10
-54.9513
 20
48.2204
 30
-1.22655e-14
  70
    32
  0
VERTEX
  8
0
  5
34FD
 10
-54.9165
 20
48.2273
 30
-1.22574e-14
  70
    32
  0
VERTEX
  8
0
  5
34FE
 10
-54.8818
 20
48.2345
 30
-1.22493e-14
  70
    32
  0
VERTEX
  8
0
  5
34FF
 10
-54.8470
 20
48.2419
 30
-1.22411e-14
  70
    32
  0
VERTEX
  8
0
  5
3500
 10
-54.8121
 20
48.2495
 30
-1.22329e-14
  70
    32
  0
VERTEX
  8
0
  5
3501
 10
-54.7772
 20
48.2574
 30
-1.22247e-14
  70
    32
  0
VERTEX
  8
0
  5
3502
 10
-54.7422
 20
48.2655
 30
-1.22165e-14
  70
    32
  0
VERTEX
  8
0
  5
3503
 10
-54.7072
 20
48.2738
 30
-1.22083e-14
  70
    32
  0
VERTEX
  8
0
  5
3504
 10
-54.6722
 20
48.2824
 30
-1.22001e-14
  70
    32
  0
VERTEX
  8
0
  5
3505
 10
-54.6371
 20
48.2912
 30
-1.21919e-14
  70
    32
  0
VERTEX
  8
0
  5
3506
 10
-54.6020
 20
48.3002
 30
-1.21836e-14
  70
    32
  0
VERTEX
  8
0
  5
3507
 10
-54.5668
 20
48.3095
 30
-1.21754e-14
  70
    32
  0
VERTEX
  8
0
  5
3508
 10
-54.5316
 20
48.3191
 30
-1.21671e-14
  70
    32
  0
VERTEX
  8
0
  5
3509
 10
-54.4963
 20
48.3289
 30
-1.21589e-14
  70
    32
  0
VERTEX
  8
0
  5
350A
 10
-54.4610
 20
48.3389
 30
-1.21506e-14
  70
    32
  0
VERTEX
  8
0
  5
350B
 10
-54.4256
 20
48.3491
 30
-1.21424e-14
  70
    32
  0
VERTEX
  8
0
  5
350C
 10
-54.3903
 20
48.3597
 30
-1.21342e-14
  70
    32
  0
VERTEX
  8
0
  5
350D
 10
-54.3549
 20
48.3704
 30
-1.21259e-14
  70
    32
  0
VERTEX
  8
0
  5
350E
 10
-54.3194
 20
48.3815
 30
-1.21177e-14
  70
    32
  0
VERTEX
  8
0
  5
350F
 10
-54.2839
 20
48.3928
 30
-1.21095e-14
  70
    32
  0
VERTEX
  8
0
  5
3510
 10
-54.2484
 20
48.4043
 30
-1.21013e-14
  70
    32
  0
VERTEX
  8
0
  5
3511
 10
-54.2128
 20
48.4161
 30
-1.20931e-14
  70
    32
  0
VERTEX
  8
0
  5
3512
 10
-54.1773
 20
48.4282
 30
-1.20850e-14
  70
    32
  0
VERTEX
  8
0
  5
3513
 10
-54.1417
 20
48.4405
 30
-1.20768e-14
  70
    32
  0
VERTEX
  8
0
  5
3514
 10
-54.1060
 20
48.4531
 30
-1.20687e-14
  70
    32
  0
VERTEX
  8
0
  5
3515
 10
-54.0703
 20
48.4659
 30
-1.20606e-14
  70
    32
  0
VERTEX
  8
0
  5
3516
 10
-54.0346
 20
48.4790
 30
-1.20525e-14
  70
    32
  0
VERTEX
  8
0
  5
3517
 10
-53.9989
 20
48.4924
 30
-1.20444e-14
  70
    32
  0
VERTEX
  8
0
  5
3518
 10
-53.9632
 20
48.5061
 30
-1.20364e-14
  70
    32
  0
VERTEX
  8
0
  5
3519
 10
-53.9274
 20
48.5200
 30
-1.20284e-14
  70
    32
  0
VERTEX
  8
0
  5
351A
 10
-53.8916
 20
48.5342
 30
-1.20204e-14
  70
    32
  0
VERTEX
  8
0
  5
351B
 10
-53.8558
 20
48.5487
 30
-1.20125e-14
  70
    32
  0
VERTEX
  8
0
  5
351C
 10
-53.8199
 20
48.5634
 30
-1.20046e-14
  70
    32
  0
VERTEX
  8
0
  5
351D
 10
-53.7841
 20
48.5784
 30
-1.19967e-14
  70
    32
  0
VERTEX
  8
0
  5
351E
 10
-53.7482
 20
48.5937
 30
-1.19888e-14
  70
    32
  0
VERTEX
  8
0
  5
351F
 10
-53.7123
 20
48.6093
 30
-1.19810e-14
  70
    32
  0
VERTEX
  8
0
  5
3520
 10
-53.6764
 20
48.6252
 30
-1.19733e-14
  70
    32
  0
VERTEX
  8
0
  5
3521
 10
-53.6405
 20
48.6414
 30
-1.19656e-14
  70
    32
  0
VERTEX
  8
0
  5
3522
 10
-53.6045
 20
48.6578
 30
-1.19579e-14
  70
    32
  0
VERTEX
  8
0
  5
3523
 10
-53.5686
 20
48.6746
 30
-1.19503e-14
  70
    32
  0
VERTEX
  8
0
  5
3524
 10
-53.5326
 20
48.6916
 30
-1.19427e-14
  70
    32
  0
VERTEX
  8
0
  5
3525
 10
-53.4966
 20
48.7089
 30
-1.19351e-14
  70
    32
  0
VERTEX
  8
0
  5
3526
 10
-53.4606
 20
48.7265
 30
-1.19276e-14
  70
    32
  0
VERTEX
  8
0
  5
3527
 10
-53.4246
 20
48.7444
 30
-1.19198e-14
  70
    32
  0
VERTEX
  8
0
  5
3528
 10
-53.3886
 20
48.7626
 30
-1.19120e-14
  70
    32
  0
VERTEX
  8
0
  5
3529
 10
-53.3527
 20
48.7811
 30
-1.19041e-14
  70
    32
  0
VERTEX
  8
0
  5
352A
 10
-53.3167
 20
48.7999
 30
-1.18960e-14
  70
    32
  0
VERTEX
  8
0
  5
352B
 10
-53.2807
 20
48.8190
 30
-1.18878e-14
  70
    32
  0
VERTEX
  8
0
  5
352C
 10
-53.2448
 20
48.8384
 30
-1.18796e-14
  70
    32
  0
VERTEX
  8
0
  5
352D
 10
-53.2089
 20
48.8581
 30
-1.18713e-14
  70
    32
  0
VERTEX
  8
0
  5
352E
 10
-53.1730
 20
48.8781
 30
-1.18629e-14
  70
    32
  0
VERTEX
  8
0
  5
352F
 10
-53.1371
 20
48.8984
 30
-1.18544e-14
  70
    32
  0
VERTEX
  8
0
  5
3530
 10
-53.1013
 20
48.9190
 30
-1.18458e-14
  70
    32
  0
VERTEX
  8
0
  5
3531
 10
-53.0655
 20
48.9399
 30
-1.18372e-14
  70
    32
  0
VERTEX
  8
0
  5
3532
 10
-53.0297
 20
48.9612
 30
-1.18285e-14
  70
    32
  0
VERTEX
  8
0
  5
3533
 10
-52.9940
 20
48.9827
 30
-1.18197e-14
  70
    32
  0
VERTEX
  8
0
  5
3534
 10
-52.9583
 20
49.0046
 30
-1.18110e-14
  70
    32
  0
VERTEX
  8
0
  5
3535
 10
-52.9226
 20
49.0268
 30
-1.18021e-14
  70
    32
  0
VERTEX
  8
0
  5
3536
 10
-52.8870
 20
49.0493
 30
-1.17932e-14
  70
    32
  0
VERTEX
  8
0
  5
3537
 10
-52.8514
 20
49.0722
 30
-1.17843e-14
  70
    32
  0
VERTEX
  8
0
  5
3538
 10
-52.8159
 20
49.0953
 30
-1.17754e-14
  70
    32
  0
VERTEX
  8
0
  5
3539
 10
-52.7805
 20
49.1188
 30
-1.17665e-14
  70
    32
  0
VERTEX
  8
0
  5
353A
 10
-52.7451
 20
49.1427
 30
-1.17575e-14
  70
    32
  0
VERTEX
  8
0
  5
353B
 10
-52.7097
 20
49.1668
 30
-1.17485e-14
  70
    32
  0
VERTEX
  8
0
  5
353C
 10
-52.6744
 20
49.1913
 30
-1.17396e-14
  70
    32
  0
VERTEX
  8
0
  5
353D
 10
-52.6392
 20
49.2161
 30
-1.17306e-14
  70
    32
  0
VERTEX
  8
0
  5
353E
 10
-52.6040
 20
49.2413
 30
-1.17216e-14
  70
    32
  0
VERTEX
  8
0
  5
353F
 10
-52.5689
 20
49.2668
 30
-1.17127e-14
  70
    32
  0
VERTEX
  8
0
  5
3540
 10
-52.5339
 20
49.2927
 30
-1.17037e-14
  70
    32
  0
VERTEX
  8
0
  5
3541
 10
-52.4990
 20
49.3189
 30
-1.16948e-14
  70
    32
  0
VERTEX
  8
0
  5
3542
 10
-52.4641
 20
49.3454
 30
-1.16860e-14
  70
    32
  0
VERTEX
  8
0
  5
3543
 10
-52.4293
 20
49.3723
 30
-1.16771e-14
  70
    32
  0
VERTEX
  8
0
  5
3544
 10
-52.3946
 20
49.3995
 30
-1.16683e-14
  70
    32
  0
VERTEX
  8
0
  5
3545
 10
-52.3600
 20
49.4271
 30
-1.16596e-14
  70
    32
  0
VERTEX
  8
0
  5
3546
 10
-52.3255
 20
49.4551
 30
-1.16509e-14
  70
    32
  0
VERTEX
  8
0
  5
3547
 10
-52.2910
 20
49.4834
 30
-1.16422e-14
  70
    32
  0
VERTEX
  8
0
  5
3548
 10
-52.2567
 20
49.5120
 30
-1.16337e-14
  70
    32
  0
VERTEX
  8
0
  5
3549
 10
-52.2224
 20
49.5411
 30
-1.16252e-14
  70
    32
  0
VERTEX
  8
0
  5
354A
 10
-52.1883
 20
49.5705
 30
-1.16167e-14
  70
    32
  0
VERTEX
  8
0
  5
354B
 10
-52.1542
 20
49.6002
 30
-1.16084e-14
  70
    32
  0
VERTEX
  8
0
  5
354C
 10
-52.1203
 20
49.6303
 30
-1.16001e-14
  70
    32
  0
VERTEX
  8
0
  5
354D
 10
-52.0865
 20
49.6608
 30
-1.15920e-14
  70
    32
  0
VERTEX
  8
0
  5
354E
 10
-52.0528
 20
49.6917
 30
-1.15839e-14
  70
    32
  0
VERTEX
  8
0
  5
354F
 10
-52.0192
 20
49.7229
 30
-1.15759e-14
  70
    32
  0
VERTEX
  8
0
  5
3550
 10
-51.9857
 20
49.7545
 30
-1.15681e-14
  70
    32
  0
VERTEX
  8
0
  5
3551
 10
-51.9523
 20
49.7865
 30
-1.15603e-14
  70
    32
  0
VERTEX
  8
0
  5
3552
 10
-51.9191
 20
49.8188
 30
-1.15527e-14
  70
    32
  0
VERTEX
  8
0
  5
3553
 10
-51.8859
 20
49.8516
 30
-1.15452e-14
  70
    32
  0
VERTEX
  8
0
  5
3554
 10
-51.8529
 20
49.8847
 30
-1.15379e-14
  70
    32
  0
VERTEX
  8
0
  5
3555
 10
-51.8201
 20
49.9182
 30
-1.15307e-14
  70
    32
  0
VERTEX
  8
0
  5
3556
 10
-51.7873
 20
49.9521
 30
-1.15236e-14
  70
    32
  0
VERTEX
  8
0
  5
3557
 10
-51.7547
 20
49.9864
 30
-1.15167e-14
  70
    32
  0
VERTEX
  8
0
  5
3558
 10
-51.7223
 20
50.0211
 30
-1.15099e-14
  70
    32
  0
VERTEX
  8
0
  5
3559
 10
-51.6900
 20
50.0561
 30
-1.15033e-14
  70
    32
  0
VERTEX
  8
0
  5
355A
 10
-51.6578
 20
50.0916
 30
-1.14968e-14
  70
    32
  0
VERTEX
  8
0
  5
355B
 10
-51.6258
 20
50.1274
 30
-1.14906e-14
  70
    32
  0
VERTEX
  8
0
  5
355C
 10
-51.5939
 20
50.1637
 30
-1.14844e-14
  70
    32
  0
VERTEX
  8
0
  5
355D
 10
-51.5622
 20
50.2004
 30
-1.14783e-14
  70
    32
  0
VERTEX
  8
0
  5
355E
 10
-51.5306
 20
50.2374
 30
-1.14721e-14
  70
    32
  0
VERTEX
  8
0
  5
355F
 10
-51.4993
 20
50.2749
 30
-1.14658e-14
  70
    32
  0
VERTEX
  8
0
  5
3560
 10
-51.4681
 20
50.3127
 30
-1.14596e-14
  70
    32
  0
VERTEX
  8
0
  5
3561
 10
-51.4371
 20
50.3510
 30
-1.14533e-14
  70
    32
  0
VERTEX
  8
0
  5
3562
 10
-51.4063
 20
50.3896
 30
-1.14471e-14
  70
    32
  0
VERTEX
  8
0
  5
3563
 10
-51.3756
 20
50.4287
 30
-1.14408e-14
  70
    32
  0
VERTEX
  8
0
  5
3564
 10
-51.3452
 20
50.4681
 30
-1.14345e-14
  70
    32
  0
VERTEX
  8
0
  5
3565
 10
-51.3150
 20
50.5080
 30
-1.14282e-14
  70
    32
  0
VERTEX
  8
0
  5
3566
 10
-51.2850
 20
50.5483
 30
-1.14219e-14
  70
    32
  0
VERTEX
  8
0
  5
3567
 10
-51.2552
 20
50.5890
 30
-1.14156e-14
  70
    32
  0
VERTEX
  8
0
  5
3568
 10
-51.2257
 20
50.6301
 30
-1.14093e-14
  70
    32
  0
VERTEX
  8
0
  5
3569
 10
-51.1964
 20
50.6716
 30
-1.14031e-14
  70
    32
  0
VERTEX
  8
0
  5
356A
 10
-51.1673
 20
50.7136
 30
-1.13968e-14
  70
    32
  0
VERTEX
  8
0
  5
356B
 10
-51.1385
 20
50.7559
 30
-1.13906e-14
  70
    32
  0
VERTEX
  8
0
  5
356C
 10
-51.1099
 20
50.7987
 30
-1.13844e-14
  70
    32
  0
VERTEX
  8
0
  5
356D
 10
-51.0816
 20
50.8419
 30
-1.13783e-14
  70
    32
  0
VERTEX
  8
0
  5
356E
 10
-51.0535
 20
50.8855
 30
-1.13721e-14
  70
    32
  0
VERTEX
  8
0
  5
356F
 10
-51.0258
 20
50.9296
 30
-1.13661e-14
  70
    32
  0
VERTEX
  8
0
  5
3570
 10
-50.9982
 20
50.9741
 30
-1.13600e-14
  70
    32
  0
VERTEX
  8
0
  5
3571
 10
-50.9710
 20
51.0190
 30
-1.13540e-14
  70
    32
  0
VERTEX
  8
0
  5
3572
 10
-50.9441
 20
51.0643
 30
-1.13480e-14
  70
    32
  0
VERTEX
  8
0
  5
3573
 10
-50.9174
 20
51.1101
 30
-1.13422e-14
  70
    32
  0
VERTEX
  8
0
  5
3574
 10
-50.8911
 20
51.1563
 30
-1.13363e-14
  70
    32
  0
VERTEX
  8
0
  5
3575
 10
-50.8650
 20
51.2029
 30
-1.13305e-14
  70
    32
  0
VERTEX
  8
0
  5
3576
 10
-50.8393
 20
51.2500
 30
-1.13248e-14
  70
    32
  0
VERTEX
  8
0
  5
3577
 10
-50.8139
 20
51.2975
 30
-1.13192e-14
  70
    32
  0
VERTEX
  8
0
  5
3578
 10
-50.7888
 20
51.3454
 30
-1.13136e-14
  70
    32
  0
VERTEX
  8
0
  5
3579
 10
-50.7640
 20
51.3938
 30
-1.13081e-14
  70
    32
  0
VERTEX
  8
0
  5
357A
 10
-50.7396
 20
51.4427
 30
-1.13027e-14
  70
    32
  0
VERTEX
  8
0
  5
357B
 10
-50.7155
 20
51.4920
 30
-1.12974e-14
  70
    32
  0
VERTEX
  8
0
  5
357C
 10
-50.6918
 20
51.5417
 30
-1.12921e-14
  70
    32
  0
VERTEX
  8
0
  5
357D
 10
-50.6684
 20
51.5919
 30
-1.12870e-14
  70
    32
  0
VERTEX
  8
0
  5
357E
 10
-50.6454
 20
51.6425
 30
-1.12819e-14
  70
    32
  0
VERTEX
  8
0
  5
357F
 10
-50.6227
 20
51.6936
 30
-1.12770e-14
  70
    32
  0
VERTEX
  8
0
  5
3580
 10
-50.6004
 20
51.7451
 30
-1.12722e-14
  70
    32
  0
VERTEX
  8
0
  5
3581
 10
-50.5785
 20
51.7971
 30
-1.12674e-14
  70
    32
  0
VERTEX
  8
0
  5
3582
 10
-50.5570
 20
51.8495
 30
-1.12628e-14
  70
    32
  0
VERTEX
  8
0
  5
3583
 10
-50.5358
 20
51.9024
 30
-1.12583e-14
  70
    32
  0
VERTEX
  8
0
  5
3584
 10
-50.5151
 20
51.9558
 30
-1.12539e-14
  70
    32
  0
VERTEX
  8
0
  5
3585
 10
-50.4947
 20
52.0096
 30
-1.12497e-14
  70
    32
  0
VERTEX
  8
0
  5
3586
 10
-50.4748
 20
52.0639
 30
-1.12456e-14
  70
    32
  0
VERTEX
  8
0
  5
3587
 10
-50.4553
 20
52.1186
 30
-1.12416e-14
  70
    32
  0
VERTEX
  8
0
  5
3588
 10
-50.4362
 20
52.1738
 30
-1.12378e-14
  70
    32
  0
VERTEX
  8
0
  5
3589
 10
-50.4175
 20
52.2295
 30
-1.12342e-14
  70
    32
  0
VERTEX
  8
0
  5
358A
 10
-50.3993
 20
52.2856
 30
-1.12309e-14
  70
    32
  0
VERTEX
  8
0
  5
358B
 10
-50.3815
 20
52.3422
 30
-1.12278e-14
  70
    32
  0
VERTEX
  8
0
  5
358C
 10
-50.3643
 20
52.3992
 30
-1.12250e-14
  70
    32
  0
VERTEX
  8
0
  5
358D
 10
-50.3475
 20
52.4567
 30
-1.12223e-14
  70
    32
  0
VERTEX
  8
0
  5
358E
 10
-50.3311
 20
52.5146
 30
-1.12198e-14
  70
    32
  0
VERTEX
  8
0
  5
358F
 10
-50.3153
 20
52.5730
 30
-1.12175e-14
  70
    32
  0
VERTEX
  8
0
  5
3590
 10
-50.3000
 20
52.6318
 30
-1.12154e-14
  70
    32
  0
VERTEX
  8
0
  5
3591
 10
-50.2853
 20
52.6911
 30
-1.12135e-14
  70
    32
  0
VERTEX
  8
0
  5
3592
 10
-50.2710
 20
52.7508
 30
-1.12117e-14
  70
    32
  0
VERTEX
  8
0
  5
3593
 10
-50.2574
 20
52.8110
 30
-1.12101e-14
  70
    32
  0
VERTEX
  8
0
  5
3594
 10
-50.2442
 20
52.8716
 30
-1.12087e-14
  70
    32
  0
VERTEX
  8
0
  5
3595
 10
-50.2317
 20
52.9327
 30
-1.12074e-14
  70
    32
  0
VERTEX
  8
0
  5
3596
 10
-50.2197
 20
52.9942
 30
-1.12062e-14
  70
    32
  0
VERTEX
  8
0
  5
3597
 10
-50.2083
 20
53.0561
 30
-1.12052e-14
  70
    32
  0
VERTEX
  8
0
  5
3598
 10
-50.1976
 20
53.1185
 30
-1.12043e-14
  70
    32
  0
VERTEX
  8
0
  5
3599
 10
-50.1874
 20
53.1814
 30
-1.12035e-14
  70
    32
  0
VERTEX
  8
0
  5
359A
 10
-50.1779
 20
53.2446
 30
-1.12028e-14
  70
    32
  0
VERTEX
  8
0
  5
359B
 10
-50.1690
 20
53.3083
 30
-1.12022e-14
  70
    32
  0
VERTEX
  8
0
  5
359C
 10
-50.1608
 20
53.3725
 30
-1.12017e-14
  70
    32
  0
VERTEX
  8
0
  5
359D
 10
-50.1532
 20
53.4371
 30
-1.12013e-14
  70
    32
  0
VERTEX
  8
0
  5
359E
 10
-50.1463
 20
53.5021
 30
-1.12009e-14
  70
    32
  0
VERTEX
  8
0
  5
359F
 10
-50.1401
 20
53.5676
 30
-1.12006e-14
  70
    32
  0
VERTEX
  8
0
  5
35A0
 10
-50.1346
 20
53.6334
 30
-1.12004e-14
  70
    32
  0
VERTEX
  8
0
  5
35A1
 10
-50.1297
 20
53.6998
 30
-1.12003e-14
  70
    32
  0
VERTEX
  8
0
  5
35A2
 10
-50.1256
 20
53.7665
 30
-1.12002e-14
  70
    32
  0
VERTEX
  8
0
  5
35A3
 10
-50.1223
 20
53.8337
 30
-1.12001e-14
  70
    32
  0
VERTEX
  8
0
  5
35A4
 10
-50.1196
 20
53.9013
 30
-1.12000e-14
  70
    32
  0
VERTEX
  8
0
  5
35A5
 10
-50.1178
 20
53.9694
 30
-1.12000e-14
  70
    32
  0
VERTEX
  8
0
  5
35A6
 10
-50.1166
 20
54.0379
 30
-1.12000e-14
  70
    32
  0
VERTEX
  8
0
  5
35A7
 10
-50.1163
 20
54.1068
 30
-1.12000e-14
  70
    32
  0
SEQEND
  8
0
  5
35A8
  0
LINE
  5
2E33
  8
0
  6
CONTINUOUS
 62
     3
 10
-82.5662981319700577
 20
24.1067960236255594
 30
0.0
 11
-82.5662981319700577
 21
84.106796023625563
 31
0.0
  0
LINE
  5
2E34
  8
0
  6
CONTINUOUS
 62
     3
 10
72.9292729839708755
 20
24.1067960236255594
 30
0.0
 11
126.8178285839777004
 21
24.1067960236255594
 31
0.000000000000012
  0
LINE
  5
2E35
  8
0
  6
CONTINUOUS
 62
     3
 10
126.8178285839777004
 20
84.106796023625563
 30
0.0
 11
72.9293438357090764
 21
84.106796023625563
 31
-0.000000000000012
  0
POLYLINE
  8
0
  5
35A9
  62
3
  66
     1
 10
0.00000
 20
0.00000
 30
0.00000
  70
     8
  0
VERTEX
  8
0
  5
35AA
 10
94.3678
 20
54.1068
 30
2.11000e-14
  70
    32
  0
VERTEX
  8
0
  5
35AB
 10
94.3682
 20
54.1761
 30
2.11000e-14
  70
    32
  0
VERTEX
  8
0
  5
35AC
 10
94.3694
 20
54.2459
 30
2.11000e-14
  70
    32
  0
VERTEX
  8
0
  5
35AD
 10
94.3715
 20
54.3161
 30
2.11000e-14
  70
    32
  0
VERTEX
  8
0
  5
35AE
 10
94.3743
 20
54.3866
 30
2.11000e-14
  70
    32
  0
VERTEX
  8
0
  5
35AF
 10
94.3780
 20
54.4575
 30
2.11000e-14
  70
    32
  0
VERTEX
  8
0
  5
35B0
 10
94.3826
 20
54.5288
 30
2.11001e-14
  70
    32
  0
VERTEX
  8
0
  5
35B1
 10
94.3880
 20
54.6004
 30
2.11002e-14
  70
    32
  0
VERTEX
  8
0
  5
35B2
 10
94.3943
 20
54.6723
 30
2.11003e-14
  70
    32
  0
VERTEX
  8
0
  5
35B3
 10
94.4015
 20
54.7445
 30
2.11005e-14
  70
    32
  0
VERTEX
  8
0
  5
35B4
 10
94.4097
 20
54.8171
 30
2.11008e-14
  70
    32
  0
VERTEX
  8
0
  5
35B5
 10
94.4187
 20
54.8899
 30
2.11012e-14
  70
    32
  0
VERTEX
  8
0
  5
35B6
 10
94.4287
 20
54.9631
 30
2.11016e-14
  70
    32
  0
VERTEX
  8
0
  5
35B7
 10
94.4397
 20
55.0365
 30
2.11022e-14
  70
    32
  0
VERTEX
  8
0
  5
35B8
 10
94.4517
 20
55.1102
 30
2.11028e-14
  70
    32
  0
VERTEX
  8
0
  5
35B9
 10
94.4647
 20
55.1841
 30
2.11037e-14
  70
    32
  0
VERTEX
  8
0
  5
35BA
 10
94.4786
 20
55.2583
 30
2.11046e-14
  70
    32
  0
VERTEX
  8
0
  5
35BB
 10
94.4937
 20
55.3328
 30
2.11057e-14
  70
    32
  0
VERTEX
  8
0
  5
35BC
 10
94.5097
 20
55.4075
 30
2.11070e-14
  70
    32
  0
VERTEX
  8
0
  5
35BD
 10
94.5269
 20
55.4824
 30
2.11084e-14
  70
    32
  0
VERTEX
  8
0
  5
35BE
 10
94.5451
 20
55.5576
 30
2.11100e-14
  70
    32
  0
VERTEX
  8
0
  5
35BF
 10
94.5644
 20
55.6329
 30
2.11118e-14
  70
    32
  0
VERTEX
  8
0
  5
35C0
 10
94.5848
 20
55.7084
 30
2.11138e-14
  70
    32
  0
VERTEX
  8
0
  5
35C1
 10
94.6064
 20
55.7842
 30
2.11161e-14
  70
    32
  0
VERTEX
  8
0
  5
35C2
 10
94.6291
 20
55.8601
 30
2.11185e-14
  70
    32
  0
VERTEX
  8
0
  5
35C3
 10
94.6530
 20
55.9362
 30
2.11212e-14
  70
    32
  0
VERTEX
  8
0
  5
35C4
 10
94.6780
 20
56.0124
 30
2.11242e-14
  70
    32
  0
VERTEX
  8
0
  5
35C5
 10
94.7043
 20
56.0888
 30
2.11274e-14
  70
    32
  0
VERTEX
  8
0
  5
35C6
 10
94.7317
 20
56.1654
 30
2.11309e-14
  70
    32
  0
VERTEX
  8
0
  5
35C7
 10
94.7604
 20
56.2421
 30
2.11347e-14
  70
    32
  0
VERTEX
  8
0
  5
35C8
 10
94.7904
 20
56.3189
 30
2.11388e-14
  70
    32
  0
VERTEX
  8
0
  5
35C9
 10
94.8216
 20
56.3958
 30
2.11431e-14
  70
    32
  0
VERTEX
  8
0
  5
35CA
 10
94.8540
 20
56.4729
 30
2.11478e-14
  70
    32
  0
VERTEX
  8
0
  5
35CB
 10
94.8878
 20
56.5500
 30
2.11529e-14
  70
    32
  0
VERTEX
  8
0
  5
35CC
 10
94.9229
 20
56.6272
 30
2.11583e-14
  70
    32
  0
VERTEX
  8
0
  5
35CD
 10
94.9593
 20
56.7044
 30
2.11642e-14
  70
    32
  0
VERTEX
  8
0
  5
35CE
 10
94.9970
 20
56.7817
 30
2.11705e-14
  70
    32
  0
VERTEX
  8
0
  5
35CF
 10
95.0360
 20
56.8589
 30
2.11774e-14
  70
    32
  0
VERTEX
  8
0
  5
35D0
 10
95.0765
 20
56.9360
 30
2.11848e-14
  70
    32
  0
VERTEX
  8
0
  5
35D1
 10
95.1183
 20
57.0130
 30
2.11927e-14
  70
    32
  0
VERTEX
  8
0
  5
35D2
 10
95.1615
 20
57.0900
 30
2.12012e-14
  70
    32
  0
VERTEX
  8
0
  5
35D3
 10
95.2062
 20
57.1668
 30
2.12101e-14
  70
    32
  0
VERTEX
  8
0
  5
35D4
 10
95.2523
 20
57.2434
 30
2.12196e-14
  70
    32
  0
VERTEX
  8
0
  5
35D5
 10
95.2999
 20
57.3199
 30
2.12296e-14
  70
    32
  0
VERTEX
  8
0
  5
35D6
 10
95.3490
 20
57.3961
 30
2.12401e-14
  70
    32
  0
VERTEX
  8
0
  5
35D7
 10
95.3996
 20
57.4721
 30
2.12512e-14
  70
    32
  0
VERTEX
  8
0
  5
35D8
 10
95.4517
 20
57.5478
 30
2.12628e-14
  70
    32
  0
VERTEX
  8
0
  5
35D9
 10
95.5053
 20
57.6233
 30
2.12750e-14
  70
    32
  0
VERTEX
  8
0
  5
35DA
 10
95.5606
 20
57.6984
 30
2.12877e-14
  70
    32
  0
VERTEX
  8
0
  5
35DB
 10
95.6174
 20
57.7731
 30
2.13010e-14
  70
    32
  0
VERTEX
  8
0
  5
35DC
 10
95.6758
 20
57.8476
 30
2.13148e-14
  70
    32
  0
VERTEX
  8
0
  5
35DD
 10
95.7359
 20
57.9216
 30
2.13292e-14
  70
    32
  0
VERTEX
  8
0
  5
35DE
 10
95.7976
 20
57.9951
 30
2.13442e-14
  70
    32
  0
VERTEX
  8
0
  5
35DF
 10
95.8609
 20
58.0683
 30
2.13597e-14
  70
    32
  0
VERTEX
  8
0
  5
35E0
 10
95.9260
 20
58.1410
 30
2.13758e-14
  70
    32
  0
VERTEX
  8
0
  5
35E1
 10
95.9928
 20
58.2131
 30
2.13925e-14
  70
    32
  0
VERTEX
  8
0
  5
35E2
 10
96.0613
 20
58.2848
 30
2.14098e-14
  70
    32
  0
VERTEX
  8
0
  5
35E3
 10
96.1315
 20
58.3559
 30
2.14277e-14
  70
    32
  0
VERTEX
  8
0
  5
35E4
 10
96.2035
 20
58.4264
 30
2.14462e-14
  70
    32
  0
VERTEX
  8
0
  5
35E5
 10
96.2773
 20
58.4963
 30
2.14652e-14
  70
    32
  0
VERTEX
  8
0
  5
35E6
 10
96.3529
 20
58.5656
 30
2.14845e-14
  70
    32
  0
VERTEX
  8
0
  5
35E7
 10
96.4303
 20
58.6341
 30
2.15033e-14
  70
    32
  0
VERTEX
  8
0
  5
35E8
 10
96.5095
 20
58.7019
 30
2.15218e-14
  70
    32
  0
VERTEX
  8
0
  5
35E9
 10
96.5906
 20
58.7689
 30
2.15401e-14
  70
    32
  0
VERTEX
  8
0
  5
35EA
 10
96.6735
 20
58.8350
 30
2.15582e-14
  70
    32
  0
VERTEX
  8
0
  5
35EB
 10
96.7582
 20
58.9001
 30
2.15761e-14
  70
    32
  0
VERTEX
  8
0
  5
35EC
 10
96.8449
 20
58.9643
 30
2.15941e-14
  70
    32
  0
VERTEX
  8
0
  5
35ED
 10
96.9335
 20
59.0274
 30
2.16120e-14
  70
    32
  0
VERTEX
  8
0
  5
35EE
 10
97.0239
 20
59.0894
 30
2.16301e-14
  70
    32
  0
VERTEX
  8
0
  5
35EF
 10
97.1163
 20
59.1502
 30
2.16484e-14
  70
    32
  0
VERTEX
  8
0
  5
35F0
 10
97.2107
 20
59.2099
 30
2.16670e-14
  70
    32
  0
VERTEX
  8
0
  5
35F1
 10
97.3070
 20
59.2682
 30
2.16859e-14
  70
    32
  0
VERTEX
  8
0
  5
35F2
 10
97.4054
 20
59.3252
 30
2.17052e-14
  70
    32
  0
VERTEX
  8
0
  5
35F3
 10
97.5057
 20
59.3808
 30
2.17250e-14
  70
    32
  0
VERTEX
  8
0
  5
35F4
 10
97.6080
 20
59.4350
 30
2.17453e-14
  70
    32
  0
VERTEX
  8
0
  5
35F5
 10
97.7124
 20
59.4877
 30
2.17663e-14
  70
    32
  0
VERTEX
  8
0
  5
35F6
 10
97.8189
 20
59.5388
 30
2.17880e-14
  70
    32
  0
VERTEX
  8
0
  5
35F7
 10
97.9274
 20
59.5882
 30
2.18105e-14
  70
    32
  0
VERTEX
  8
0
  5
35F8
 10
98.0380
 20
59.6361
 30
2.18338e-14
  70
    32
  0
VERTEX
  8
0
  5
35F9
 10
98.1507
 20
59.6821
 30
2.18581e-14
  70
    32
  0
VERTEX
  8
0
  5
35FA
 10
98.2653
 20
59.7264
 30
2.18832e-14
  70
    32
  0
VERTEX
  8
0
  5
35FB
 10
98.3793
 20
59.7676
 30
2.19085e-14
  70
    32
  0
VERTEX
  8
0
  5
35FC
 10
98.4918
 20
59.8058
 30
2.19334e-14
  70
    32
  0
VERTEX
  8
0
  5
35FD
 10
98.6026
 20
59.8410
 30
2.19581e-14
  70
    32
  0
VERTEX
  8
0
  5
35FE
 10
98.7117
 20
59.8734
 30
2.19824e-14
  70
    32
  0
VERTEX
  8
0
  5
35FF
 10
98.8190
 20
59.9030
 30
2.20063e-14
  70
    32
  0
VERTEX
  8
0
  5
3600
 10
98.9243
 20
59.9300
 30
2.20299e-14
  70
    32
  0
VERTEX
  8
0
  5
3601
 10
99.0274
 20
59.9545
 30
2.20530e-14
  70
    32
  0
VERTEX
  8
0
  5
3602
 10
99.1284
 20
59.9766
 30
2.20757e-14
  70
    32
  0
VERTEX
  8
0
  5
3603
 10
99.2269
 20
59.9965
 30
2.20979e-14
  70
    32
  0
VERTEX
  8
0
  5
3604
 10
99.3230
 20
60.0142
 30
2.21195e-14
  70
    32
  0
VERTEX
  8
0
  5
3605
 10
99.4164
 20
60.0300
 30
2.21406e-14
  70
    32
  0
VERTEX
  8
0
  5
3606
 10
99.5071
 20
60.0438
 30
2.21611e-14
  70
    32
  0
VERTEX
  8
0
  5
3607
 10
99.5949
 20
60.0559
 30
2.21810e-14
  70
    32
  0
VERTEX
  8
0
  5
3608
 10
99.6798
 20
60.0663
 30
2.22002e-14
  70
    32
  0
VERTEX
  8
0
  5
3609
 10
99.7615
 20
60.0752
 30
2.22187e-14
  70
    32
  0
VERTEX
  8
0
  5
360A
 10
99.8399
 20
60.0827
 30
2.22365e-14
  70
    32
  0
VERTEX
  8
0
  5
360B
 10
99.9150
 20
60.0889
 30
2.22535e-14
  70
    32
  0
VERTEX
  8
0
  5
360C
 10
99.9866
 20
60.0939
 30
2.22698e-14
  70
    32
  0
VERTEX
  8
0
  5
360D
 10
100.055
 20
60.0979
 30
2.22852e-14
  70
    32
  0
VERTEX
  8
0
  5
360E
 10
100.119
 20
60.1010
 30
2.22998e-14
  70
    32
  0
VERTEX
  8
0
  5
360F
 10
100.179
 20
60.1032
 30
2.23134e-14
  70
    32
  0
VERTEX
  8
0
  5
3610
 10
100.235
 20
60.1048
 30
2.23262e-14
  70
    32
  0
VERTEX
  8
0
  5
3611
 10
100.287
 20
60.1059
 30
2.23380e-14
  70
    32
  0
VERTEX
  8
0
  5
3612
 10
100.335
 20
60.1064
 30
2.23488e-14
  70
    32
  0
VERTEX
  8
0
  5
3613
 10
100.379
 20
60.1067
 30
2.23585e-14
  70
    32
  0
VERTEX
  8
0
  5
3614
 10
100.418
 20
60.1068
 30
2.23673e-14
  70
    32
  0
VERTEX
  8
0
  5
3615
 10
100.453
 20
60.1068
 30
2.23752e-14
  70
    32
  0
VERTEX
  8
0
  5
3616
 10
100.489
 20
60.1068
 30
2.23830e-14
  70
    32
  0
VERTEX
  8
0
  5
3617
 10
100.524
 20
60.1068
 30
2.23909e-14
  70
    32
  0
VERTEX
  8
0
  5
3618
 10
100.559
 20
60.1068
 30
2.23988e-14
  70
    32
  0
VERTEX
  8
0
  5
3619
 10
100.595
 20
60.1068
 30
2.24066e-14
  70
    32
  0
VERTEX
  8
0
  5
361A
 10
100.630
 20
60.1068
 30
2.24145e-14
  70
    32
  0
VERTEX
  8
0
  5
361B
 10
100.666
 20
60.1068
 30
2.24224e-14
  70
    32
  0
VERTEX
  8
0
  5
361C
 10
100.701
 20
60.1068
 30
2.24304e-14
  70
    32
  0
VERTEX
  8
0
  5
361D
 10
100.737
 20
60.1068
 30
2.24383e-14
  70
    32
  0
VERTEX
  8
0
  5
361E
 10
100.772
 20
60.1068
 30
2.24462e-14
  70
    32
  0
VERTEX
  8
0
  5
361F
 10
100.808
 20
60.1068
 30
2.24542e-14
  70
    32
  0
VERTEX
  8
0
  5
3620
 10
100.844
 20
60.1068
 30
2.24621e-14
  70
    32
  0
VERTEX
  8
0
  5
3621
 10
100.879
 20
60.1068
 30
2.24701e-14
  70
    32
  0
VERTEX
  8
0
  5
3622
 10
100.915
 20
60.1068
 30
2.24781e-14
  70
    32
  0
VERTEX
  8
0
  5
3623
 10
100.951
 20
60.1068
 30
2.24861e-14
  70
    32
  0
VERTEX
  8
0
  5
3624
 10
100.986
 20
60.1068
 30
2.24941e-14
  70
    32
  0
VERTEX
  8
0
  5
3625
 10
101.022
 20
60.1068
 30
2.25021e-14
  70
    32
  0
VERTEX
  8
0
  5
3626
 10
101.058
 20
60.1068
 30
2.25101e-14
  70
    32
  0
VERTEX
  8
0
  5
3627
 10
101.094
 20
60.1068
 30
2.25181e-14
  70
    32
  0
VERTEX
  8
0
  5
3628
 10
101.130
 20
60.1068
 30
2.25261e-14
  70
    32
  0
VERTEX
  8
0
  5
3629
 10
101.166
 20
60.1068
 30
2.25342e-14
  70
    32
  0
VERTEX
  8
0
  5
362A
 10
101.202
 20
60.1068
 30
2.25422e-14
  70
    32
  0
VERTEX
  8
0
  5
362B
 10
101.238
 20
60.1068
 30
2.25503e-14
  70
    32
  0
VERTEX
  8
0
  5
362C
 10
101.274
 20
60.1068
 30
2.25584e-14
  70
    32
  0
VERTEX
  8
0
  5
362D
 10
101.310
 20
60.1068
 30
2.25664e-14
  70
    32
  0
VERTEX
  8
0
  5
362E
 10
101.346
 20
60.1068
 30
2.25745e-14
  70
    32
  0
VERTEX
  8
0
  5
362F
 10
101.382
 20
60.1068
 30
2.25826e-14
  70
    32
  0
VERTEX
  8
0
  5
3630
 10
101.418
 20
60.1068
 30
2.25908e-14
  70
    32
  0
VERTEX
  8
0
  5
3631
 10
101.455
 20
60.1068
 30
2.25989e-14
  70
    32
  0
VERTEX
  8
0
  5
3632
 10
101.491
 20
60.1068
 30
2.26070e-14
  70
    32
  0
VERTEX
  8
0
  5
3633
 10
101.527
 20
60.1068
 30
2.26151e-14
  70
    32
  0
VERTEX
  8
0
  5
3634
 10
101.563
 20
60.1068
 30
2.26233e-14
  70
    32
  0
VERTEX
  8
0
  5
3635
 10
101.600
 20
60.1068
 30
2.26314e-14
  70
    32
  0
VERTEX
  8
0
  5
3636
 10
101.636
 20
60.1068
 30
2.26396e-14
  70
    32
  0
VERTEX
  8
0
  5
3637
 10
101.673
 20
60.1068
 30
2.26478e-14
  70
    32
  0
VERTEX
  8
0
  5
3638
 10
101.709
 20
60.1068
 30
2.26560e-14
  70
    32
  0
VERTEX
  8
0
  5
3639
 10
101.746
 20
60.1068
 30
2.26642e-14
  70
    32
  0
VERTEX
  8
0
  5
363A
 10
101.782
 20
60.1068
 30
2.26724e-14
  70
    32
  0
VERTEX
  8
0
  5
363B
 10
101.819
 20
60.1068
 30
2.26806e-14
  70
    32
  0
VERTEX
  8
0
  5
363C
 10
101.855
 20
60.1068
 30
2.26888e-14
  70
    32
  0
VERTEX
  8
0
  5
363D
 10
101.892
 20
60.1068
 30
2.26970e-14
  70
    32
  0
VERTEX
  8
0
  5
363E
 10
101.929
 20
60.1068
 30
2.27053e-14
  70
    32
  0
VERTEX
  8
0
  5
363F
 10
101.965
 20
60.1068
 30
2.27135e-14
  70
    32
  0
VERTEX
  8
0
  5
3640
 10
102.002
 20
60.1068
 30
2.27218e-14
  70
    32
  0
VERTEX
  8
0
  5
3641
 10
102.039
 20
60.1068
 30
2.27301e-14
  70
    32
  0
VERTEX
  8
0
  5
3642
 10
102.076
 20
60.1068
 30
2.27383e-14
  70
    32
  0
VERTEX
  8
0
  5
3643
 10
102.113
 20
60.1068
 30
2.27466e-14
  70
    32
  0
VERTEX
  8
0
  5
3644
 10
102.149
 20
60.1068
 30
2.27549e-14
  70
    32
  0
VERTEX
  8
0
  5
3645
 10
102.186
 20
60.1068
 30
2.27632e-14
  70
    32
  0
VERTEX
  8
0
  5
3646
 10
102.223
 20
60.1068
 30
2.27715e-14
  70
    32
  0
VERTEX
  8
0
  5
3647
 10
102.260
 20
60.1068
 30
2.27799e-14
  70
    32
  0
VERTEX
  8
0
  5
3648
 10
102.297
 20
60.1068
 30
2.27882e-14
  70
    32
  0
VERTEX
  8
0
  5
3649
 10
102.334
 20
60.1068
 30
2.27965e-14
  70
    32
  0
VERTEX
  8
0
  5
364A
 10
102.371
 20
60.1068
 30
2.28049e-14
  70
    32
  0
VERTEX
  8
0
  5
364B
 10
102.409
 20
60.1068
 30
2.28132e-14
  70
    32
  0
VERTEX
  8
0
  5
364C
 10
102.446
 20
60.1068
 30
2.28216e-14
  70
    32
  0
VERTEX
  8
0
  5
364D
 10
102.483
 20
60.1068
 30
2.28300e-14
  70
    32
  0
VERTEX
  8
0
  5
364E
 10
102.520
 20
60.1068
 30
2.28383e-14
  70
    32
  0
VERTEX
  8
0
  5
364F
 10
102.558
 20
60.1068
 30
2.28467e-14
  70
    32
  0
VERTEX
  8
0
  5
3650
 10
102.595
 20
60.1068
 30
2.28551e-14
  70
    32
  0
VERTEX
  8
0
  5
3651
 10
102.632
 20
60.1068
 30
2.28635e-14
  70
    32
  0
VERTEX
  8
0
  5
3652
 10
102.670
 20
60.1068
 30
2.28720e-14
  70
    32
  0
VERTEX
  8
0
  5
3653
 10
102.707
 20
60.1068
 30
2.28804e-14
  70
    32
  0
VERTEX
  8
0
  5
3654
 10
102.744
 20
60.1068
 30
2.28888e-14
  70
    32
  0
VERTEX
  8
0
  5
3655
 10
102.782
 20
60.1068
 30
2.28973e-14
  70
    32
  0
VERTEX
  8
0
  5
3656
 10
102.820
 20
60.1068
 30
2.29057e-14
  70
    32
  0
VERTEX
  8
0
  5
3657
 10
102.857
 20
60.1068
 30
2.29142e-14
  70
    32
  0
VERTEX
  8
0
  5
3658
 10
102.895
 20
60.1068
 30
2.29226e-14
  70
    32
  0
VERTEX
  8
0
  5
3659
 10
102.932
 20
60.1068
 30
2.29311e-14
  70
    32
  0
VERTEX
  8
0
  5
365A
 10
102.970
 20
60.1068
 30
2.29396e-14
  70
    32
  0
VERTEX
  8
0
  5
365B
 10
103.008
 20
60.1068
 30
2.29481e-14
  70
    32
  0
VERTEX
  8
0
  5
365C
 10
103.045
 20
60.1068
 30
2.29566e-14
  70
    32
  0
VERTEX
  8
0
  5
365D
 10
103.083
 20
60.1068
 30
2.29651e-14
  70
    32
  0
VERTEX
  8
0
  5
365E
 10
103.121
 20
60.1068
 30
2.29736e-14
  70
    32
  0
VERTEX
  8
0
  5
365F
 10
103.159
 20
60.1068
 30
2.29822e-14
  70
    32
  0
VERTEX
  8
0
  5
3660
 10
103.197
 20
60.1068
 30
2.29907e-14
  70
    32
  0
VERTEX
  8
0
  5
3661
 10
103.235
 20
60.1068
 30
2.29992e-14
  70
    32
  0
VERTEX
  8
0
  5
3662
 10
103.273
 20
60.1068
 30
2.30078e-14
  70
    32
  0
VERTEX
  8
0
  5
3663
 10
103.311
 20
60.1068
 30
2.30163e-14
  70
    32
  0
VERTEX
  8
0
  5
3664
 10
103.349
 20
60.1068
 30
2.30249e-14
  70
    32
  0
VERTEX
  8
0
  5
3665
 10
103.387
 20
60.1068
 30
2.30335e-14
  70
    32
  0
VERTEX
  8
0
  5
3666
 10
103.425
 20
60.1068
 30
2.30421e-14
  70
    32
  0
VERTEX
  8
0
  5
3667
 10
103.463
 20
60.1068
 30
2.30507e-14
  70
    32
  0
VERTEX
  8
0
  5
3668
 10
103.502
 20
60.1068
 30
2.30593e-14
  70
    32
  0
VERTEX
  8
0
  5
3669
 10
103.540
 20
60.1068
 30
2.30679e-14
  70
    32
  0
VERTEX
  8
0
  5
366A
 10
103.578
 20
60.1068
 30
2.30765e-14
  70
    32
  0
VERTEX
  8
0
  5
366B
 10
103.616
 20
60.1068
 30
2.30851e-14
  70
    32
  0
VERTEX
  8
0
  5
366C
 10
103.655
 20
60.1068
 30
2.30937e-14
  70
    32
  0
VERTEX
  8
0
  5
366D
 10
103.693
 20
60.1068
 30
2.31024e-14
  70
    32
  0
VERTEX
  8
0
  5
366E
 10
103.732
 20
60.1068
 30
2.31110e-14
  70
    32
  0
VERTEX
  8
0
  5
366F
 10
103.770
 20
60.1068
 30
2.31197e-14
  70
    32
  0
VERTEX
  8
0
  5
3670
 10
103.809
 20
60.1068
 30
2.31283e-14
  70
    32
  0
VERTEX
  8
0
  5
3671
 10
103.847
 20
60.1068
 30
2.31370e-14
  70
    32
  0
VERTEX
  8
0
  5
3672
 10
103.886
 20
60.1068
 30
2.31457e-14
  70
    32
  0
VERTEX
  8
0
  5
3673
 10
103.924
 20
60.1068
 30
2.31544e-14
  70
    32
  0
VERTEX
  8
0
  5
3674
 10
103.963
 20
60.1068
 30
2.31631e-14
  70
    32
  0
VERTEX
  8
0
  5
3675
 10
104.002
 20
60.1068
 30
2.31718e-14
  70
    32
  0
VERTEX
  8
0
  5
3676
 10
104.040
 20
60.1068
 30
2.31805e-14
  70
    32
  0
VERTEX
  8
0
  5
3677
 10
104.079
 20
60.1068
 30
2.31892e-14
  70
    32
  0
VERTEX
  8
0
  5
3678
 10
104.118
 20
60.1068
 30
2.31979e-14
  70
    32
  0
VERTEX
  8
0
  5
3679
 10
104.157
 20
60.1068
 30
2.32066e-14
  70
    32
  0
VERTEX
  8
0
  5
367A
 10
104.196
 20
60.1068
 30
2.32154e-14
  70
    32
  0
VERTEX
  8
0
  5
367B
 10
104.235
 20
60.1068
 30
2.32241e-14
  70
    32
  0
VERTEX
  8
0
  5
367C
 10
104.274
 20
60.1068
 30
2.32329e-14
  70
    32
  0
VERTEX
  8
0
  5
367D
 10
104.313
 20
60.1068
 30
2.32416e-14
  70
    32
  0
VERTEX
  8
0
  5
367E
 10
104.352
 20
60.1068
 30
2.32504e-14
  70
    32
  0
VERTEX
  8
0
  5
367F
 10
104.391
 20
60.1068
 30
2.32592e-14
  70
    32
  0
VERTEX
  8
0
  5
3680
 10
104.430
 20
60.1068
 30
2.32680e-14
  70
    32
  0
VERTEX
  8
0
  5
3681
 10
104.469
 20
60.1068
 30
2.32768e-14
  70
    32
  0
VERTEX
  8
0
  5
3682
 10
104.508
 20
60.1068
 30
2.32856e-14
  70
    32
  0
VERTEX
  8
0
  5
3683
 10
104.548
 20
60.1068
 30
2.32944e-14
  70
    32
  0
VERTEX
  8
0
  5
3684
 10
104.587
 20
60.1068
 30
2.33032e-14
  70
    32
  0
VERTEX
  8
0
  5
3685
 10
104.626
 20
60.1068
 30
2.33120e-14
  70
    32
  0
VERTEX
  8
0
  5
3686
 10
104.666
 20
60.1068
 30
2.33208e-14
  70
    32
  0
VERTEX
  8
0
  5
3687
 10
104.705
 20
60.1068
 30
2.33297e-14
  70
    32
  0
VERTEX
  8
0
  5
3688
 10
104.744
 20
60.1068
 30
2.33385e-14
  70
    32
  0
VERTEX
  8
0
  5
3689
 10
104.784
 20
60.1068
 30
2.33473e-14
  70
    32
  0
VERTEX
  8
0
  5
368A
 10
104.823
 20
60.1068
 30
2.33562e-14
  70
    32
  0
VERTEX
  8
0
  5
368B
 10
104.863
 20
60.1068
 30
2.33651e-14
  70
    32
  0
VERTEX
  8
0
  5
368C
 10
104.903
 20
60.1068
 30
2.33739e-14
  70
    32
  0
VERTEX
  8
0
  5
368D
 10
104.942
 20
60.1068
 30
2.33828e-14
  70
    32
  0
VERTEX
  8
0
  5
368E
 10
104.982
 20
60.1068
 30
2.33917e-14
  70
    32
  0
VERTEX
  8
0
  5
368F
 10
105.022
 20
60.1068
 30
2.34006e-14
  70
    32
  0
VERTEX
  8
0
  5
3690
 10
105.061
 20
60.1068
 30
2.34095e-14
  70
    32
  0
VERTEX
  8
0
  5
3691
 10
105.101
 20
60.1068
 30
2.34184e-14
  70
    32
  0
VERTEX
  8
0
  5
3692
 10
105.141
 20
60.1068
 30
2.34273e-14
  70
    32
  0
VERTEX
  8
0
  5
3693
 10
105.181
 20
60.1068
 30
2.34362e-14
  70
    32
  0
VERTEX
  8
0
  5
3694
 10
105.221
 20
60.1068
 30
2.34451e-14
  70
    32
  0
VERTEX
  8
0
  5
3695
 10
105.261
 20
60.1068
 30
2.34541e-14
  70
    32
  0
VERTEX
  8
0
  5
3696
 10
105.301
 20
60.1068
 30
2.34630e-14
  70
    32
  0
VERTEX
  8
0
  5
3697
 10
105.341
 20
60.1068
 30
2.34720e-14
  70
    32
  0
VERTEX
  8
0
  5
3698
 10
105.381
 20
60.1068
 30
2.34809e-14
  70
    32
  0
VERTEX
  8
0
  5
3699
 10
105.421
 20
60.1068
 30
2.34899e-14
  70
    32
  0
VERTEX
  8
0
  5
369A
 10
105.461
 20
60.1068
 30
2.34988e-14
  70
    32
  0
VERTEX
  8
0
  5
369B
 10
105.501
 20
60.1068
 30
2.35078e-14
  70
    32
  0
VERTEX
  8
0
  5
369C
 10
105.542
 20
60.1068
 30
2.35168e-14
  70
    32
  0
VERTEX
  8
0
  5
369D
 10
105.582
 20
60.1068
 30
2.35258e-14
  70
    32
  0
VERTEX
  8
0
  5
369E
 10
105.622
 20
60.1068
 30
2.35348e-14
  70
    32
  0
VERTEX
  8
0
  5
369F
 10
105.663
 20
60.1068
 30
2.35438e-14
  70
    32
  0
VERTEX
  8
0
  5
36A0
 10
105.703
 20
60.1068
 30
2.35528e-14
  70
    32
  0
VERTEX
  8
0
  5
36A1
 10
105.743
 20
60.1068
 30
2.35618e-14
  70
    32
  0
VERTEX
  8
0
  5
36A2
 10
105.784
 20
60.1068
 30
2.35708e-14
  70
    32
  0
VERTEX
  8
0
  5
36A3
 10
105.825
 20
60.1068
 30
2.35798e-14
  70
    32
  0
VERTEX
  8
0
  5
36A4
 10
105.865
 20
60.1068
 30
2.35888e-14
  70
    32
  0
VERTEX
  8
0
  5
36A5
 10
105.906
 20
60.1068
 30
2.35979e-14
  70
    32
  0
VERTEX
  8
0
  5
36A6
 10
105.946
 20
60.1068
 30
2.36069e-14
  70
    32
  0
VERTEX
  8
0
  5
36A7
 10
105.987
 20
60.1068
 30
2.36160e-14
  70
    32
  0
VERTEX
  8
0
  5
36A8
 10
106.028
 20
60.1068
 30
2.36250e-14
  70
    32
  0
VERTEX
  8
0
  5
36A9
 10
106.069
 20
60.1068
 30
2.36341e-14
  70
    32
  0
VERTEX
  8
0
  5
36AA
 10
106.109
 20
60.1068
 30
2.36432e-14
  70
    32
  0
VERTEX
  8
0
  5
36AB
 10
106.150
 20
60.1068
 30
2.36522e-14
  70
    32
  0
VERTEX
  8
0
  5
36AC
 10
106.191
 20
60.1068
 30
2.36613e-14
  70
    32
  0
VERTEX
  8
0
  5
36AD
 10
106.232
 20
60.1068
 30
2.36704e-14
  70
    32
  0
VERTEX
  8
0
  5
36AE
 10
106.273
 20
60.1068
 30
2.36795e-14
  70
    32
  0
VERTEX
  8
0
  5
36AF
 10
106.314
 20
60.1068
 30
2.36886e-14
  70
    32
  0
VERTEX
  8
0
  5
36B0
 10
106.355
 20
60.1068
 30
2.36977e-14
  70
    32
  0
VERTEX
  8
0
  5
36B1
 10
106.396
 20
60.1068
 30
2.37068e-14
  70
    32
  0
VERTEX
  8
0
  5
36B2
 10
106.437
 20
60.1068
 30
2.37159e-14
  70
    32
  0
VERTEX
  8
0
  5
36B3
 10
106.479
 20
60.1068
 30
2.37251e-14
  70
    32
  0
VERTEX
  8
0
  5
36B4
 10
106.520
 20
60.1068
 30
2.37342e-14
  70
    32
  0
VERTEX
  8
0
  5
36B5
 10
106.561
 20
60.1068
 30
2.37433e-14
  70
    32
  0
VERTEX
  8
0
  5
36B6
 10
106.603
 20
60.1068
 30
2.37525e-14
  70
    32
  0
VERTEX
  8
0
  5
36B7
 10
106.644
 20
60.1068
 30
2.37616e-14
  70
    32
  0
VERTEX
  8
0
  5
36B8
 10
106.685
 20
60.1068
 30
2.37708e-14
  70
    32
  0
VERTEX
  8
0
  5
36B9
 10
106.727
 20
60.1068
 30
2.37799e-14
  70
    32
  0
VERTEX
  8
0
  5
36BA
 10
106.768
 20
60.1068
 30
2.37891e-14
  70
    32
  0
VERTEX
  8
0
  5
36BB
 10
106.810
 20
60.1068
 30
2.37983e-14
  70
    32
  0
VERTEX
  8
0
  5
36BC
 10
106.851
 20
60.1068
 30
2.38074e-14
  70
    32
  0
VERTEX
  8
0
  5
36BD
 10
106.893
 20
60.1068
 30
2.38166e-14
  70
    32
  0
VERTEX
  8
0
  5
36BE
 10
106.935
 20
60.1068
 30
2.38258e-14
  70
    32
  0
VERTEX
  8
0
  5
36BF
 10
106.976
 20
60.1068
 30
2.38350e-14
  70
    32
  0
VERTEX
  8
0
  5
36C0
 10
107.018
 20
60.1068
 30
2.38442e-14
  70
    32
  0
VERTEX
  8
0
  5
36C1
 10
107.060
 20
60.1068
 30
2.38534e-14
  70
    32
  0
VERTEX
  8
0
  5
36C2
 10
107.102
 20
60.1068
 30
2.38626e-14
  70
    32
  0
VERTEX
  8
0
  5
36C3
 10
107.144
 20
60.1068
 30
2.38718e-14
  70
    32
  0
VERTEX
  8
0
  5
36C4
 10
107.186
 20
60.1068
 30
2.38811e-14
  70
    32
  0
VERTEX
  8
0
  5
36C5
 10
107.228
 20
60.1068
 30
2.38903e-14
  70
    32
  0
VERTEX
  8
0
  5
36C6
 10
107.270
 20
60.1068
 30
2.38995e-14
  70
    32
  0
VERTEX
  8
0
  5
36C7
 10
107.312
 20
60.1068
 30
2.39088e-14
  70
    32
  0
VERTEX
  8
0
  5
36C8
 10
107.354
 20
60.1068
 30
2.39180e-14
  70
    32
  0
VERTEX
  8
0
  5
36C9
 10
107.396
 20
60.1068
 30
2.39273e-14
  70
    32
  0
VERTEX
  8
0
  5
36CA
 10
107.438
 20
60.1068
 30
2.39365e-14
  70
    32
  0
VERTEX
  8
0
  5
36CB
 10
107.480
 20
60.1068
 30
2.39458e-14
  70
    32
  0
VERTEX
  8
0
  5
36CC
 10
107.523
 20
60.1068
 30
2.39550e-14
  70
    32
  0
VERTEX
  8
0
  5
36CD
 10
107.565
 20
60.1068
 30
2.39643e-14
  70
    32
  0
VERTEX
  8
0
  5
36CE
 10
107.607
 20
60.1068
 30
2.39736e-14
  70
    32
  0
VERTEX
  8
0
  5
36CF
 10
107.650
 20
60.1068
 30
2.39829e-14
  70
    32
  0
VERTEX
  8
0
  5
36D0
 10
107.692
 20
60.1068
 30
2.39922e-14
  70
    32
  0
VERTEX
  8
0
  5
36D1
 10
107.735
 20
60.1068
 30
2.40014e-14
  70
    32
  0
VERTEX
  8
0
  5
36D2
 10
107.777
 20
60.1068
 30
2.40107e-14
  70
    32
  0
VERTEX
  8
0
  5
36D3
 10
107.820
 20
60.1068
 30
2.40200e-14
  70
    32
  0
VERTEX
  8
0
  5
36D4
 10
107.862
 20
60.1068
 30
2.40294e-14
  70
    32
  0
VERTEX
  8
0
  5
36D5
 10
107.905
 20
60.1068
 30
2.40387e-14
  70
    32
  0
VERTEX
  8
0
  5
36D6
 10
107.948
 20
60.1068
 30
2.40480e-14
  70
    32
  0
VERTEX
  8
0
  5
36D7
 10
107.990
 20
60.1068
 30
2.40573e-14
  70
    32
  0
VERTEX
  8
0
  5
36D8
 10
108.033
 20
60.1068
 30
2.40666e-14
  70
    32
  0
VERTEX
  8
0
  5
36D9
 10
108.076
 20
60.1068
 30
2.40760e-14
  70
    32
  0
VERTEX
  8
0
  5
36DA
 10
108.119
 20
60.1068
 30
2.40853e-14
  70
    32
  0
VERTEX
  8
0
  5
36DB
 10
108.162
 20
60.1068
 30
2.40947e-14
  70
    32
  0
VERTEX
  8
0
  5
36DC
 10
108.205
 20
60.1068
 30
2.41040e-14
  70
    32
  0
VERTEX
  8
0
  5
36DD
 10
108.248
 20
60.1068
 30
2.41134e-14
  70
    32
  0
VERTEX
  8
0
  5
36DE
 10
108.291
 20
60.1068
 30
2.41227e-14
  70
    32
  0
VERTEX
  8
0
  5
36DF
 10
108.334
 20
60.1068
 30
2.41321e-14
  70
    32
  0
VERTEX
  8
0
  5
36E0
 10
108.377
 20
60.1068
 30
2.41415e-14
  70
    32
  0
VERTEX
  8
0
  5
36E1
 10
108.420
 20
60.1068
 30
2.41509e-14
  70
    32
  0
VERTEX
  8
0
  5
36E2
 10
108.464
 20
60.1068
 30
2.41603e-14
  70
    32
  0
VERTEX
  8
0
  5
36E3
 10
108.507
 20
60.1068
 30
2.41697e-14
  70
    32
  0
VERTEX
  8
0
  5
36E4
 10
108.551
 20
60.1068
 30
2.41792e-14
  70
    32
  0
VERTEX
  8
0
  5
36E5
 10
108.594
 20
60.1068
 30
2.41888e-14
  70
    32
  0
VERTEX
  8
0
  5
36E6
 10
108.638
 20
60.1068
 30
2.41983e-14
  70
    32
  0
VERTEX
  8
0
  5
36E7
 10
108.682
 20
60.1068
 30
2.42079e-14
  70
    32
  0
VERTEX
  8
0
  5
36E8
 10
108.726
 20
60.1068
 30
2.42175e-14
  70
    32
  0
VERTEX
  8
0
  5
36E9
 10
108.770
 20
60.1068
 30
2.42271e-14
  70
    32
  0
VERTEX
  8
0
  5
36EA
 10
108.814
 20
60.1068
 30
2.42368e-14
  70
    32
  0
VERTEX
  8
0
  5
36EB
 10
108.858
 20
60.1068
 30
2.42465e-14
  70
    32
  0
VERTEX
  8
0
  5
36EC
 10
108.903
 20
60.1068
 30
2.42562e-14
  70
    32
  0
VERTEX
  8
0
  5
36ED
 10
108.947
 20
60.1068
 30
2.42660e-14
  70
    32
  0
VERTEX
  8
0
  5
36EE
 10
108.992
 20
60.1068
 30
2.42758e-14
  70
    32
  0
VERTEX
  8
0
  5
36EF
 10
109.036
 20
60.1068
 30
2.42856e-14
  70
    32
  0
VERTEX
  8
0
  5
36F0
 10
109.081
 20
60.1068
 30
2.42954e-14
  70
    32
  0
VERTEX
  8
0
  5
36F1
 10
109.126
 20
60.1068
 30
2.43053e-14
  70
    32
  0
VERTEX
  8
0
  5
36F2
 10
109.171
 20
60.1068
 30
2.43152e-14
  70
    32
  0
VERTEX
  8
0
  5
36F3
 10
109.216
 20
60.1068
 30
2.43252e-14
  70
    32
  0
VERTEX
  8
0
  5
36F4
 10
109.261
 20
60.1068
 30
2.43352e-14
  70
    32
  0
VERTEX
  8
0
  5
36F5
 10
109.306
 20
60.1068
 30
2.43452e-14
  70
    32
  0
VERTEX
  8
0
  5
36F6
 10
109.352
 20
60.1068
 30
2.43553e-14
  70
    32
  0
VERTEX
  8
0
  5
36F7
 10
109.397
 20
60.1068
 30
2.43654e-14
  70
    32
  0
VERTEX
  8
0
  5
36F8
 10
109.443
 20
60.1068
 30
2.43755e-14
  70
    32
  0
VERTEX
  8
0
  5
36F9
 10
109.489
 20
60.1068
 30
2.43856e-14
  70
    32
  0
VERTEX
  8
0
  5
36FA
 10
109.534
 20
60.1068
 30
2.43958e-14
  70
    32
  0
VERTEX
  8
0
  5
36FB
 10
109.580
 20
60.1068
 30
2.44061e-14
  70
    32
  0
VERTEX
  8
0
  5
36FC
 10
109.626
 20
60.1068
 30
2.44163e-14
  70
    32
  0
VERTEX
  8
0
  5
36FD
 10
109.672
 20
60.1068
 30
2.44266e-14
  70
    32
  0
VERTEX
  8
0
  5
36FE
 10
109.719
 20
60.1068
 30
2.44370e-14
  70
    32
  0
VERTEX
  8
0
  5
36FF
 10
109.765
 20
60.1068
 30
2.44474e-14
  70
    32
  0
VERTEX
  8
0
  5
3700
 10
109.811
 20
60.1068
 30
2.44578e-14
  70
    32
  0
VERTEX
  8
0
  5
3701
 10
109.858
 20
60.1068
 30
2.44682e-14
  70
    32
  0
VERTEX
  8
0
  5
3702
 10
109.905
 20
60.1068
 30
2.44787e-14
  70
    32
  0
VERTEX
  8
0
  5
3703
 10
109.951
 20
60.1068
 30
2.44893e-14
  70
    32
  0
VERTEX
  8
0
  5
3704
 10
109.998
 20
60.1068
 30
2.44998e-14
  70
    32
  0
VERTEX
  8
0
  5
3705
 10
110.045
 20
60.1068
 30
2.45104e-14
  70
    32
  0
VERTEX
  8
0
  5
3706
 10
110.092
 20
60.1068
 30
2.45211e-14
  70
    32
  0
VERTEX
  8
0
  5
3707
 10
110.140
 20
60.1068
 30
2.45318e-14
  70
    32
  0
VERTEX
  8
0
  5
3708
 10
110.187
 20
60.1068
 30
2.45425e-14
  70
    32
  0
VERTEX
  8
0
  5
3709
 10
110.234
 20
60.1068
 30
2.45533e-14
  70
    32
  0
VERTEX
  8
0
  5
370A
 10
110.282
 20
60.1068
 30
2.45641e-14
  70
    32
  0
VERTEX
  8
0
  5
370B
 10
110.330
 20
60.1068
 30
2.45749e-14
  70
    32
  0
VERTEX
  8
0
  5
370C
 10
110.377
 20
60.1068
 30
2.45858e-14
  70
    32
  0
VERTEX
  8
0
  5
370D
 10
110.425
 20
60.1068
 30
2.45968e-14
  70
    32
  0
VERTEX
  8
0
  5
370E
 10
110.473
 20
60.1068
 30
2.46077e-14
  70
    32
  0
VERTEX
  8
0
  5
370F
 10
110.521
 20
60.1068
 30
2.46187e-14
  70
    32
  0
VERTEX
  8
0
  5
3710
 10
110.569
 20
60.1068
 30
2.46298e-14
  70
    32
  0
VERTEX
  8
0
  5
3711
 10
110.618
 20
60.1068
 30
2.46409e-14
  70
    32
  0
VERTEX
  8
0
  5
3712
 10
110.666
 20
60.1068
 30
2.46521e-14
  70
    32
  0
VERTEX
  8
0
  5
3713
 10
110.715
 20
60.1068
 30
2.46632e-14
  70
    32
  0
VERTEX
  8
0
  5
3714
 10
110.764
 20
60.1068
 30
2.46745e-14
  70
    32
  0
VERTEX
  8
0
  5
3715
 10
110.812
 20
60.1068
 30
2.46858e-14
  70
    32
  0
VERTEX
  8
0
  5
3716
 10
110.861
 20
60.1068
 30
2.46971e-14
  70
    32
  0
VERTEX
  8
0
  5
3717
 10
110.910
 20
60.1068
 30
2.47084e-14
  70
    32
  0
VERTEX
  8
0
  5
3718
 10
110.959
 20
60.1068
 30
2.47199e-14
  70
    32
  0
VERTEX
  8
0
  5
3719
 10
111.009
 20
60.1068
 30
2.47313e-14
  70
    32
  0
VERTEX
  8
0
  5
371A
 10
111.058
 20
60.1068
 30
2.47428e-14
  70
    32
  0
VERTEX
  8
0
  5
371B
 10
111.108
 20
60.1068
 30
2.47544e-14
  70
    32
  0
VERTEX
  8
0
  5
371C
 10
111.157
 20
60.1068
 30
2.47660e-14
  70
    32
  0
VERTEX
  8
0
  5
371D
 10
111.207
 20
60.1068
 30
2.47776e-14
  70
    32
  0
VERTEX
  8
0
  5
371E
 10
111.257
 20
60.1068
 30
2.47893e-14
  70
    32
  0
VERTEX
  8
0
  5
371F
 10
111.307
 20
60.1068
 30
2.48010e-14
  70
    32
  0
VERTEX
  8
0
  5
3720
 10
111.357
 20
60.1068
 30
2.48128e-14
  70
    32
  0
VERTEX
  8
0
  5
3721
 10
111.407
 20
60.1068
 30
2.48247e-14
  70
    32
  0
VERTEX
  8
0
  5
3722
 10
111.458
 20
60.1068
 30
2.48365e-14
  70
    32
  0
VERTEX
  8
0
  5
3723
 10
111.508
 20
60.1068
 30
2.48485e-14
  70
    32
  0
VERTEX
  8
0
  5
3724
 10
111.559
 20
60.1068
 30
2.48605e-14
  70
    32
  0
VERTEX
  8
0
  5
3725
 10
111.609
 20
60.1068
 30
2.48725e-14
  70
    32
  0
VERTEX
  8
0
  5
3726
 10
111.660
 20
60.1068
 30
2.48846e-14
  70
    32
  0
VERTEX
  8
0
  5
3727
 10
111.711
 20
60.1068
 30
2.48967e-14
  70
    32
  0
VERTEX
  8
0
  5
3728
 10
111.762
 20
60.1068
 30
2.49089e-14
  70
    32
  0
VERTEX
  8
0
  5
3729
 10
111.814
 20
60.1068
 30
2.49211e-14
  70
    32
  0
VERTEX
  8
0
  5
372A
 10
111.865
 20
60.1068
 30
2.49334e-14
  70
    32
  0
VERTEX
  8
0
  5
372B
 10
111.916
 20
60.1068
 30
2.49457e-14
  70
    32
  0
VERTEX
  8
0
  5
372C
 10
111.968
 20
60.1068
 30
2.49581e-14
  70
    32
  0
VERTEX
  8
0
  5
372D
 10
112.020
 20
60.1068
 30
2.49705e-14
  70
    32
  0
VERTEX
  8
0
  5
372E
 10
112.071
 20
60.1068
 30
2.49830e-14
  70
    32
  0
VERTEX
  8
0
  5
372F
 10
112.123
 20
60.1068
 30
2.49956e-14
  70
    32
  0
VERTEX
  8
0
  5
3730
 10
112.176
 20
60.1068
 30
2.50082e-14
  70
    32
  0
VERTEX
  8
0
  5
3731
 10
112.228
 20
60.1068
 30
2.50208e-14
  70
    32
  0
VERTEX
  8
0
  5
3732
 10
112.280
 20
60.1068
 30
2.50335e-14
  70
    32
  0
VERTEX
  8
0
  5
3733
 10
112.333
 20
60.1068
 30
2.50463e-14
  70
    32
  0
VERTEX
  8
0
  5
3734
 10
112.385
 20
60.1068
 30
2.50591e-14
  70
    32
  0
VERTEX
  8
0
  5
3735
 10
112.438
 20
60.1068
 30
2.50719e-14
  70
    32
  0
VERTEX
  8
0
  5
3736
 10
112.489
 20
60.1068
 30
2.50843e-14
  70
    32
  0
VERTEX
  8
0
  5
3737
 10
112.539
 20
60.1068
 30
2.50963e-14
  70
    32
  0
VERTEX
  8
0
  5
3738
 10
112.586
 20
60.1068
 30
2.51079e-14
  70
    32
  0
VERTEX
  8
0
  5
3739
 10
112.633
 20
60.1068
 30
2.51190e-14
  70
    32
  0
VERTEX
  8
0
  5
373A
 10
112.677
 20
60.1069
 30
2.51296e-14
  70
    32
  0
VERTEX
  8
0
  5
373B
 10
112.720
 20
60.1069
 30
2.51399e-14
  70
    32
  0
VERTEX
  8
0
  5
373C
 10
112.762
 20
60.1069
 30
2.51497e-14
  70
    32
  0
VERTEX
  8
0
  5
373D
 10
112.802
 20
60.1069
 30
2.51592e-14
  70
    32
  0
VERTEX
  8
0
  5
373E
 10
112.840
 20
60.1069
 30
2.51682e-14
  70
    32
  0
VERTEX
  8
0
  5
373F
 10
112.878
 20
60.1070
 30
2.51769e-14
  70
    32
  0
VERTEX
  8
0
  5
3740
 10
112.913
 20
60.1070
 30
2.51852e-14
  70
    32
  0
VERTEX
  8
0
  5
3741
 10
112.948
 20
60.1070
 30
2.51932e-14
  70
    32
  0
VERTEX
  8
0
  5
3742
 10
112.981
 20
60.1070
 30
2.52008e-14
  70
    32
  0
VERTEX
  8
0
  5
3743
 10
113.013
 20
60.1070
 30
2.52081e-14
  70
    32
  0
VERTEX
  8
0
  5
3744
 10
113.044
 20
60.1070
 30
2.52151e-14
  70
    32
  0
VERTEX
  8
0
  5
3745
 10
113.073
 20
60.1071
 30
2.52217e-14
  70
    32
  0
VERTEX
  8
0
  5
3746
 10
113.102
 20
60.1071
 30
2.52281e-14
  70
    32
  0
VERTEX
  8
0
  5
3747
 10
113.129
 20
60.1071
 30
2.52341e-14
  70
    32
  0
VERTEX
  8
0
  5
3748
 10
113.155
 20
60.1071
 30
2.52399e-14
  70
    32
  0
VERTEX
  8
0
  5
3749
 10
113.180
 20
60.1070
 30
2.52454e-14
  70
    32
  0
VERTEX
  8
0
  5
374A
 10
113.204
 20
60.1070
 30
2.52506e-14
  70
    32
  0
VERTEX
  8
0
  5
374B
 10
113.227
 20
60.1070
 30
2.52556e-14
  70
    32
  0
VERTEX
  8
0
  5
374C
 10
113.250
 20
60.1070
 30
2.52603e-14
  70
    32
  0
VERTEX
  8
0
  5
374D
 10
113.271
 20
60.1069
 30
2.52648e-14
  70
    32
  0
VERTEX
  8
0
  5
374E
 10
113.291
 20
60.1069
 30
2.52691e-14
  70
    32
  0
VERTEX
  8
0
  5
374F
 10
113.311
 20
60.1068
 30
2.52732e-14
  70
    32
  0
VERTEX
  8
0
  5
3750
 10
113.330
 20
60.1068
 30
2.52770e-14
  70
    32
  0
VERTEX
  8
0
  5
3751
 10
113.348
 20
60.1067
 30
2.52807e-14
  70
    32
  0
VERTEX
  8
0
  5
3752
 10
113.365
 20
60.1066
 30
2.52842e-14
  70
    32
  0
VERTEX
  8
0
  5
3753
 10
113.381
 20
60.1065
 30
2.52875e-14
  70
    32
  0
VERTEX
  8
0
  5
3754
 10
113.397
 20
60.1064
 30
2.52907e-14
  70
    32
  0
VERTEX
  8
0
  5
3755
 10
113.413
 20
60.1063
 30
2.52937e-14
  70
    32
  0
VERTEX
  8
0
  5
3756
 10
113.427
 20
60.1061
 30
2.52966e-14
  70
    32
  0
VERTEX
  8
0
  5
3757
 10
113.442
 20
60.1060
 30
2.52994e-14
  70
    32
  0
VERTEX
  8
0
  5
3758
 10
113.455
 20
60.1058
 30
2.53020e-14
  70
    32
  0
VERTEX
  8
0
  5
3759
 10
113.468
 20
60.1057
 30
2.53045e-14
  70
    32
  0
VERTEX
  8
0
  5
375A
 10
113.481
 20
60.1055
 30
2.53070e-14
  70
    32
  0
VERTEX
  8
0
  5
375B
 10
113.494
 20
60.1053
 30
2.53093e-14
  70
    32
  0
VERTEX
  8
0
  5
375C
 10
113.506
 20
60.1050
 30
2.53116e-14
  70
    32
  0
VERTEX
  8
0
  5
375D
 10
113.517
 20
60.1048
 30
2.53138e-14
  70
    32
  0
VERTEX
  8
0
  5
375E
 10
113.529
 20
60.1045
 30
2.53159e-14
  70
    32
  0
VERTEX
  8
0
  5
375F
 10
113.540
 20
60.1043
 30
2.53180e-14
  70
    32
  0
VERTEX
  8
0
  5
3760
 10
113.551
 20
60.1040
 30
2.53200e-14
  70
    32
  0
VERTEX
  8
0
  5
3761
 10
113.561
 20
60.1037
 30
2.53221e-14
  70
    32
  0
VERTEX
  8
0
  5
3762
 10
113.572
 20
60.1033
 30
2.53241e-14
  70
    32
  0
VERTEX
  8
0
  5
3763
 10
113.582
 20
60.1030
 30
2.53261e-14
  70
    32
  0
VERTEX
  8
0
  5
3764
 10
113.593
 20
60.1026
 30
2.53281e-14
  70
    32
  0
VERTEX
  8
0
  5
3765
 10
113.603
 20
60.1022
 30
2.53302e-14
  70
    32
  0
VERTEX
  8
0
  5
3766
 10
113.613
 20
60.1018
 30
2.53322e-14
  70
    32
  0
VERTEX
  8
0
  5
3767
 10
113.623
 20
60.1014
 30
2.53343e-14
  70
    32
  0
VERTEX
  8
0
  5
3768
 10
113.634
 20
60.1009
 30
2.53365e-14
  70
    32
  0
VERTEX
  8
0
  5
3769
 10
113.644
 20
60.1004
 30
2.53387e-14
  70
    32
  0
VERTEX
  8
0
  5
376A
 10
113.655
 20
60.0999
 30
2.53409e-14
  70
    32
  0
VERTEX
  8
0
  5
376B
 10
113.666
 20
60.0994
 30
2.53433e-14
  70
    32
  0
VERTEX
  8
0
  5
376C
 10
113.677
 20
60.0988
 30
2.53457e-14
  70
    32
  0
VERTEX
  8
0
  5
376D
 10
113.688
 20
60.0983
 30
2.53480e-14
  70
    32
  0
VERTEX
  8
0
  5
376E
 10
113.698
 20
60.0977
 30
2.53504e-14
  70
    32
  0
VERTEX
  8
0
  5
376F
 10
113.709
 20
60.0971
 30
2.53529e-14
  70
    32
  0
VERTEX
  8
0
  5
3770
 10
113.720
 20
60.0964
 30
2.53553e-14
  70
    32
  0
VERTEX
  8
0
  5
3771
 10
113.731
 20
60.0958
 30
2.53577e-14
  70
    32
  0
VERTEX
  8
0
  5
3772
 10
113.742
 20
60.0951
 30
2.53601e-14
  70
    32
  0
VERTEX
  8
0
  5
3773
 10
113.753
 20
60.0944
 30
2.53626e-14
  70
    32
  0
VERTEX
  8
0
  5
3774
 10
113.764
 20
60.0937
 30
2.53650e-14
  70
    32
  0
VERTEX
  8
0
  5
3775
 10
113.775
 20
60.0930
 30
2.53674e-14
  70
    32
  0
VERTEX
  8
0
  5
3776
 10
113.786
 20
60.0922
 30
2.53699e-14
  70
    32
  0
VERTEX
  8
0
  5
3777
 10
113.797
 20
60.0915
 30
2.53723e-14
  70
    32
  0
VERTEX
  8
0
  5
3778
 10
113.808
 20
60.0907
 30
2.53748e-14
  70
    32
  0
VERTEX
  8
0
  5
3779
 10
113.819
 20
60.0898
 30
2.53773e-14
  70
    32
  0
VERTEX
  8
0
  5
377A
 10
113.830
 20
60.0890
 30
2.53798e-14
  70
    32
  0
VERTEX
  8
0
  5
377B
 10
113.841
 20
60.0882
 30
2.53822e-14
  70
    32
  0
VERTEX
  8
0
  5
377C
 10
113.852
 20
60.0873
 30
2.53847e-14
  70
    32
  0
VERTEX
  8
0
  5
377D
 10
113.863
 20
60.0864
 30
2.53872e-14
  70
    32
  0
VERTEX
  8
0
  5
377E
 10
113.874
 20
60.0855
 30
2.53897e-14
  70
    32
  0
VERTEX
  8
0
  5
377F
 10
113.885
 20
60.0845
 30
2.53922e-14
  70
    32
  0
VERTEX
  8
0
  5
3780
 10
113.896
 20
60.0836
 30
2.53947e-14
  70
    32
  0
VERTEX
  8
0
  5
3781
 10
113.908
 20
60.0826
 30
2.53972e-14
  70
    32
  0
VERTEX
  8
0
  5
3782
 10
113.919
 20
60.0816
 30
2.53998e-14
  70
    32
  0
VERTEX
  8
0
  5
3783
 10
113.930
 20
60.0806
 30
2.54023e-14
  70
    32
  0
VERTEX
  8
0
  5
3784
 10
113.941
 20
60.0795
 30
2.54048e-14
  70
    32
  0
VERTEX
  8
0
  5
3785
 10
113.952
 20
60.0784
 30
2.54073e-14
  70
    32
  0
VERTEX
  8
0
  5
3786
 10
113.963
 20
60.0774
 30
2.54099e-14
  70
    32
  0
VERTEX
  8
0
  5
3787
 10
113.974
 20
60.0763
 30
2.54124e-14
  70
    32
  0
VERTEX
  8
0
  5
3788
 10
113.985
 20
60.0751
 30
2.54150e-14
  70
    32
  0
VERTEX
  8
0
  5
3789
 10
113.996
 20
60.0740
 30
2.54175e-14
  70
    32
  0
VERTEX
  8
0
  5
378A
 10
114.008
 20
60.0728
 30
2.54201e-14
  70
    32
  0
VERTEX
  8
0
  5
378B
 10
114.019
 20
60.0716
 30
2.54227e-14
  70
    32
  0
VERTEX
  8
0
  5
378C
 10
114.030
 20
60.0704
 30
2.54252e-14
  70
    32
  0
VERTEX
  8
0
  5
378D
 10
114.041
 20
60.0691
 30
2.54278e-14
  70
    32
  0
VERTEX
  8
0
  5
378E
 10
114.052
 20
60.0679
 30
2.54304e-14
  70
    32
  0
VERTEX
  8
0
  5
378F
 10
114.064
 20
60.0666
 30
2.54330e-14
  70
    32
  0
VERTEX
  8
0
  5
3790
 10
114.075
 20
60.0653
 30
2.54355e-14
  70
    32
  0
VERTEX
  8
0
  5
3791
 10
114.086
 20
60.0640
 30
2.54381e-14
  70
    32
  0
VERTEX
  8
0
  5
3792
 10
114.097
 20
60.0626
 30
2.54407e-14
  70
    32
  0
VERTEX
  8
0
  5
3793
 10
114.108
 20
60.0612
 30
2.54433e-14
  70
    32
  0
VERTEX
  8
0
  5
3794
 10
114.120
 20
60.0598
 30
2.54459e-14
  70
    32
  0
VERTEX
  8
0
  5
3795
 10
114.131
 20
60.0584
 30
2.54485e-14
  70
    32
  0
VERTEX
  8
0
  5
3796
 10
114.142
 20
60.0570
 30
2.54512e-14
  70
    32
  0
VERTEX
  8
0
  5
3797
 10
114.153
 20
60.0555
 30
2.54538e-14
  70
    32
  0
VERTEX
  8
0
  5
3798
 10
114.165
 20
60.0540
 30
2.54564e-14
  70
    32
  0
VERTEX
  8
0
  5
3799
 10
114.176
 20
60.0525
 30
2.54590e-14
  70
    32
  0
VERTEX
  8
0
  5
379A
 10
114.187
 20
60.0510
 30
2.54617e-14
  70
    32
  0
VERTEX
  8
0
  5
379B
 10
114.199
 20
60.0494
 30
2.54643e-14
  70
    32
  0
VERTEX
  8
0
  5
379C
 10
114.210
 20
60.0479
 30
2.54669e-14
  70
    32
  0
VERTEX
  8
0
  5
379D
 10
114.221
 20
60.0463
 30
2.54696e-14
  70
    32
  0
VERTEX
  8
0
  5
379E
 10
114.232
 20
60.0446
 30
2.54722e-14
  70
    32
  0
VERTEX
  8
0
  5
379F
 10
114.244
 20
60.0430
 30
2.54748e-14
  70
    32
  0
VERTEX
  8
0
  5
37A0
 10
114.255
 20
60.0413
 30
2.54775e-14
  70
    32
  0
VERTEX
  8
0
  5
37A1
 10
114.266
 20
60.0396
 30
2.54802e-14
  70
    32
  0
VERTEX
  8
0
  5
37A2
 10
114.278
 20
60.0379
 30
2.54828e-14
  70
    32
  0
VERTEX
  8
0
  5
37A3
 10
114.289
 20
60.0362
 30
2.54855e-14
  70
    32
  0
VERTEX
  8
0
  5
37A4
 10
114.301
 20
60.0344
 30
2.54881e-14
  70
    32
  0
VERTEX
  8
0
  5
37A5
 10
114.312
 20
60.0326
 30
2.54908e-14
  70
    32
  0
VERTEX
  8
0
  5
37A6
 10
114.323
 20
60.0308
 30
2.54935e-14
  70
    32
  0
VERTEX
  8
0
  5
37A7
 10
114.335
 20
60.0290
 30
2.54961e-14
  70
    32
  0
VERTEX
  8
0
  5
37A8
 10
114.346
 20
60.0271
 30
2.54988e-14
  70
    32
  0
VERTEX
  8
0
  5
37A9
 10
114.357
 20
60.0252
 30
2.55015e-14
  70
    32
  0
VERTEX
  8
0
  5
37AA
 10
114.369
 20
60.0233
 30
2.55042e-14
  70
    32
  0
VERTEX
  8
0
  5
37AB
 10
114.380
 20
60.0214
 30
2.55069e-14
  70
    32
  0
VERTEX
  8
0
  5
37AC
 10
114.392
 20
60.0194
 30
2.55095e-14
  70
    32
  0
VERTEX
  8
0
  5
37AD
 10
114.403
 20
60.0175
 30
2.55122e-14
  70
    32
  0
VERTEX
  8
0
  5
37AE
 10
114.415
 20
60.0155
 30
2.55149e-14
  70
    32
  0
VERTEX
  8
0
  5
37AF
 10
114.426
 20
60.0134
 30
2.55176e-14
  70
    32
  0
VERTEX
  8
0
  5
37B0
 10
114.437
 20
60.0114
 30
2.55203e-14
  70
    32
  0
VERTEX
  8
0
  5
37B1
 10
114.449
 20
60.0093
 30
2.55230e-14
  70
    32
  0
VERTEX
  8
0
  5
37B2
 10
114.460
 20
60.0072
 30
2.55257e-14
  70
    32
  0
VERTEX
  8
0
  5
37B3
 10
114.472
 20
60.0051
 30
2.55284e-14
  70
    32
  0
VERTEX
  8
0
  5
37B4
 10
114.483
 20
60.0029
 30
2.55311e-14
  70
    32
  0
VERTEX
  8
0
  5
37B5
 10
114.495
 20
60.0008
 30
2.55338e-14
  70
    32
  0
VERTEX
  8
0
  5
37B6
 10
114.506
 20
59.9986
 30
2.55366e-14
  70
    32
  0
VERTEX
  8
0
  5
37B7
 10
114.518
 20
59.9963
 30
2.55393e-14
  70
    32
  0
VERTEX
  8
0
  5
37B8
 10
114.529
 20
59.9941
 30
2.55420e-14
  70
    32
  0
VERTEX
  8
0
  5
37B9
 10
114.541
 20
59.9918
 30
2.55447e-14
  70
    32
  0
VERTEX
  8
0
  5
37BA
 10
114.552
 20
59.9895
 30
2.55474e-14
  70
    32
  0
VERTEX
  8
0
  5
37BB
 10
114.564
 20
59.9872
 30
2.55501e-14
  70
    32
  0
VERTEX
  8
0
  5
37BC
 10
114.575
 20
59.9848
 30
2.55529e-14
  70
    32
  0
VERTEX
  8
0
  5
37BD
 10
114.587
 20
59.9825
 30
2.55556e-14
  70
    32
  0
VERTEX
  8
0
  5
37BE
 10
114.598
 20
59.9801
 30
2.55583e-14
  70
    32
  0
VERTEX
  8
0
  5
37BF
 10
114.610
 20
59.9777
 30
2.55610e-14
  70
    32
  0
VERTEX
  8
0
  5
37C0
 10
114.621
 20
59.9752
 30
2.55638e-14
  70
    32
  0
VERTEX
  8
0
  5
37C1
 10
114.633
 20
59.9727
 30
2.55665e-14
  70
    32
  0
VERTEX
  8
0
  5
37C2
 10
114.645
 20
59.9702
 30
2.55692e-14
  70
    32
  0
VERTEX
  8
0
  5
37C3
 10
114.656
 20
59.9677
 30
2.55720e-14
  70
    32
  0
VERTEX
  8
0
  5
37C4
 10
114.668
 20
59.9652
 30
2.55747e-14
  70
    32
  0
VERTEX
  8
0
  5
37C5
 10
114.679
 20
59.9626
 30
2.55774e-14
  70
    32
  0
VERTEX
  8
0
  5
37C6
 10
114.691
 20
59.9600
 30
2.55802e-14
  70
    32
  0
VERTEX
  8
0
  5
37C7
 10
114.702
 20
59.9574
 30
2.55829e-14
  70
    32
  0
VERTEX
  8
0
  5
37C8
 10
114.714
 20
59.9547
 30
2.55856e-14
  70
    32
  0
VERTEX
  8
0
  5
37C9
 10
114.726
 20
59.9520
 30
2.55884e-14
  70
    32
  0
VERTEX
  8
0
  5
37CA
 10
114.737
 20
59.9493
 30
2.55911e-14
  70
    32
  0
VERTEX
  8
0
  5
37CB
 10
114.749
 20
59.9466
 30
2.55939e-14
  70
    32
  0
VERTEX
  8
0
  5
37CC
 10
114.761
 20
59.9438
 30
2.55966e-14
  70
    32
  0
VERTEX
  8
0
  5
37CD
 10
114.772
 20
59.9410
 30
2.55993e-14
  70
    32
  0
VERTEX
  8
0
  5
37CE
 10
114.784
 20
59.9382
 30
2.56021e-14
  70
    32
  0
VERTEX
  8
0
  5
37CF
 10
114.795
 20
59.9354
 30
2.56048e-14
  70
    32
  0
VERTEX
  8
0
  5
37D0
 10
114.807
 20
59.9325
 30
2.56076e-14
  70
    32
  0
VERTEX
  8
0
  5
37D1
 10
114.819
 20
59.9296
 30
2.56103e-14
  70
    32
  0
VERTEX
  8
0
  5
37D2
 10
114.830
 20
59.9267
 30
2.56131e-14
  70
    32
  0
VERTEX
  8
0
  5
37D3
 10
114.842
 20
59.9238
 30
2.56158e-14
  70
    32
  0
VERTEX
  8
0
  5
37D4
 10
114.854
 20
59.9208
 30
2.56186e-14
  70
    32
  0
VERTEX
  8
0
  5
37D5
 10
114.865
 20
59.9178
 30
2.56213e-14
  70
    32
  0
VERTEX
  8
0
  5
37D6
 10
114.877
 20
59.9148
 30
2.56241e-14
  70
    32
  0
VERTEX
  8
0
  5
37D7
 10
114.889
 20
59.9117
 30
2.56268e-14
  70
    32
  0
VERTEX
  8
0
  5
37D8
 10
114.900
 20
59.9087
 30
2.56295e-14
  70
    32
  0
VERTEX
  8
0
  5
37D9
 10
114.912
 20
59.9055
 30
2.56323e-14
  70
    32
  0
VERTEX
  8
0
  5
37DA
 10
114.924
 20
59.9024
 30
2.56350e-14
  70
    32
  0
VERTEX
  8
0
  5
37DB
 10
114.936
 20
59.8993
 30
2.56378e-14
  70
    32
  0
VERTEX
  8
0
  5
37DC
 10
114.947
 20
59.8961
 30
2.56405e-14
  70
    32
  0
VERTEX
  8
0
  5
37DD
 10
114.959
 20
59.8929
 30
2.56433e-14
  70
    32
  0
VERTEX
  8
0
  5
37DE
 10
114.971
 20
59.8896
 30
2.56460e-14
  70
    32
  0
VERTEX
  8
0
  5
37DF
 10
114.982
 20
59.8863
 30
2.56488e-14
  70
    32
  0
VERTEX
  8
0
  5
37E0
 10
114.994
 20
59.8831
 30
2.56515e-14
  70
    32
  0
VERTEX
  8
0
  5
37E1
 10
115.006
 20
59.8797
 30
2.56543e-14
  70
    32
  0
VERTEX
  8
0
  5
37E2
 10
115.018
 20
59.8764
 30
2.56570e-14
  70
    32
  0
VERTEX
  8
0
  5
37E3
 10
115.029
 20
59.8730
 30
2.56597e-14
  70
    32
  0
VERTEX
  8
0
  5
37E4
 10
115.041
 20
59.8696
 30
2.56625e-14
  70
    32
  0
VERTEX
  8
0
  5
37E5
 10
115.053
 20
59.8662
 30
2.56652e-14
  70
    32
  0
VERTEX
  8
0
  5
37E6
 10
115.065
 20
59.8627
 30
2.56680e-14
  70
    32
  0
VERTEX
  8
0
  5
37E7
 10
115.076
 20
59.8592
 30
2.56707e-14
  70
    32
  0
VERTEX
  8
0
  5
37E8
 10
115.088
 20
59.8557
 30
2.56734e-14
  70
    32
  0
VERTEX
  8
0
  5
37E9
 10
115.100
 20
59.8521
 30
2.56762e-14
  70
    32
  0
VERTEX
  8
0
  5
37EA
 10
115.112
 20
59.8486
 30
2.56789e-14
  70
    32
  0
VERTEX
  8
0
  5
37EB
 10
115.124
 20
59.8450
 30
2.56816e-14
  70
    32
  0
VERTEX
  8
0
  5
37EC
 10
115.135
 20
59.8413
 30
2.56844e-14
  70
    32
  0
VERTEX
  8
0
  5
37ED
 10
115.147
 20
59.8377
 30
2.56871e-14
  70
    32
  0
VERTEX
  8
0
  5
37EE
 10
115.159
 20
59.8340
 30
2.56898e-14
  70
    32
  0
VERTEX
  8
0
  5
37EF
 10
115.171
 20
59.8303
 30
2.56926e-14
  70
    32
  0
VERTEX
  8
0
  5
37F0
 10
115.183
 20
59.8265
 30
2.56953e-14
  70
    32
  0
VERTEX
  8
0
  5
37F1
 10
115.194
 20
59.8227
 30
2.56980e-14
  70
    32
  0
VERTEX
  8
0
  5
37F2
 10
115.206
 20
59.8189
 30
2.57008e-14
  70
    32
  0
VERTEX
  8
0
  5
37F3
 10
115.218
 20
59.8151
 30
2.57035e-14
  70
    32
  0
VERTEX
  8
0
  5
37F4
 10
115.230
 20
59.8112
 30
2.57062e-14
  70
    32
  0
VERTEX
  8
0
  5
37F5
 10
115.242
 20
59.8074
 30
2.57089e-14
  70
    32
  0
VERTEX
  8
0
  5
37F6
 10
115.254
 20
59.8034
 30
2.57116e-14
  70
    32
  0
VERTEX
  8
0
  5
37F7
 10
115.265
 20
59.7995
 30
2.57144e-14
  70
    32
  0
VERTEX
  8
0
  5
37F8
 10
115.277
 20
59.7955
 30
2.57171e-14
  70
    32
  0
VERTEX
  8
0
  5
37F9
 10
115.289
 20
59.7915
 30
2.57198e-14
  70
    32
  0
VERTEX
  8
0
  5
37FA
 10
115.301
 20
59.7875
 30
2.57225e-14
  70
    32
  0
VERTEX
  8
0
  5
37FB
 10
115.313
 20
59.7834
 30
2.57252e-14
  70
    32
  0
VERTEX
  8
0
  5
37FC
 10
115.325
 20
59.7793
 30
2.57279e-14
  70
    32
  0
VERTEX
  8
0
  5
37FD
 10
115.337
 20
59.7752
 30
2.57306e-14
  70
    32
  0
VERTEX
  8
0
  5
37FE
 10
115.348
 20
59.7710
 30
2.57333e-14
  70
    32
  0
VERTEX
  8
0
  5
37FF
 10
115.360
 20
59.7669
 30
2.57360e-14
  70
    32
  0
VERTEX
  8
0
  5
3800
 10
115.372
 20
59.7626
 30
2.57387e-14
  70
    32
  0
VERTEX
  8
0
  5
3801
 10
115.384
 20
59.7584
 30
2.57414e-14
  70
    32
  0
VERTEX
  8
0
  5
3802
 10
115.396
 20
59.7541
 30
2.57441e-14
  70
    32
  0
VERTEX
  8
0
  5
3803
 10
115.408
 20
59.7498
 30
2.57468e-14
  70
    32
  0
VERTEX
  8
0
  5
3804
 10
115.420
 20
59.7455
 30
2.57495e-14
  70
    32
  0
VERTEX
  8
0
  5
3805
 10
115.432
 20
59.7411
 30
2.57522e-14
  70
    32
  0
VERTEX
  8
0
  5
3806
 10
115.444
 20
59.7368
 30
2.57548e-14
  70
    32
  0
VERTEX
  8
0
  5
3807
 10
115.456
 20
59.7323
 30
2.57575e-14
  70
    32
  0
VERTEX
  8
0
  5
3808
 10
115.467
 20
59.7279
 30
2.57602e-14
  70
    32
  0
VERTEX
  8
0
  5
3809
 10
115.479
 20
59.7234
 30
2.57629e-14
  70
    32
  0
VERTEX
  8
0
  5
380A
 10
115.491
 20
59.7189
 30
2.57655e-14
  70
    32
  0
VERTEX
  8
0
  5
380B
 10
115.503
 20
59.7143
 30
2.57682e-14
  70
    32
  0
VERTEX
  8
0
  5
380C
 10
115.515
 20
59.7098
 30
2.57709e-14
  70
    32
  0
VERTEX
  8
0
  5
380D
 10
115.527
 20
59.7052
 30
2.57735e-14
  70
    32
  0
VERTEX
  8
0
  5
380E
 10
115.539
 20
59.7005
 30
2.57762e-14
  70
    32
  0
VERTEX
  8
0
  5
380F
 10
115.551
 20
59.6959
 30
2.57788e-14
  70
    32
  0
VERTEX
  8
0
  5
3810
 10
115.563
 20
59.6912
 30
2.57815e-14
  70
    32
  0
VERTEX
  8
0
  5
3811
 10
115.575
 20
59.6864
 30
2.57841e-14
  70
    32
  0
VERTEX
  8
0
  5
3812
 10
115.587
 20
59.6817
 30
2.57868e-14
  70
    32
  0
VERTEX
  8
0
  5
3813
 10
115.599
 20
59.6769
 30
2.57894e-14
  70
    32
  0
VERTEX
  8
0
  5
3814
 10
115.611
 20
59.6721
 30
2.57920e-14
  70
    32
  0
VERTEX
  8
0
  5
3815
 10
115.623
 20
59.6672
 30
2.57947e-14
  70
    32
  0
VERTEX
  8
0
  5
3816
 10
115.635
 20
59.6623
 30
2.57973e-14
  70
    32
  0
VERTEX
  8
0
  5
3817
 10
115.647
 20
59.6574
 30
2.57999e-14
  70
    32
  0
VERTEX
  8
0
  5
3818
 10
115.659
 20
59.6525
 30
2.58025e-14
  70
    32
  0
VERTEX
  8
0
  5
3819
 10
115.671
 20
59.6475
 30
2.58052e-14
  70
    32
  0
VERTEX
  8
0
  5
381A
 10
115.683
 20
59.6425
 30
2.58078e-14
  70
    32
  0
VERTEX
  8
0
  5
381B
 10
115.695
 20
59.6375
 30
2.58104e-14
  70
    32
  0
VERTEX
  8
0
  5
381C
 10
115.707
 20
59.6324
 30
2.58130e-14
  70
    32
  0
VERTEX
  8
0
  5
381D
 10
115.718
 20
59.6273
 30
2.58156e-14
  70
    32
  0
VERTEX
  8
0
  5
381E
 10
115.730
 20
59.6222
 30
2.58182e-14
  70
    32
  0
VERTEX
  8
0
  5
381F
 10
115.742
 20
59.6170
 30
2.58208e-14
  70
    32
  0
VERTEX
  8
0
  5
3820
 10
115.754
 20
59.6118
 30
2.58234e-14
  70
    32
  0
VERTEX
  8
0
  5
3821
 10
115.766
 20
59.6066
 30
2.58259e-14
  70
    32
  0
VERTEX
  8
0
  5
3822
 10
115.778
 20
59.6013
 30
2.58285e-14
  70
    32
  0
VERTEX
  8
0
  5
3823
 10
115.790
 20
59.5960
 30
2.58311e-14
  70
    32
  0
VERTEX
  8
0
  5
3824
 10
115.802
 20
59.5907
 30
2.58337e-14
  70
    32
  0
VERTEX
  8
0
  5
3825
 10
115.814
 20
59.5853
 30
2.58362e-14
  70
    32
  0
VERTEX
  8
0
  5
3826
 10
115.826
 20
59.5800
 30
2.58388e-14
  70
    32
  0
VERTEX
  8
0
  5
3827
 10
115.839
 20
59.5745
 30
2.58413e-14
  70
    32
  0
VERTEX
  8
0
  5
3828
 10
115.851
 20
59.5691
 30
2.58439e-14
  70
    32
  0
VERTEX
  8
0
  5
3829
 10
115.863
 20
59.5636
 30
2.58464e-14
  70
    32
  0
VERTEX
  8
0
  5
382A
 10
115.875
 20
59.5581
 30
2.58490e-14
  70
    32
  0
VERTEX
  8
0
  5
382B
 10
115.887
 20
59.5525
 30
2.58515e-14
  70
    32
  0
VERTEX
  8
0
  5
382C
 10
115.899
 20
59.5469
 30
2.58540e-14
  70
    32
  0
VERTEX
  8
0
  5
382D
 10
115.911
 20
59.5413
 30
2.58565e-14
  70
    32
  0
VERTEX
  8
0
  5
382E
 10
115.923
 20
59.5357
 30
2.58591e-14
  70
    32
  0
VERTEX
  8
0
  5
382F
 10
115.935
 20
59.5300
 30
2.58616e-14
  70
    32
  0
VERTEX
  8
0
  5
3830
 10
115.947
 20
59.5243
 30
2.58641e-14
  70
    32
  0
VERTEX
  8
0
  5
3831
 10
115.959
 20
59.5185
 30
2.58666e-14
  70
    32
  0
VERTEX
  8
0
  5
3832
 10
115.971
 20
59.5127
 30
2.58691e-14
  70
    32
  0
VERTEX
  8
0
  5
3833
 10
115.983
 20
59.5069
 30
2.58717e-14
  70
    32
  0
VERTEX
  8
0
  5
3834
 10
115.995
 20
59.5011
 30
2.58742e-14
  70
    32
  0
VERTEX
  8
0
  5
3835
 10
116.007
 20
59.4952
 30
2.58768e-14
  70
    32
  0
VERTEX
  8
0
  5
3836
 10
116.019
 20
59.4893
 30
2.58793e-14
  70
    32
  0
VERTEX
  8
0
  5
3837
 10
116.031
 20
59.4834
 30
2.58819e-14
  70
    32
  0
VERTEX
  8
0
  5
3838
 10
116.043
 20
59.4774
 30
2.58845e-14
  70
    32
  0
VERTEX
  8
0
  5
3839
 10
116.055
 20
59.4714
 30
2.58872e-14
  70
    32
  0
VERTEX
  8
0
  5
383A
 10
116.067
 20
59.4653
 30
2.58898e-14
  70
    32
  0
VERTEX
  8
0
  5
383B
 10
116.079
 20
59.4592
 30
2.58924e-14
  70
    32
  0
VERTEX
  8
0
  5
383C
 10
116.091
 20
59.4531
 30
2.58951e-14
  70
    32
  0
VERTEX
  8
0
  5
383D
 10
116.103
 20
59.4470
 30
2.58978e-14
  70
    32
  0
VERTEX
  8
0
  5
383E
 10
116.115
 20
59.4408
 30
2.59004e-14
  70
    32
  0
VERTEX
  8
0
  5
383F
 10
116.127
 20
59.4346
 30
2.59031e-14
  70
    32
  0
VERTEX
  8
0
  5
3840
 10
116.139
 20
59.4283
 30
2.59058e-14
  70
    32
  0
VERTEX
  8
0
  5
3841
 10
116.152
 20
59.4221
 30
2.59086e-14
  70
    32
  0
VERTEX
  8
0
  5
3842
 10
116.164
 20
59.4158
 30
2.59113e-14
  70
    32
  0
VERTEX
  8
0
  5
3843
 10
116.176
 20
59.4094
 30
2.59140e-14
  70
    32
  0
VERTEX
  8
0
  5
3844
 10
116.188
 20
59.4030
 30
2.59168e-14
  70
    32
  0
VERTEX
  8
0
  5
3845
 10
116.200
 20
59.3966
 30
2.59195e-14
  70
    32
  0
VERTEX
  8
0
  5
3846
 10
116.212
 20
59.3902
 30
2.59223e-14
  70
    32
  0
VERTEX
  8
0
  5
3847
 10
116.224
 20
59.3837
 30
2.59251e-14
  70
    32
  0
VERTEX
  8
0
  5
3848
 10
116.236
 20
59.3772
 30
2.59279e-14
  70
    32
  0
VERTEX
  8
0
  5
3849
 10
116.248
 20
59.3706
 30
2.59307e-14
  70
    32
  0
VERTEX
  8
0
  5
384A
 10
116.260
 20
59.3640
 30
2.59335e-14
  70
    32
  0
VERTEX
  8
0
  5
384B
 10
116.272
 20
59.3574
 30
2.59363e-14
  70
    32
  0
VERTEX
  8
0
  5
384C
 10
116.284
 20
59.3507
 30
2.59391e-14
  70
    32
  0
VERTEX
  8
0
  5
384D
 10
116.296
 20
59.3440
 30
2.59419e-14
  70
    32
  0
VERTEX
  8
0
  5
384E
 10
116.308
 20
59.3373
 30
2.59448e-14
  70
    32
  0
VERTEX
  8
0
  5
384F
 10
116.320
 20
59.3305
 30
2.59476e-14
  70
    32
  0
VERTEX
  8
0
  5
3850
 10
116.332
 20
59.3237
 30
2.59505e-14
  70
    32
  0
VERTEX
  8
0
  5
3851
 10
116.344
 20
59.3169
 30
2.59534e-14
  70
    32
  0
VERTEX
  8
0
  5
3852
 10
116.356
 20
59.3100
 30
2.59562e-14
  70
    32
  0
VERTEX
  8
0
  5
3853
 10
116.368
 20
59.3031
 30
2.59591e-14
  70
    32
  0
VERTEX
  8
0
  5
3854
 10
116.380
 20
59.2962
 30
2.59620e-14
  70
    32
  0
VERTEX
  8
0
  5
3855
 10
116.392
 20
59.2892
 30
2.59649e-14
  70
    32
  0
VERTEX
  8
0
  5
3856
 10
116.404
 20
59.2822
 30
2.59678e-14
  70
    32
  0
VERTEX
  8
0
  5
3857
 10
116.416
 20
59.2751
 30
2.59707e-14
  70
    32
  0
VERTEX
  8
0
  5
3858
 10
116.428
 20
59.2681
 30
2.59736e-14
  70
    32
  0
VERTEX
  8
0
  5
3859
 10
116.440
 20
59.2609
 30
2.59766e-14
  70
    32
  0
VERTEX
  8
0
  5
385A
 10
116.452
 20
59.2538
 30
2.59795e-14
  70
    32
  0
VERTEX
  8
0
  5
385B
 10
116.464
 20
59.2466
 30
2.59824e-14
  70
    32
  0
VERTEX
  8
0
  5
385C
 10
116.476
 20
59.2394
 30
2.59854e-14
  70
    32
  0
VERTEX
  8
0
  5
385D
 10
116.488
 20
59.2321
 30
2.59883e-14
  70
    32
  0
VERTEX
  8
0
  5
385E
 10
116.500
 20
59.2248
 30
2.59913e-14
  70
    32
  0
VERTEX
  8
0
  5
385F
 10
116.512
 20
59.2174
 30
2.59942e-14
  70
    32
  0
VERTEX
  8
0
  5
3860
 10
116.524
 20
59.2101
 30
2.59972e-14
  70
    32
  0
VERTEX
  8
0
  5
3861
 10
116.536
 20
59.2027
 30
2.60001e-14
  70
    32
  0
VERTEX
  8
0
  5
3862
 10
116.548
 20
59.1952
 30
2.60031e-14
  70
    32
  0
VERTEX
  8
0
  5
3863
 10
116.560
 20
59.1877
 30
2.60061e-14
  70
    32
  0
VERTEX
  8
0
  5
3864
 10
116.572
 20
59.1802
 30
2.60091e-14
  70
    32
  0
VERTEX
  8
0
  5
3865
 10
116.584
 20
59.1726
 30
2.60120e-14
  70
    32
  0
VERTEX
  8
0
  5
3866
 10
116.596
 20
59.1650
 30
2.60150e-14
  70
    32
  0
VERTEX
  8
0
  5
3867
 10
116.608
 20
59.1574
 30
2.60180e-14
  70
    32
  0
VERTEX
  8
0
  5
3868
 10
116.620
 20
59.1497
 30
2.60210e-14
  70
    32
  0
VERTEX
  8
0
  5
3869
 10
116.632
 20
59.1420
 30
2.60240e-14
  70
    32
  0
VERTEX
  8
0
  5
386A
 10
116.644
 20
59.1343
 30
2.60270e-14
  70
    32
  0
VERTEX
  8
0
  5
386B
 10
116.656
 20
59.1265
 30
2.60300e-14
  70
    32
  0
VERTEX
  8
0
  5
386C
 10
116.668
 20
59.1187
 30
2.60330e-14
  70
    32
  0
VERTEX
  8
0
  5
386D
 10
116.680
 20
59.1108
 30
2.60360e-14
  70
    32
  0
VERTEX
  8
0
  5
386E
 10
116.692
 20
59.1029
 30
2.60390e-14
  70
    32
  0
VERTEX
  8
0
  5
386F
 10
116.704
 20
59.0950
 30
2.60420e-14
  70
    32
  0
VERTEX
  8
0
  5
3870
 10
116.715
 20
59.0870
 30
2.60450e-14
  70
    32
  0
VERTEX
  8
0
  5
3871
 10
116.727
 20
59.0790
 30
2.60480e-14
  70
    32
  0
VERTEX
  8
0
  5
3872
 10
116.739
 20
59.0709
 30
2.60510e-14
  70
    32
  0
VERTEX
  8
0
  5
3873
 10
116.751
 20
59.0629
 30
2.60540e-14
  70
    32
  0
VERTEX
  8
0
  5
3874
 10
116.763
 20
59.0547
 30
2.60570e-14
  70
    32
  0
VERTEX
  8
0
  5
3875
 10
116.775
 20
59.0466
 30
2.60600e-14
  70
    32
  0
VERTEX
  8
0
  5
3876
 10
116.787
 20
59.0384
 30
2.60630e-14
  70
    32
  0
VERTEX
  8
0
  5
3877
 10
116.799
 20
59.0301
 30
2.60661e-14
  70
    32
  0
VERTEX
  8
0
  5
3878
 10
116.811
 20
59.0218
 30
2.60691e-14
  70
    32
  0
VERTEX
  8
0
  5
3879
 10
116.822
 20
59.0135
 30
2.60721e-14
  70
    32
  0
VERTEX
  8
0
  5
387A
 10
116.834
 20
59.0052
 30
2.60751e-14
  70
    32
  0
VERTEX
  8
0
  5
387B
 10
116.846
 20
58.9968
 30
2.60781e-14
  70
    32
  0
VERTEX
  8
0
  5
387C
 10
116.858
 20
58.9883
 30
2.60811e-14
  70
    32
  0
VERTEX
  8
0
  5
387D
 10
116.870
 20
58.9798
 30
2.60841e-14
  70
    32
  0
VERTEX
  8
0
  5
387E
 10
116.882
 20
58.9713
 30
2.60871e-14
  70
    32
  0
VERTEX
  8
0
  5
387F
 10
116.893
 20
58.9628
 30
2.60901e-14
  70
    32
  0
VERTEX
  8
0
  5
3880
 10
116.905
 20
58.9542
 30
2.60931e-14
  70
    32
  0
VERTEX
  8
0
  5
3881
 10
116.917
 20
58.9455
 30
2.60961e-14
  70
    32
  0
VERTEX
  8
0
  5
3882
 10
116.929
 20
58.9369
 30
2.60991e-14
  70
    32
  0
VERTEX
  8
0
  5
3883
 10
116.941
 20
58.9282
 30
2.61021e-14
  70
    32
  0
VERTEX
  8
0
  5
3884
 10
116.952
 20
58.9194
 30
2.61050e-14
  70
    32
  0
VERTEX
  8
0
  5
3885
 10
116.964
 20
58.9106
 30
2.61080e-14
  70
    32
  0
VERTEX
  8
0
  5
3886
 10
116.976
 20
58.9018
 30
2.61110e-14
  70
    32
  0
VERTEX
  8
0
  5
3887
 10
116.988
 20
58.8929
 30
2.61140e-14
  70
    32
  0
VERTEX
  8
0
  5
3888
 10
117.000
 20
58.8840
 30
2.61170e-14
  70
    32
  0
VERTEX
  8
0
  5
3889
 10
117.011
 20
58.8750
 30
2.61199e-14
  70
    32
  0
VERTEX
  8
0
  5
388A
 10
117.023
 20
58.8660
 30
2.61229e-14
  70
    32
  0
VERTEX
  8
0
  5
388B
 10
117.035
 20
58.8570
 30
2.61258e-14
  70
    32
  0
VERTEX
  8
0
  5
388C
 10
117.046
 20
58.8479
 30
2.61288e-14
  70
    32
  0
VERTEX
  8
0
  5
388D
 10
117.058
 20
58.8388
 30
2.61317e-14
  70
    32
  0
VERTEX
  8
0
  5
388E
 10
117.070
 20
58.8297
 30
2.61347e-14
  70
    32
  0
VERTEX
  8
0
  5
388F
 10
117.082
 20
58.8205
 30
2.61376e-14
  70
    32
  0
VERTEX
  8
0
  5
3890
 10
117.093
 20
58.8112
 30
2.61406e-14
  70
    32
  0
VERTEX
  8
0
  5
3891
 10
117.105
 20
58.8019
 30
2.61435e-14
  70
    32
  0
VERTEX
  8
0
  5
3892
 10
117.117
 20
58.7926
 30
2.61464e-14
  70
    32
  0
VERTEX
  8
0
  5
3893
 10
117.128
 20
58.7833
 30
2.61493e-14
  70
    32
  0
VERTEX
  8
0
  5
3894
 10
117.140
 20
58.7739
 30
2.61522e-14
  70
    32
  0
VERTEX
  8
0
  5
3895
 10
117.152
 20
58.7644
 30
2.61551e-14
  70
    32
  0
VERTEX
  8
0
  5
3896
 10
117.163
 20
58.7549
 30
2.61580e-14
  70
    32
  0
VERTEX
  8
0
  5
3897
 10
117.175
 20
58.7454
 30
2.61609e-14
  70
    32
  0
VERTEX
  8
0
  5
3898
 10
117.186
 20
58.7358
 30
2.61638e-14
  70
    32
  0
VERTEX
  8
0
  5
3899
 10
117.198
 20
58.7262
 30
2.61667e-14
  70
    32
  0
VERTEX
  8
0
  5
389A
 10
117.210
 20
58.7166
 30
2.61695e-14
  70
    32
  0
VERTEX
  8
0
  5
389B
 10
117.221
 20
58.7069
 30
2.61724e-14
  70
    32
  0
VERTEX
  8
0
  5
389C
 10
117.233
 20
58.6972
 30
2.61752e-14
  70
    32
  0
VERTEX
  8
0
  5
389D
 10
117.244
 20
58.6874
 30
2.61781e-14
  70
    32
  0
VERTEX
  8
0
  5
389E
 10
117.256
 20
58.6776
 30
2.61809e-14
  70
    32
  0
VERTEX
  8
0
  5
389F
 10
117.267
 20
58.6677
 30
2.61837e-14
  70
    32
  0
VERTEX
  8
0
  5
38A0
 10
117.279
 20
58.6578
 30
2.61865e-14
  70
    32
  0
VERTEX
  8
0
  5
38A1
 10
117.290
 20
58.6478
 30
2.61893e-14
  70
    32
  0
VERTEX
  8
0
  5
38A2
 10
117.302
 20
58.6379
 30
2.61921e-14
  70
    32
  0
VERTEX
  8
0
  5
38A3
 10
117.313
 20
58.6278
 30
2.61949e-14
  70
    32
  0
VERTEX
  8
0
  5
38A4
 10
117.325
 20
58.6178
 30
2.61977e-14
  70
    32
  0
VERTEX
  8
0
  5
38A5
 10
117.336
 20
58.6076
 30
2.62005e-14
  70
    32
  0
VERTEX
  8
0
  5
38A6
 10
117.348
 20
58.5975
 30
2.62032e-14
  70
    32
  0
VERTEX
  8
0
  5
38A7
 10
117.359
 20
58.5873
 30
2.62060e-14
  70
    32
  0
VERTEX
  8
0
  5
38A8
 10
117.371
 20
58.5770
 30
2.62087e-14
  70
    32
  0
VERTEX
  8
0
  5
38A9
 10
117.382
 20
58.5667
 30
2.62114e-14
  70
    32
  0
VERTEX
  8
0
  5
38AA
 10
117.394
 20
58.5564
 30
2.62141e-14
  70
    32
  0
VERTEX
  8
0
  5
38AB
 10
117.405
 20
58.5460
 30
2.62168e-14
  70
    32
  0
VERTEX
  8
0
  5
38AC
 10
117.416
 20
58.5356
 30
2.62195e-14
  70
    32
  0
VERTEX
  8
0
  5
38AD
 10
117.428
 20
58.5252
 30
2.62222e-14
  70
    32
  0
VERTEX
  8
0
  5
38AE
 10
117.439
 20
58.5147
 30
2.62249e-14
  70
    32
  0
VERTEX
  8
0
  5
38AF
 10
117.451
 20
58.5041
 30
2.62275e-14
  70
    32
  0
VERTEX
  8
0
  5
38B0
 10
117.462
 20
58.4935
 30
2.62302e-14
  70
    32
  0
VERTEX
  8
0
  5
38B1
 10
117.473
 20
58.4829
 30
2.62328e-14
  70
    32
  0
VERTEX
  8
0
  5
38B2
 10
117.485
 20
58.4722
 30
2.62354e-14
  70
    32
  0
VERTEX
  8
0
  5
38B3
 10
117.496
 20
58.4615
 30
2.62380e-14
  70
    32
  0
VERTEX
  8
0
  5
38B4
 10
117.507
 20
58.4507
 30
2.62406e-14
  70
    32
  0
VERTEX
  8
0
  5
38B5
 10
117.519
 20
58.4399
 30
2.62432e-14
  70
    32
  0
VERTEX
  8
0
  5
38B6
 10
117.530
 20
58.4291
 30
2.62457e-14
  70
    32
  0
VERTEX
  8
0
  5
38B7
 10
117.541
 20
58.4182
 30
2.62483e-14
  70
    32
  0
VERTEX
  8
0
  5
38B8
 10
117.552
 20
58.4072
 30
2.62508e-14
  70
    32
  0
VERTEX
  8
0
  5
38B9
 10
117.564
 20
58.3962
 30
2.62533e-14
  70
    32
  0
VERTEX
  8
0
  5
38BA
 10
117.575
 20
58.3852
 30
2.62558e-14
  70
    32
  0
VERTEX
  8
0
  5
38BB
 10
117.586
 20
58.3741
 30
2.62583e-14
  70
    32
  0
VERTEX
  8
0
  5
38BC
 10
117.597
 20
58.3630
 30
2.62608e-14
  70
    32
  0
VERTEX
  8
0
  5
38BD
 10
117.608
 20
58.3518
 30
2.62633e-14
  70
    32
  0
VERTEX
  8
0
  5
38BE
 10
117.620
 20
58.3406
 30
2.62657e-14
  70
    32
  0
VERTEX
  8
0
  5
38BF
 10
117.631
 20
58.3294
 30
2.62681e-14
  70
    32
  0
VERTEX
  8
0
  5
38C0
 10
117.642
 20
58.3181
 30
2.62705e-14
  70
    32
  0
VERTEX
  8
0
  5
38C1
 10
117.653
 20
58.3067
 30
2.62729e-14
  70
    32
  0
VERTEX
  8
0
  5
38C2
 10
117.664
 20
58.2953
 30
2.62753e-14
  70
    32
  0
VERTEX
  8
0
  5
38C3
 10
117.675
 20
58.2839
 30
2.62777e-14
  70
    32
  0
VERTEX
  8
0
  5
38C4
 10
117.686
 20
58.2724
 30
2.62800e-14
  70
    32
  0
VERTEX
  8
0
  5
38C5
 10
117.697
 20
58.2609
 30
2.62824e-14
  70
    32
  0
VERTEX
  8
0
  5
38C6
 10
117.708
 20
58.2493
 30
2.62847e-14
  70
    32
  0
VERTEX
  8
0
  5
38C7
 10
117.719
 20
58.2377
 30
2.62870e-14
  70
    32
  0
VERTEX
  8
0
  5
38C8
 10
117.730
 20
58.2260
 30
2.62892e-14
  70
    32
  0
VERTEX
  8
0
  5
38C9
 10
117.741
 20
58.2143
 30
2.62915e-14
  70
    32
  0
VERTEX
  8
0
  5
38CA
 10
117.752
 20
58.2026
 30
2.62937e-14
  70
    32
  0
VERTEX
  8
0
  5
38CB
 10
117.763
 20
58.1908
 30
2.62960e-14
  70
    32
  0
VERTEX
  8
0
  5
38CC
 10
117.774
 20
58.1789
 30
2.62982e-14
  70
    32
  0
VERTEX
  8
0
  5
38CD
 10
117.785
 20
58.1670
 30
2.63003e-14
  70
    32
  0
VERTEX
  8
0
  5
38CE
 10
117.796
 20
58.1551
 30
2.63025e-14
  70
    32
  0
VERTEX
  8
0
  5
38CF
 10
117.807
 20
58.1431
 30
2.63047e-14
  70
    32
  0
VERTEX
  8
0
  5
38D0
 10
117.818
 20
58.1311
 30
2.63068e-14
  70
    32
  0
VERTEX
  8
0
  5
38D1
 10
117.829
 20
58.1190
 30
2.63089e-14
  70
    32
  0
VERTEX
  8
0
  5
38D2
 10
117.840
 20
58.1068
 30
2.63110e-14
  70
    32
  0
VERTEX
  8
0
  5
38D3
 10
117.851
 20
58.0947
 30
2.63131e-14
  70
    32
  0
VERTEX
  8
0
  5
38D4
 10
117.862
 20
58.0825
 30
2.63151e-14
  70
    32
  0
VERTEX
  8
0
  5
38D5
 10
117.872
 20
58.0702
 30
2.63172e-14
  70
    32
  0
VERTEX
  8
0
  5
38D6
 10
117.883
 20
58.0579
 30
2.63193e-14
  70
    32
  0
VERTEX
  8
0
  5
38D7
 10
117.894
 20
58.0455
 30
2.63214e-14
  70
    32
  0
VERTEX
  8
0
  5
38D8
 10
117.905
 20
58.0331
 30
2.63235e-14
  70
    32
  0
VERTEX
  8
0
  5
38D9
 10
117.916
 20
58.0207
 30
2.63256e-14
  70
    32
  0
VERTEX
  8
0
  5
38DA
 10
117.926
 20
58.0082
 30
2.63277e-14
  70
    32
  0
VERTEX
  8
0
  5
38DB
 10
117.937
 20
57.9956
 30
2.63298e-14
  70
    32
  0
VERTEX
  8
0
  5
38DC
 10
117.948
 20
57.9830
 30
2.63319e-14
  70
    32
  0
VERTEX
  8
0
  5
38DD
 10
117.958
 20
57.9704
 30
2.63340e-14
  70
    32
  0
VERTEX
  8
0
  5
38DE
 10
117.969
 20
57.9577
 30
2.63361e-14
  70
    32
  0
VERTEX
  8
0
  5
38DF
 10
117.980
 20
57.9449
 30
2.63382e-14
  70
    32
  0
VERTEX
  8
0
  5
38E0
 10
117.990
 20
57.9322
 30
2.63403e-14
  70
    32
  0
VERTEX
  8
0
  5
38E1
 10
118.001
 20
57.9193
 30
2.63424e-14
  70
    32
  0
VERTEX
  8
0
  5
38E2
 10
118.012
 20
57.9065
 30
2.63445e-14
  70
    32
  0
VERTEX
  8
0
  5
38E3
 10
118.022
 20
57.8935
 30
2.63467e-14
  70
    32
  0
VERTEX
  8
0
  5
38E4
 10
118.033
 20
57.8806
 30
2.63488e-14
  70
    32
  0
VERTEX
  8
0
  5
38E5
 10
118.043
 20
57.8675
 30
2.63509e-14
  70
    32
  0
VERTEX
  8
0
  5
38E6
 10
118.054
 20
57.8545
 30
2.63530e-14
  70
    32
  0
VERTEX
  8
0
  5
38E7
 10
118.064
 20
57.8413
 30
2.63551e-14
  70
    32
  0
VERTEX
  8
0
  5
38E8
 10
118.075
 20
57.8282
 30
2.63573e-14
  70
    32
  0
VERTEX
  8
0
  5
38E9
 10
118.085
 20
57.8150
 30
2.63594e-14
  70
    32
  0
VERTEX
  8
0
  5
38EA
 10
118.095
 20
57.8017
 30
2.63615e-14
  70
    32
  0
VERTEX
  8
0
  5
38EB
 10
118.106
 20
57.7884
 30
2.63637e-14
  70
    32
  0
VERTEX
  8
0
  5
38EC
 10
118.116
 20
57.7750
 30
2.63658e-14
  70
    32
  0
VERTEX
  8
0
  5
38ED
 10
118.127
 20
57.7616
 30
2.63679e-14
  70
    32
  0
VERTEX
  8
0
  5
38EE
 10
118.137
 20
57.7482
 30
2.63700e-14
  70
    32
  0
VERTEX
  8
0
  5
38EF
 10
118.147
 20
57.7347
 30
2.63722e-14
  70
    32
  0
VERTEX
  8
0
  5
38F0
 10
118.158
 20
57.7211
 30
2.63743e-14
  70
    32
  0
VERTEX
  8
0
  5
38F1
 10
118.168
 20
57.7075
 30
2.63764e-14
  70
    32
  0
VERTEX
  8
0
  5
38F2
 10
118.178
 20
57.6938
 30
2.63786e-14
  70
    32
  0
VERTEX
  8
0
  5
38F3
 10
118.188
 20
57.6801
 30
2.63807e-14
  70
    32
  0
VERTEX
  8
0
  5
38F4
 10
118.198
 20
57.6664
 30
2.63828e-14
  70
    32
  0
VERTEX
  8
0
  5
38F5
 10
118.209
 20
57.6526
 30
2.63849e-14
  70
    32
  0
VERTEX
  8
0
  5
38F6
 10
118.219
 20
57.6388
 30
2.63871e-14
  70
    32
  0
VERTEX
  8
0
  5
38F7
 10
118.229
 20
57.6249
 30
2.63892e-14
  70
    32
  0
VERTEX
  8
0
  5
38F8
 10
118.239
 20
57.6109
 30
2.63913e-14
  70
    32
  0
VERTEX
  8
0
  5
38F9
 10
118.249
 20
57.5969
 30
2.63934e-14
  70
    32
  0
VERTEX
  8
0
  5
38FA
 10
118.259
 20
57.5829
 30
2.63956e-14
  70
    32
  0
VERTEX
  8
0
  5
38FB
 10
118.269
 20
57.5688
 30
2.63977e-14
  70
    32
  0
VERTEX
  8
0
  5
38FC
 10
118.279
 20
57.5546
 30
2.63998e-14
  70
    32
  0
VERTEX
  8
0
  5
38FD
 10
118.289
 20
57.5404
 30
2.64019e-14
  70
    32
  0
VERTEX
  8
0
  5
38FE
 10
118.299
 20
57.5262
 30
2.64040e-14
  70
    32
  0
VERTEX
  8
0
  5
38FF
 10
118.309
 20
57.5119
 30
2.64061e-14
  70
    32
  0
VERTEX
  8
0
  5
3900
 10
118.319
 20
57.4975
 30
2.64082e-14
  70
    32
  0
VERTEX
  8
0
  5
3901
 10
118.328
 20
57.4831
 30
2.64103e-14
  70
    32
  0
VERTEX
  8
0
  5
3902
 10
118.338
 20
57.4687
 30
2.64124e-14
  70
    32
  0
VERTEX
  8
0
  5
3903
 10
118.348
 20
57.4542
 30
2.64145e-14
  70
    32
  0
VERTEX
  8
0
  5
3904
 10
118.358
 20
57.4397
 30
2.64166e-14
  70
    32
  0
VERTEX
  8
0
  5
3905
 10
118.368
 20
57.4251
 30
2.64187e-14
  70
    32
  0
VERTEX
  8
0
  5
3906
 10
118.377
 20
57.4104
 30
2.64208e-14
  70
    32
  0
VERTEX
  8
0
  5
3907
 10
118.387
 20
57.3957
 30
2.64229e-14
  70
    32
  0
VERTEX
  8
0
  5
3908
 10
118.397
 20
57.3810
 30
2.64249e-14
  70
    32
  0
VERTEX
  8
0
  5
3909
 10
118.406
 20
57.3662
 30
2.64270e-14
  70
    32
  0
VERTEX
  8
0
  5
390A
 10
118.416
 20
57.3513
 30
2.64291e-14
  70
    32
  0
VERTEX
  8
0
  5
390B
 10
118.425
 20
57.3364
 30
2.64311e-14
  70
    32
  0
VERTEX
  8
0
  5
390C
 10
118.435
 20
57.3215
 30
2.64332e-14
  70
    32
  0
VERTEX
  8
0
  5
390D
 10
118.444
 20
57.3065
 30
2.64352e-14
  70
    32
  0
VERTEX
  8
0
  5
390E
 10
118.454
 20
57.2914
 30
2.64373e-14
  70
    32
  0
VERTEX
  8
0
  5
390F
 10
118.463
 20
57.2763
 30
2.64393e-14
  70
    32
  0
VERTEX
  8
0
  5
3910
 10
118.473
 20
57.2611
 30
2.64414e-14
  70
    32
  0
VERTEX
  8
0
  5
3911
 10
118.482
 20
57.2459
 30
2.64434e-14
  70
    32
  0
VERTEX
  8
0
  5
3912
 10
118.491
 20
57.2307
 30
2.64454e-14
  70
    32
  0
VERTEX
  8
0
  5
3913
 10
118.501
 20
57.2153
 30
2.64474e-14
  70
    32
  0
VERTEX
  8
0
  5
3914
 10
118.510
 20
57.2000
 30
2.64495e-14
  70
    32
  0
VERTEX
  8
0
  5
3915
 10
118.519
 20
57.1846
 30
2.64515e-14
  70
    32
  0
VERTEX
  8
0
  5
3916
 10
118.528
 20
57.1691
 30
2.64535e-14
  70
    32
  0
VERTEX
  8
0
  5
3917
 10
118.538
 20
57.1536
 30
2.64555e-14
  70
    32
  0
VERTEX
  8
0
  5
3918
 10
118.547
 20
57.1380
 30
2.64575e-14
  70
    32
  0
VERTEX
  8
0
  5
3919
 10
118.556
 20
57.1224
 30
2.64594e-14
  70
    32
  0
VERTEX
  8
0
  5
391A
 10
118.565
 20
57.1067
 30
2.64614e-14
  70
    32
  0
VERTEX
  8
0
  5
391B
 10
118.574
 20
57.0910
 30
2.64634e-14
  70
    32
  0
VERTEX
  8
0
  5
391C
 10
118.583
 20
57.0752
 30
2.64653e-14
  70
    32
  0
VERTEX
  8
0
  5
391D
 10
118.592
 20
57.0594
 30
2.64673e-14
  70
    32
  0
VERTEX
  8
0
  5
391E
 10
118.601
 20
57.0435
 30
2.64692e-14
  70
    32
  0
VERTEX
  8
0
  5
391F
 10
118.610
 20
57.0275
 30
2.64712e-14
  70
    32
  0
VERTEX
  8
0
  5
3920
 10
118.619
 20
57.0115
 30
2.64731e-14
  70
    32
  0
VERTEX
  8
0
  5
3921
 10
118.628
 20
56.9955
 30
2.64750e-14
  70
    32
  0
VERTEX
  8
0
  5
3922
 10
118.636
 20
56.9794
 30
2.64769e-14
  70
    32
  0
VERTEX
  8
0
  5
3923
 10
118.645
 20
56.9632
 30
2.64788e-14
  70
    32
  0
VERTEX
  8
0
  5
3924
 10
118.654
 20
56.9470
 30
2.64807e-14
  70
    32
  0
VERTEX
  8
0
  5
3925
 10
118.663
 20
56.9308
 30
2.64826e-14
  70
    32
  0
VERTEX
  8
0
  5
3926
 10
118.671
 20
56.9145
 30
2.64845e-14
  70
    32
  0
VERTEX
  8
0
  5
3927
 10
118.680
 20
56.8981
 30
2.64864e-14
  70
    32
  0
VERTEX
  8
0
  5
3928
 10
118.688
 20
56.8817
 30
2.64882e-14
  70
    32
  0
VERTEX
  8
0
  5
3929
 10
118.697
 20
56.8652
 30
2.64901e-14
  70
    32
  0
VERTEX
  8
0
  5
392A
 10
118.705
 20
56.8487
 30
2.64919e-14
  70
    32
  0
VERTEX
  8
0
  5
392B
 10
118.714
 20
56.8321
 30
2.64937e-14
  70
    32
  0
VERTEX
  8
0
  5
392C
 10
118.722
 20
56.8155
 30
2.64956e-14
  70
    32
  0
VERTEX
  8
0
  5
392D
 10
118.731
 20
56.7988
 30
2.64974e-14
  70
    32
  0
VERTEX
  8
0
  5
392E
 10
118.739
 20
56.7821
 30
2.64992e-14
  70
    32
  0
VERTEX
  8
0
  5
392F
 10
118.747
 20
56.7653
 30
2.65010e-14
  70
    32
  0
VERTEX
  8
0
  5
3930
 10
118.756
 20
56.7484
 30
2.65027e-14
  70
    32
  0
VERTEX
  8
0
  5
3931
 10
118.764
 20
56.7315
 30
2.65045e-14
  70
    32
  0
VERTEX
  8
0
  5
3932
 10
118.772
 20
56.7146
 30
2.65063e-14
  70
    32
  0
VERTEX
  8
0
  5
3933
 10
118.780
 20
56.6976
 30
2.65080e-14
  70
    32
  0
VERTEX
  8
0
  5
3934
 10
118.788
 20
56.6805
 30
2.65097e-14
  70
    32
  0
VERTEX
  8
0
  5
3935
 10
118.796
 20
56.6634
 30
2.65115e-14
  70
    32
  0
VERTEX
  8
0
  5
3936
 10
118.804
 20
56.6462
 30
2.65132e-14
  70
    32
  0
VERTEX
  8
0
  5
3937
 10
118.812
 20
56.6290
 30
2.65149e-14
  70
    32
  0
VERTEX
  8
0
  5
3938
 10
118.820
 20
56.6117
 30
2.65166e-14
  70
    32
  0
VERTEX
  8
0
  5
3939
 10
118.828
 20
56.5943
 30
2.65183e-14
  70
    32
  0
VERTEX
  8
0
  5
393A
 10
118.836
 20
56.5770
 30
2.65199e-14
  70
    32
  0
VERTEX
  8
0
  5
393B
 10
118.844
 20
56.5595
 30
2.65216e-14
  70
    32
  0
VERTEX
  8
0
  5
393C
 10
118.852
 20
56.5420
 30
2.65232e-14
  70
    32
  0
VERTEX
  8
0
  5
393D
 10
118.859
 20
56.5244
 30
2.65248e-14
  70
    32
  0
VERTEX
  8
0
  5
393E
 10
118.867
 20
56.5068
 30
2.65265e-14
  70
    32
  0
VERTEX
  8
0
  5
393F
 10
118.875
 20
56.4892
 30
2.65281e-14
  70
    32
  0
VERTEX
  8
0
  5
3940
 10
118.882
 20
56.4714
 30
2.65296e-14
  70
    32
  0
VERTEX
  8
0
  5
3941
 10
118.890
 20
56.4537
 30
2.65312e-14
  70
    32
  0
VERTEX
  8
0
  5
3942
 10
118.898
 20
56.4358
 30
2.65328e-14
  70
    32
  0
VERTEX
  8
0
  5
3943
 10
118.905
 20
56.4179
 30
2.65343e-14
  70
    32
  0
VERTEX
  8
0
  5
3944
 10
118.912
 20
56.4000
 30
2.65359e-14
  70
    32
  0
VERTEX
  8
0
  5
3945
 10
118.920
 20
56.3820
 30
2.65374e-14
  70
    32
  0
VERTEX
  8
0
  5
3946
 10
118.927
 20
56.3639
 30
2.65389e-14
  70
    32
  0
VERTEX
  8
0
  5
3947
 10
118.935
 20
56.3458
 30
2.65404e-14
  70
    32
  0
VERTEX
  8
0
  5
3948
 10
118.942
 20
56.3276
 30
2.65419e-14
  70
    32
  0
VERTEX
  8
0
  5
3949
 10
118.949
 20
56.3094
 30
2.65433e-14
  70
    32
  0
VERTEX
  8
0
  5
394A
 10
118.956
 20
56.2911
 30
2.65448e-14
  70
    32
  0
VERTEX
  8
0
  5
394B
 10
118.963
 20
56.2728
 30
2.65462e-14
  70
    32
  0
VERTEX
  8
0
  5
394C
 10
118.970
 20
56.2544
 30
2.65476e-14
  70
    32
  0
VERTEX
  8
0
  5
394D
 10
118.977
 20
56.2359
 30
2.65490e-14
  70
    32
  0
VERTEX
  8
0
  5
394E
 10
118.984
 20
56.2174
 30
2.65504e-14
  70
    32
  0
VERTEX
  8
0
  5
394F
 10
118.991
 20
56.1989
 30
2.65518e-14
  70
    32
  0
VERTEX
  8
0
  5
3950
 10
118.998
 20
56.1803
 30
2.65531e-14
  70
    32
  0
VERTEX
  8
0
  5
3951
 10
119.005
 20
56.1616
 30
2.65545e-14
  70
    32
  0
VERTEX
  8
0
  5
3952
 10
119.012
 20
56.1428
 30
2.65558e-14
  70
    32
  0
VERTEX
  8
0
  5
3953
 10
119.019
 20
56.1240
 30
2.65571e-14
  70
    32
  0
VERTEX
  8
0
  5
3954
 10
119.025
 20
56.1052
 30
2.65584e-14
  70
    32
  0
VERTEX
  8
0
  5
3955
 10
119.032
 20
56.0863
 30
2.65596e-14
  70
    32
  0
VERTEX
  8
0
  5
3956
 10
119.038
 20
56.0673
 30
2.65608e-14
  70
    32
  0
VERTEX
  8
0
  5
3957
 10
119.045
 20
56.0483
 30
2.65621e-14
  70
    32
  0
VERTEX
  8
0
  5
3958
 10
119.052
 20
56.0292
 30
2.65632e-14
  70
    32
  0
VERTEX
  8
0
  5
3959
 10
119.058
 20
56.0101
 30
2.65644e-14
  70
    32
  0
VERTEX
  8
0
  5
395A
 10
119.064
 20
55.9909
 30
2.65655e-14
  70
    32
  0
VERTEX
  8
0
  5
395B
 10
119.071
 20
55.9717
 30
2.65666e-14
  70
    32
  0
VERTEX
  8
0
  5
395C
 10
119.077
 20
55.9524
 30
2.65677e-14
  70
    32
  0
VERTEX
  8
0
  5
395D
 10
119.083
 20
55.9330
 30
2.65687e-14
  70
    32
  0
VERTEX
  8
0
  5
395E
 10
119.089
 20
55.9136
 30
2.65698e-14
  70
    32
  0
VERTEX
  8
0
  5
395F
 10
119.096
 20
55.8941
 30
2.65708e-14
  70
    32
  0
VERTEX
  8
0
  5
3960
 10
119.102
 20
55.8746
 30
2.65718e-14
  70
    32
  0
VERTEX
  8
0
  5
3961
 10
119.108
 20
55.8550
 30
2.65727e-14
  70
    32
  0
VERTEX
  8
0
  5
3962
 10
119.114
 20
55.8354
 30
2.65737e-14
  70
    32
  0
VERTEX
  8
0
  5
3963
 10
119.120
 20
55.8157
 30
2.65746e-14
  70
    32
  0
VERTEX
  8
0
  5
3964
 10
119.125
 20
55.7959
 30
2.65755e-14
  70
    32
  0
VERTEX
  8
0
  5
3965
 10
119.131
 20
55.7761
 30
2.65764e-14
  70
    32
  0
VERTEX
  8
0
  5
3966
 10
119.137
 20
55.7563
 30
2.65772e-14
  70
    32
  0
VERTEX
  8
0
  5
3967
 10
119.143
 20
55.7363
 30
2.65781e-14
  70
    32
  0
VERTEX
  8
0
  5
3968
 10
119.148
 20
55.7164
 30
2.65789e-14
  70
    32
  0
VERTEX
  8
0
  5
3969
 10
119.154
 20
55.6963
 30
2.65797e-14
  70
    32
  0
VERTEX
  8
0
  5
396A
 10
119.159
 20
55.6762
 30
2.65805e-14
  70
    32
  0
VERTEX
  8
0
  5
396B
 10
119.165
 20
55.6561
 30
2.65812e-14
  70
    32
  0
VERTEX
  8
0
  5
396C
 10
119.170
 20
55.6359
 30
2.65819e-14
  70
    32
  0
VERTEX
  8
0
  5
396D
 10
119.175
 20
55.6156
 30
2.65827e-14
  70
    32
  0
VERTEX
  8
0
  5
396E
 10
119.181
 20
55.5953
 30
2.65834e-14
  70
    32
  0
VERTEX
  8
0
  5
396F
 10
119.186
 20
55.5750
 30
2.65840e-14
  70
    32
  0
VERTEX
  8
0
  5
3970
 10
119.191
 20
55.5545
 30
2.65847e-14
  70
    32
  0
VERTEX
  8
0
  5
3971
 10
119.196
 20
55.5340
 30
2.65853e-14
  70
    32
  0
VERTEX
  8
0
  5
3972
 10
119.201
 20
55.5135
 30
2.65860e-14
  70
    32
  0
VERTEX
  8
0
  5
3973
 10
119.206
 20
55.4929
 30
2.65866e-14
  70
    32
  0
VERTEX
  8
0
  5
3974
 10
119.211
 20
55.4723
 30
2.65871e-14
  70
    32
  0
VERTEX
  8
0
  5
3975
 10
119.216
 20
55.4516
 30
2.65877e-14
  70
    32
  0
VERTEX
  8
0
  5
3976
 10
119.221
 20
55.4308
 30
2.65883e-14
  70
    32
  0
VERTEX
  8
0
  5
3977
 10
119.225
 20
55.4100
 30
2.65888e-14
  70
    32
  0
VERTEX
  8
0
  5
3978
 10
119.230
 20
55.3891
 30
2.65893e-14
  70
    32
  0
VERTEX
  8
0
  5
3979
 10
119.234
 20
55.3682
 30
2.65898e-14
  70
    32
  0
VERTEX
  8
0
  5
397A
 10
119.239
 20
55.3472
 30
2.65903e-14
  70
    32
  0
VERTEX
  8
0
  5
397B
 10
119.243
 20
55.3261
 30
2.65908e-14
  70
    32
  0
VERTEX
  8
0
  5
397C
 10
119.248
 20
55.3050
 30
2.65912e-14
  70
    32
  0
VERTEX
  8
0
  5
397D
 10
119.252
 20
55.2839
 30
2.65917e-14
  70
    32
  0
VERTEX
  8
0
  5
397E
 10
119.256
 20
55.2627
 30
2.65921e-14
  70
    32
  0
VERTEX
  8
0
  5
397F
 10
119.260
 20
55.2414
 30
2.65925e-14
  70
    32
  0
VERTEX
  8
0
  5
3980
 10
119.264
 20
55.2201
 30
2.65929e-14
  70
    32
  0
VERTEX
  8
0
  5
3981
 10
119.268
 20
55.1987
 30
2.65933e-14
  70
    32
  0
VERTEX
  8
0
  5
3982
 10
119.272
 20
55.1773
 30
2.65937e-14
  70
    32
  0
VERTEX
  8
0
  5
3983
 10
119.276
 20
55.1558
 30
2.65940e-14
  70
    32
  0
VERTEX
  8
0
  5
3984
 10
119.280
 20
55.1342
 30
2.65943e-14
  70
    32
  0
VERTEX
  8
0
  5
3985
 10
119.284
 20
55.1126
 30
2.65947e-14
  70
    32
  0
VERTEX
  8
0
  5
3986
 10
119.287
 20
55.0910
 30
2.65950e-14
  70
    32
  0
VERTEX
  8
0
  5
3987
 10
119.291
 20
55.0693
 30
2.65953e-14
  70
    32
  0
VERTEX
  8
0
  5
3988
 10
119.294
 20
55.0475
 30
2.65956e-14
  70
    32
  0
VERTEX
  8
0
  5
3989
 10
119.298
 20
55.0257
 30
2.65959e-14
  70
    32
  0
VERTEX
  8
0
  5
398A
 10
119.301
 20
55.0038
 30
2.65961e-14
  70
    32
  0
VERTEX
  8
0
  5
398B
 10
119.304
 20
54.9818
 30
2.65964e-14
  70
    32
  0
VERTEX
  8
0
  5
398C
 10
119.308
 20
54.9598
 30
2.65966e-14
  70
    32
  0
VERTEX
  8
0
  5
398D
 10
119.311
 20
54.9378
 30
2.65969e-14
  70
    32
  0
VERTEX
  8
0
  5
398E
 10
119.314
 20
54.9157
 30
2.65971e-14
  70
    32
  0
VERTEX
  8
0
  5
398F
 10
119.317
 20
54.8935
 30
2.65973e-14
  70
    32
  0
VERTEX
  8
0
  5
3990
 10
119.320
 20
54.8713
 30
2.65975e-14
  70
    32
  0
VERTEX
  8
0
  5
3991
 10
119.322
 20
54.8490
 30
2.65977e-14
  70
    32
  0
VERTEX
  8
0
  5
3992
 10
119.325
 20
54.8267
 30
2.65979e-14
  70
    32
  0
VERTEX
  8
0
  5
3993
 10
119.328
 20
54.8043
 30
2.65980e-14
  70
    32
  0
VERTEX
  8
0
  5
3994
 10
119.330
 20
54.7819
 30
2.65982e-14
  70
    32
  0
VERTEX
  8
0
  5
3995
 10
119.333
 20
54.7594
 30
2.65983e-14
  70
    32
  0
VERTEX
  8
0
  5
3996
 10
119.335
 20
54.7368
 30
2.65985e-14
  70
    32
  0
VERTEX
  8
0
  5
3997
 10
119.338
 20
54.7142
 30
2.65986e-14
  70
    32
  0
VERTEX
  8
0
  5
3998
 10
119.340
 20
54.6916
 30
2.65987e-14
  70
    32
  0
VERTEX
  8
0
  5
3999
 10
119.342
 20
54.6689
 30
2.65989e-14
  70
    32
  0
VERTEX
  8
0
  5
399A
 10
119.344
 20
54.6461
 30
2.65990e-14
  70
    32
  0
VERTEX
  8
0
  5
399B
 10
119.346
 20
54.6233
 30
2.65991e-14
  70
    32
  0
VERTEX
  8
0
  5
399C
 10
119.348
 20
54.6004
 30
2.65992e-14
  70
    32
  0
VERTEX
  8
0
  5
399D
 10
119.350
 20
54.5774
 30
2.65993e-14
  70
    32
  0
VERTEX
  8
0
  5
399E
 10
119.352
 20
54.5544
 30
2.65993e-14
  70
    32
  0
VERTEX
  8
0
  5
399F
 10
119.353
 20
54.5314
 30
2.65994e-14
  70
    32
  0
VERTEX
  8
0
  5
39A0
 10
119.355
 20
54.5083
 30
2.65995e-14
  70
    32
  0
VERTEX
  8
0
  5
39A1
 10
119.356
 20
54.4851
 30
2.65996e-14
  70
    32
  0
VERTEX
  8
0
  5
39A2
 10
119.358
 20
54.4619
 30
2.65996e-14
  70
    32
  0
VERTEX
  8
0
  5
39A3
 10
119.359
 20
54.4386
 30
2.65997e-14
  70
    32
  0
VERTEX
  8
0
  5
39A4
 10
119.360
 20
54.4153
 30
2.65997e-14
  70
    32
  0
VERTEX
  8
0
  5
39A5
 10
119.361
 20
54.3919
 30
2.65998e-14
  70
    32
  0
VERTEX
  8
0
  5
39A6
 10
119.362
 20
54.3685
 30
2.65998e-14
  70
    32
  0
VERTEX
  8
0
  5
39A7
 10
119.363
 20
54.3450
 30
2.65998e-14
  70
    32
  0
VERTEX
  8
0
  5
39A8
 10
119.364
 20
54.3214
 30
2.65999e-14
  70
    32
  0
VERTEX
  8
0
  5
39A9
 10
119.365
 20
54.2978
 30
2.65999e-14
  70
    32
  0
VERTEX
  8
0
  5
39AA
 10
119.366
 20
54.2742
 30
2.65999e-14
  70
    32
  0
VERTEX
  8
0
  5
39AB
 10
119.366
 20
54.2504
 30
2.65999e-14
  70
    32
  0
VERTEX
  8
0
  5
39AC
 10
119.367
 20
54.2267
 30
2.65999e-14
  70
    32
  0
VERTEX
  8
0
  5
39AD
 10
119.367
 20
54.2028
 30
2.66000e-14
  70
    32
  0
VERTEX
  8
0
  5
39AE
 10
119.367
 20
54.1790
 30
2.66000e-14
  70
    32
  0
VERTEX
  8
0
  5
39AF
 10
119.368
 20
54.1550
 30
2.66000e-14
  70
    32
  0
VERTEX
  8
0
  5
39B0
 10
119.368
 20
54.1310
 30
2.66000e-14
  70
    32
  0
VERTEX
  8
0
  5
39B1
 10
119.368
 20
54.1070
 30
2.66000e-14
  70
    32
  0
VERTEX
  8
0
  5
39B2
 10
119.368
 20
54.0829
 30
2.66000e-14
  70
    32
  0
VERTEX
  8
0
  5
39B3
 10
119.368
 20
54.0587
 30
2.66000e-14
  70
    32
  0
VERTEX
  8
0
  5
39B4
 10
119.367
 20
54.0345
 30
2.66000e-14
  70
    32
  0
VERTEX
  8
0
  5
39B5
 10
119.367
 20
54.0102
 30
2.66000e-14
  70
    32
  0
VERTEX
  8
0
  5
39B6
 10
119.367
 20
53.9859
 30
2.66000e-14
  70
    32
  0
VERTEX
  8
0
  5
39B7
 10
119.366
 20
53.9615
 30
2.66000e-14
  70
    32
  0
VERTEX
  8
0
  5
39B8
 10
119.365
 20
53.9371
 30
2.66000e-14
  70
    32
  0
VERTEX
  8
0
  5
39B9
 10
119.365
 20
53.9126
 30
2.66000e-14
  70
    32
  0
VERTEX
  8
0
  5
39BA
 10
119.364
 20
53.8881
 30
2.66000e-14
  70
    32
  0
VERTEX
  8
0
  5
39BB
 10
119.363
 20
53.8635
 30
2.66000e-14
  70
    32
  0
VERTEX
  8
0
  5
39BC
 10
119.362
 20
53.8389
 30
2.66000e-14
  70
    32
  0
VERTEX
  8
0
  5
39BD
 10
119.361
 20
53.8142
 30
2.66000e-14
  70
    32
  0
VERTEX
  8
0
  5
39BE
 10
119.359
 20
53.7895
 30
2.66000e-14
  70
    32
  0
VERTEX
  8
0
  5
39BF
 10
119.358
 20
53.7647
 30
2.66000e-14
  70
    32
  0
VERTEX
  8
0
  5
39C0
 10
119.357
 20
53.7399
 30
2.65999e-14
  70
    32
  0
VERTEX
  8
0
  5
39C1
 10
119.355
 20
53.7151
 30
2.65999e-14
  70
    32
  0
VERTEX
  8
0
  5
39C2
 10
119.353
 20
53.6902
 30
2.65999e-14
  70
    32
  0
VERTEX
  8
0
  5
39C3
 10
119.352
 20
53.6652
 30
2.65999e-14
  70
    32
  0
VERTEX
  8
0
  5
39C4
 10
119.350
 20
53.6402
 30
2.65998e-14
  70
    32
  0
VERTEX
  8
0
  5
39C5
 10
119.348
 20
53.6152
 30
2.65998e-14
  70
    32
  0
VERTEX
  8
0
  5
39C6
 10
119.346
 20
53.5901
 30
2.65997e-14
  70
    32
  0
VERTEX
  8
0
  5
39C7
 10
119.344
 20
53.5650
 30
2.65997e-14
  70
    32
  0
VERTEX
  8
0
  5
39C8
 10
119.341
 20
53.5398
 30
2.65996e-14
  70
    32
  0
VERTEX
  8
0
  5
39C9
 10
119.339
 20
53.5146
 30
2.65995e-14
  70
    32
  0
VERTEX
  8
0
  5
39CA
 10
119.336
 20
53.4894
 30
2.65994e-14
  70
    32
  0
VERTEX
  8
0
  5
39CB
 10
119.334
 20
53.4641
 30
2.65993e-14
  70
    32
  0
VERTEX
  8
0
  5
39CC
 10
119.331
 20
53.4387
 30
2.65992e-14
  70
    32
  0
VERTEX
  8
0
  5
39CD
 10
119.328
 20
53.4134
 30
2.65991e-14
  70
    32
  0
VERTEX
  8
0
  5
39CE
 10
119.325
 20
53.3880
 30
2.65990e-14
  70
    32
  0
VERTEX
  8
0
  5
39CF
 10
119.322
 20
53.3625
 30
2.65989e-14
  70
    32
  0
VERTEX
  8
0
  5
39D0
 10
119.319
 20
53.3370
 30
2.65987e-14
  70
    32
  0
VERTEX
  8
0
  5
39D1
 10
119.315
 20
53.3115
 30
2.65986e-14
  70
    32
  0
VERTEX
  8
0
  5
39D2
 10
119.312
 20
53.2859
 30
2.65984e-14
  70
    32
  0
VERTEX
  8
0
  5
39D3
 10
119.308
 20
53.2603
 30
2.65982e-14
  70
    32
  0
VERTEX
  8
0
  5
39D4
 10
119.305
 20
53.2346
 30
2.65980e-14
  70
    32
  0
VERTEX
  8
0
  5
39D5
 10
119.301
 20
53.2089
 30
2.65978e-14
  70
    32
  0
VERTEX
  8
0
  5
39D6
 10
119.297
 20
53.1832
 30
2.65976e-14
  70
    32
  0
VERTEX
  8
0
  5
39D7
 10
119.293
 20
53.1574
 30
2.65973e-14
  70
    32
  0
VERTEX
  8
0
  5
39D8
 10
119.289
 20
53.1316
 30
2.65971e-14
  70
    32
  0
VERTEX
  8
0
  5
39D9
 10
119.285
 20
53.1058
 30
2.65968e-14
  70
    32
  0
VERTEX
  8
0
  5
39DA
 10
119.280
 20
53.0799
 30
2.65965e-14
  70
    32
  0
VERTEX
  8
0
  5
39DB
 10
119.276
 20
53.0540
 30
2.65962e-14
  70
    32
  0
VERTEX
  8
0
  5
39DC
 10
119.271
 20
53.0280
 30
2.65959e-14
  70
    32
  0
VERTEX
  8
0
  5
39DD
 10
119.266
 20
53.0021
 30
2.65955e-14
  70
    32
  0
VERTEX
  8
0
  5
39DE
 10
119.261
 20
52.9760
 30
2.65952e-14
  70
    32
  0
VERTEX
  8
0
  5
39DF
 10
119.256
 20
52.9500
 30
2.65948e-14
  70
    32
  0
VERTEX
  8
0
  5
39E0
 10
119.251
 20
52.9239
 30
2.65944e-14
  70
    32
  0
VERTEX
  8
0
  5
39E1
 10
119.246
 20
52.8978
 30
2.65940e-14
  70
    32
  0
VERTEX
  8
0
  5
39E2
 10
119.240
 20
52.8716
 30
2.65935e-14
  70
    32
  0
VERTEX
  8
0
  5
39E3
 10
119.235
 20
52.8454
 30
2.65931e-14
  70
    32
  0
VERTEX
  8
0
  5
39E4
 10
119.229
 20
52.8192
 30
2.65926e-14
  70
    32
  0
VERTEX
  8
0
  5
39E5
 10
119.223
 20
52.7930
 30
2.65921e-14
  70
    32
  0
VERTEX
  8
0
  5
39E6
 10
119.217
 20
52.7667
 30
2.65916e-14
  70
    32
  0
VERTEX
  8
0
  5
39E7
 10
119.211
 20
52.7404
 30
2.65910e-14
  70
    32
  0
VERTEX
  8
0
  5
39E8
 10
119.205
 20
52.7140
 30
2.65904e-14
  70
    32
  0
VERTEX
  8
0
  5
39E9
 10
119.198
 20
52.6876
 30
2.65898e-14
  70
    32
  0
VERTEX
  8
0
  5
39EA
 10
119.192
 20
52.6612
 30
2.65892e-14
  70
    32
  0
VERTEX
  8
0
  5
39EB
 10
119.185
 20
52.6348
 30
2.65886e-14
  70
    32
  0
VERTEX
  8
0
  5
39EC
 10
119.179
 20
52.6083
 30
2.65879e-14
  70
    32
  0
VERTEX
  8
0
  5
39ED
 10
119.172
 20
52.5818
 30
2.65872e-14
  70
    32
  0
VERTEX
  8
0
  5
39EE
 10
119.165
 20
52.5553
 30
2.65865e-14
  70
    32
  0
VERTEX
  8
0
  5
39EF
 10
119.157
 20
52.5288
 30
2.65857e-14
  70
    32
  0
VERTEX
  8
0
  5
39F0
 10
119.150
 20
52.5022
 30
2.65850e-14
  70
    32
  0
VERTEX
  8
0
  5
39F1
 10
119.143
 20
52.4756
 30
2.65842e-14
  70
    32
  0
VERTEX
  8
0
  5
39F2
 10
119.135
 20
52.4489
 30
2.65833e-14
  70
    32
  0
VERTEX
  8
0
  5
39F3
 10
119.127
 20
52.4223
 30
2.65825e-14
  70
    32
  0
VERTEX
  8
0
  5
39F4
 10
119.119
 20
52.3956
 30
2.65816e-14
  70
    32
  0
VERTEX
  8
0
  5
39F5
 10
119.111
 20
52.3689
 30
2.65807e-14
  70
    32
  0
VERTEX
  8
0
  5
39F6
 10
119.103
 20
52.3421
 30
2.65797e-14
  70
    32
  0
VERTEX
  8
0
  5
39F7
 10
119.095
 20
52.3153
 30
2.65788e-14
  70
    32
  0
VERTEX
  8
0
  5
39F8
 10
119.086
 20
52.2886
 30
2.65777e-14
  70
    32
  0
VERTEX
  8
0
  5
39F9
 10
119.078
 20
52.2617
 30
2.65767e-14
  70
    32
  0
VERTEX
  8
0
  5
39FA
 10
119.069
 20
52.2349
 30
2.65756e-14
  70
    32
  0
VERTEX
  8
0
  5
39FB
 10
119.060
 20
52.2080
 30
2.65745e-14
  70
    32
  0
VERTEX
  8
0
  5
39FC
 10
119.051
 20
52.1811
 30
2.65734e-14
  70
    32
  0
VERTEX
  8
0
  5
39FD
 10
119.042
 20
52.1542
 30
2.65722e-14
  70
    32
  0
VERTEX
  8
0
  5
39FE
 10
119.032
 20
52.1273
 30
2.65710e-14
  70
    32
  0
VERTEX
  8
0
  5
39FF
 10
119.023
 20
52.1003
 30
2.65698e-14
  70
    32
  0
VERTEX
  8
0
  5
3A00
 10
119.013
 20
52.0734
 30
2.65685e-14
  70
    32
  0
VERTEX
  8
0
  5
3A01
 10
119.003
 20
52.0463
 30
2.65672e-14
  70
    32
  0
VERTEX
  8
0
  5
3A02
 10
118.993
 20
52.0193
 30
2.65659e-14
  70
    32
  0
VERTEX
  8
0
  5
3A03
 10
118.983
 20
51.9923
 30
2.65645e-14
  70
    32
  0
VERTEX
  8
0
  5
3A04
 10
118.973
 20
51.9652
 30
2.65631e-14
  70
    32
  0
VERTEX
  8
0
  5
3A05
 10
118.962
 20
51.9381
 30
2.65616e-14
  70
    32
  0
VERTEX
  8
0
  5
3A06
 10
118.952
 20
51.9110
 30
2.65601e-14
  70
    32
  0
VERTEX
  8
0
  5
3A07
 10
118.941
 20
51.8839
 30
2.65586e-14
  70
    32
  0
VERTEX
  8
0
  5
3A08
 10
118.930
 20
51.8568
 30
2.65570e-14
  70
    32
  0
VERTEX
  8
0
  5
3A09
 10
118.919
 20
51.8296
 30
2.65554e-14
  70
    32
  0
VERTEX
  8
0
  5
3A0A
 10
118.908
 20
51.8024
 30
2.65538e-14
  70
    32
  0
VERTEX
  8
0
  5
3A0B
 10
118.896
 20
51.7752
 30
2.65521e-14
  70
    32
  0
VERTEX
  8
0
  5
3A0C
 10
118.885
 20
51.7480
 30
2.65504e-14
  70
    32
  0
VERTEX
  8
0
  5
3A0D
 10
118.873
 20
51.7208
 30
2.65486e-14
  70
    32
  0
VERTEX
  8
0
  5
3A0E
 10
118.861
 20
51.6935
 30
2.65468e-14
  70
    32
  0
VERTEX
  8
0
  5
3A0F
 10
118.849
 20
51.6662
 30
2.65449e-14
  70
    32
  0
VERTEX
  8
0
  5
3A10
 10
118.837
 20
51.6390
 30
2.65430e-14
  70
    32
  0
VERTEX
  8
0
  5
3A11
 10
118.824
 20
51.6117
 30
2.65411e-14
  70
    32
  0
VERTEX
  8
0
  5
3A12
 10
118.812
 20
51.5844
 30
2.65390e-14
  70
    32
  0
VERTEX
  8
0
  5
3A13
 10
118.799
 20
51.5571
 30
2.65369e-14
  70
    32
  0
VERTEX
  8
0
  5
3A14
 10
118.786
 20
51.5298
 30
2.65348e-14
  70
    32
  0
VERTEX
  8
0
  5
3A15
 10
118.773
 20
51.5024
 30
2.65326e-14
  70
    32
  0
VERTEX
  8
0
  5
3A16
 10
118.760
 20
51.4751
 30
2.65303e-14
  70
    32
  0
VERTEX
  8
0
  5
3A17
 10
118.747
 20
51.4478
 30
2.65279e-14
  70
    32
  0
VERTEX
  8
0
  5
3A18
 10
118.733
 20
51.4205
 30
2.65255e-14
  70
    32
  0
VERTEX
  8
0
  5
3A19
 10
118.719
 20
51.3932
 30
2.65231e-14
  70
    32
  0
VERTEX
  8
0
  5
3A1A
 10
118.705
 20
51.3658
 30
2.65205e-14
  70
    32
  0
VERTEX
  8
0
  5
3A1B
 10
118.691
 20
51.3385
 30
2.65179e-14
  70
    32
  0
VERTEX
  8
0
  5
3A1C
 10
118.677
 20
51.3112
 30
2.65152e-14
  70
    32
  0
VERTEX
  8
0
  5
3A1D
 10
118.663
 20
51.2839
 30
2.65125e-14
  70
    32
  0
VERTEX
  8
0
  5
3A1E
 10
118.648
 20
51.2566
 30
2.65097e-14
  70
    32
  0
VERTEX
  8
0
  5
3A1F
 10
118.633
 20
51.2293
 30
2.65069e-14
  70
    32
  0
VERTEX
  8
0
  5
3A20
 10
118.618
 20
51.2020
 30
2.65039e-14
  70
    32
  0
VERTEX
  8
0
  5
3A21
 10
118.603
 20
51.1747
 30
2.65009e-14
  70
    32
  0
VERTEX
  8
0
  5
3A22
 10
118.588
 20
51.1474
 30
2.64979e-14
  70
    32
  0
VERTEX
  8
0
  5
3A23
 10
118.572
 20
51.1201
 30
2.64947e-14
  70
    32
  0
VERTEX
  8
0
  5
3A24
 10
118.557
 20
51.0929
 30
2.64915e-14
  70
    32
  0
VERTEX
  8
0
  5
3A25
 10
118.541
 20
51.0657
 30
2.64883e-14
  70
    32
  0
VERTEX
  8
0
  5
3A26
 10
118.525
 20
51.0384
 30
2.64850e-14
  70
    32
  0
VERTEX
  8
0
  5
3A27
 10
118.508
 20
51.0112
 30
2.64816e-14
  70
    32
  0
VERTEX
  8
0
  5
3A28
 10
118.492
 20
50.9840
 30
2.64781e-14
  70
    32
  0
VERTEX
  8
0
  5
3A29
 10
118.475
 20
50.9569
 30
2.64746e-14
  70
    32
  0
VERTEX
  8
0
  5
3A2A
 10
118.459
 20
50.9297
 30
2.64710e-14
  70
    32
  0
VERTEX
  8
0
  5
3A2B
 10
118.441
 20
50.9026
 30
2.64673e-14
  70
    32
  0
VERTEX
  8
0
  5
3A2C
 10
118.424
 20
50.8755
 30
2.64636e-14
  70
    32
  0
VERTEX
  8
0
  5
3A2D
 10
118.407
 20
50.8484
 30
2.64598e-14
  70
    32
  0
VERTEX
  8
0
  5
3A2E
 10
118.389
 20
50.8213
 30
2.64559e-14
  70
    32
  0
VERTEX
  8
0
  5
3A2F
 10
118.372
 20
50.7943
 30
2.64520e-14
  70
    32
  0
VERTEX
  8
0
  5
3A30
 10
118.354
 20
50.7673
 30
2.64480e-14
  70
    32
  0
VERTEX
  8
0
  5
3A31
 10
118.335
 20
50.7403
 30
2.64439e-14
  70
    32
  0
VERTEX
  8
0
  5
3A32
 10
118.317
 20
50.7133
 30
2.64398e-14
  70
    32
  0
VERTEX
  8
0
  5
3A33
 10
118.299
 20
50.6864
 30
2.64356e-14
  70
    32
  0
VERTEX
  8
0
  5
3A34
 10
118.280
 20
50.6595
 30
2.64313e-14
  70
    32
  0
VERTEX
  8
0
  5
3A35
 10
118.261
 20
50.6327
 30
2.64269e-14
  70
    32
  0
VERTEX
  8
0
  5
3A36
 10
118.242
 20
50.6058
 30
2.64225e-14
  70
    32
  0
VERTEX
  8
0
  5
3A37
 10
118.222
 20
50.5790
 30
2.64180e-14
  70
    32
  0
VERTEX
  8
0
  5
3A38
 10
118.203
 20
50.5523
 30
2.64134e-14
  70
    32
  0
VERTEX
  8
0
  5
3A39
 10
118.183
 20
50.5256
 30
2.64088e-14
  70
    32
  0
VERTEX
  8
0
  5
3A3A
 10
118.163
 20
50.4989
 30
2.64041e-14
  70
    32
  0
VERTEX
  8
0
  5
3A3B
 10
118.143
 20
50.4722
 30
2.63993e-14
  70
    32
  0
VERTEX
  8
0
  5
3A3C
 10
118.122
 20
50.4456
 30
2.63945e-14
  70
    32
  0
VERTEX
  8
0
  5
3A3D
 10
118.102
 20
50.4191
 30
2.63896e-14
  70
    32
  0
VERTEX
  8
0
  5
3A3E
 10
118.081
 20
50.3926
 30
2.63846e-14
  70
    32
  0
VERTEX
  8
0
  5
3A3F
 10
118.060
 20
50.3661
 30
2.63795e-14
  70
    32
  0
VERTEX
  8
0
  5
3A40
 10
118.039
 20
50.3397
 30
2.63744e-14
  70
    32
  0
VERTEX
  8
0
  5
3A41
 10
118.017
 20
50.3133
 30
2.63692e-14
  70
    32
  0
VERTEX
  8
0
  5
3A42
 10
117.996
 20
50.2869
 30
2.63639e-14
  70
    32
  0
VERTEX
  8
0
  5
3A43
 10
117.974
 20
50.2607
 30
2.63586e-14
  70
    32
  0
VERTEX
  8
0
  5
3A44
 10
117.952
 20
50.2344
 30
2.63531e-14
  70
    32
  0
VERTEX
  8
0
  5
3A45
 10
117.929
 20
50.2082
 30
2.63476e-14
  70
    32
  0
VERTEX
  8
0
  5
3A46
 10
117.907
 20
50.1821
 30
2.63421e-14
  70
    32
  0
VERTEX
  8
0
  5
3A47
 10
117.884
 20
50.1560
 30
2.63364e-14
  70
    32
  0
VERTEX
  8
0
  5
3A48
 10
117.861
 20
50.1300
 30
2.63307e-14
  70
    32
  0
VERTEX
  8
0
  5
3A49
 10
117.838
 20
50.1040
 30
2.63249e-14
  70
    32
  0
VERTEX
  8
0
  5
3A4A
 10
117.815
 20
50.0781
 30
2.63190e-14
  70
    32
  0
VERTEX
  8
0
  5
3A4B
 10
117.791
 20
50.0523
 30
2.63131e-14
  70
    32
  0
VERTEX
  8
0
  5
3A4C
 10
117.767
 20
50.0265
 30
2.63071e-14
  70
    32
  0
VERTEX
  8
0
  5
3A4D
 10
117.743
 20
50.0007
 30
2.63010e-14
  70
    32
  0
VERTEX
  8
0
  5
3A4E
 10
117.719
 20
49.9751
 30
2.62948e-14
  70
    32
  0
VERTEX
  8
0
  5
3A4F
 10
117.694
 20
49.9495
 30
2.62886e-14
  70
    32
  0
VERTEX
  8
0
  5
3A50
 10
117.670
 20
49.9239
 30
2.62823e-14
  70
    32
  0
VERTEX
  8
0
  5
3A51
 10
117.645
 20
49.8984
 30
2.62759e-14
  70
    32
  0
VERTEX
  8
0
  5
3A52
 10
117.619
 20
49.8730
 30
2.62694e-14
  70
    32
  0
VERTEX
  8
0
  5
3A53
 10
117.594
 20
49.8477
 30
2.62629e-14
  70
    32
  0
VERTEX
  8
0
  5
3A54
 10
117.568
 20
49.8224
 30
2.62563e-14
  70
    32
  0
VERTEX
  8
0
  5
3A55
 10
117.542
 20
49.7972
 30
2.62496e-14
  70
    32
  0
VERTEX
  8
0
  5
3A56
 10
117.516
 20
49.7721
 30
2.62428e-14
  70
    32
  0
VERTEX
  8
0
  5
3A57
 10
117.490
 20
49.7470
 30
2.62360e-14
  70
    32
  0
VERTEX
  8
0
  5
3A58
 10
117.463
 20
49.7220
 30
2.62290e-14
  70
    32
  0
VERTEX
  8
0
  5
3A59
 10
117.437
 20
49.6971
 30
2.62222e-14
  70
    32
  0
VERTEX
  8
0
  5
3A5A
 10
117.409
 20
49.6723
 30
2.62153e-14
  70
    32
  0
VERTEX
  8
0
  5
3A5B
 10
117.382
 20
49.6475
 30
2.62086e-14
  70
    32
  0
VERTEX
  8
0
  5
3A5C
 10
117.355
 20
49.6228
 30
2.62018e-14
  70
    32
  0
VERTEX
  8
0
  5
3A5D
 10
117.327
 20
49.5983
 30
2.61951e-14
  70
    32
  0
VERTEX
  8
0
  5
3A5E
 10
117.299
 20
49.5738
 30
2.61885e-14
  70
    32
  0
VERTEX
  8
0
  5
3A5F
 10
117.271
 20
49.5494
 30
2.61818e-14
  70
    32
  0
VERTEX
  8
0
  5
3A60
 10
117.242
 20
49.5251
 30
2.61752e-14
  70
    32
  0
VERTEX
  8
0
  5
3A61
 10
117.213
 20
49.5009
 30
2.61686e-14
  70
    32
  0
VERTEX
  8
0
  5
3A62
 10
117.184
 20
49.4768
 30
2.61620e-14
  70
    32
  0
VERTEX
  8
0
  5
3A63
 10
117.155
 20
49.4528
 30
2.61554e-14
  70
    32
  0
VERTEX
  8
0
  5
3A64
 10
117.126
 20
49.4289
 30
2.61488e-14
  70
    32
  0
VERTEX
  8
0
  5
3A65
 10
117.096
 20
49.4051
 30
2.61422e-14
  70
    32
  0
VERTEX
  8
0
  5
3A66
 10
117.066
 20
49.3815
 30
2.61357e-14
  70
    32
  0
VERTEX
  8
0
  5
3A67
 10
117.036
 20
49.3579
 30
2.61290e-14
  70
    32
  0
VERTEX
  8
0
  5
3A68
 10
117.005
 20
49.3345
 30
2.61224e-14
  70
    32
  0
VERTEX
  8
0
  5
3A69
 10
116.975
 20
49.3112
 30
2.61158e-14
  70
    32
  0
VERTEX
  8
0
  5
3A6A
 10
116.944
 20
49.2880
 30
2.61091e-14
  70
    32
  0
VERTEX
  8
0
  5
3A6B
 10
116.912
 20
49.2649
 30
2.61024e-14
  70
    32
  0
VERTEX
  8
0
  5
3A6C
 10
116.881
 20
49.2420
 30
2.60956e-14
  70
    32
  0
VERTEX
  8
0
  5
3A6D
 10
116.849
 20
49.2192
 30
2.60888e-14
  70
    32
  0
VERTEX
  8
0
  5
3A6E
 10
116.817
 20
49.1966
 30
2.60820e-14
  70
    32
  0
VERTEX
  8
0
  5
3A6F
 10
116.785
 20
49.1740
 30
2.60751e-14
  70
    32
  0
VERTEX
  8
0
  5
3A70
 10
116.752
 20
49.1516
 30
2.60681e-14
  70
    32
  0
VERTEX
  8
0
  5
3A71
 10
116.720
 20
49.1294
 30
2.60611e-14
  70
    32
  0
VERTEX
  8
0
  5
3A72
 10
116.687
 20
49.1073
 30
2.60540e-14
  70
    32
  0
VERTEX
  8
0
  5
3A73
 10
116.653
 20
49.0854
 30
2.60469e-14
  70
    32
  0
VERTEX
  8
0
  5
3A74
 10
116.620
 20
49.0636
 30
2.60396e-14
  70
    32
  0
VERTEX
  8
0
  5
3A75
 10
116.586
 20
49.0419
 30
2.60323e-14
  70
    32
  0
VERTEX
  8
0
  5
3A76
 10
116.552
 20
49.0204
 30
2.60249e-14
  70
    32
  0
VERTEX
  8
0
  5
3A77
 10
116.518
 20
48.9991
 30
2.60174e-14
  70
    32
  0
VERTEX
  8
0
  5
3A78
 10
116.483
 20
48.9780
 30
2.60098e-14
  70
    32
  0
VERTEX
  8
0
  5
3A79
 10
116.448
 20
48.9570
 30
2.60021e-14
  70
    32
  0
VERTEX
  8
0
  5
3A7A
 10
116.413
 20
48.9361
 30
2.59943e-14
  70
    32
  0
VERTEX
  8
0
  5
3A7B
 10
116.378
 20
48.9155
 30
2.59864e-14
  70
    32
  0
VERTEX
  8
0
  5
3A7C
 10
116.342
 20
48.8950
 30
2.59783e-14
  70
    32
  0
VERTEX
  8
0
  5
3A7D
 10
116.306
 20
48.8747
 30
2.59702e-14
  70
    32
  0
VERTEX
  8
0
  5
3A7E
 10
116.270
 20
48.8545
 30
2.59619e-14
  70
    32
  0
VERTEX
  8
0
  5
3A7F
 10
116.233
 20
48.8346
 30
2.59534e-14
  70
    32
  0
VERTEX
  8
0
  5
3A80
 10
116.197
 20
48.8148
 30
2.59449e-14
  70
    32
  0
VERTEX
  8
0
  5
3A81
 10
116.160
 20
48.7952
 30
2.59361e-14
  70
    32
  0
VERTEX
  8
0
  5
3A82
 10
116.122
 20
48.7758
 30
2.59273e-14
  70
    32
  0
VERTEX
  8
0
  5
3A83
 10
116.085
 20
48.7566
 30
2.59183e-14
  70
    32
  0
VERTEX
  8
0
  5
3A84
 10
116.047
 20
48.7376
 30
2.59091e-14
  70
    32
  0
VERTEX
  8
0
  5
3A85
 10
116.009
 20
48.7188
 30
2.58998e-14
  70
    32
  0
VERTEX
  8
0
  5
3A86
 10
115.970
 20
48.7002
 30
2.58903e-14
  70
    32
  0
VERTEX
  8
0
  5
3A87
 10
115.932
 20
48.6818
 30
2.58806e-14
  70
    32
  0
VERTEX
  8
0
  5
3A88
 10
115.893
 20
48.6636
 30
2.58707e-14
  70
    32
  0
VERTEX
  8
0
  5
3A89
 10
115.853
 20
48.6456
 30
2.58607e-14
  70
    32
  0
VERTEX
  8
0
  5
3A8A
 10
115.814
 20
48.6279
 30
2.58505e-14
  70
    32
  0
VERTEX
  8
0
  5
3A8B
 10
115.774
 20
48.6103
 30
2.58401e-14
  70
    32
  0
VERTEX
  8
0
  5
3A8C
 10
115.734
 20
48.5930
 30
2.58294e-14
  70
    32
  0
VERTEX
  8
0
  5
3A8D
 10
115.694
 20
48.5758
 30
2.58186e-14
  70
    32
  0
VERTEX
  8
0
  5
3A8E
 10
115.653
 20
48.5589
 30
2.58076e-14
  70
    32
  0
VERTEX
  8
0
  5
3A8F
 10
115.612
 20
48.5423
 30
2.57963e-14
  70
    32
  0
VERTEX
  8
0
  5
3A90
 10
115.571
 20
48.5258
 30
2.57849e-14
  70
    32
  0
VERTEX
  8
0
  5
3A91
 10
115.529
 20
48.5096
 30
2.57732e-14
  70
    32
  0
VERTEX
  8
0
  5
3A92
 10
115.487
 20
48.4936
 30
2.57616e-14
  70
    32
  0
VERTEX
  8
0
  5
3A93
 10
115.445
 20
48.4779
 30
2.57503e-14
  70
    32
  0
VERTEX
  8
0
  5
3A94
 10
115.403
 20
48.4624
 30
2.57391e-14
  70
    32
  0
VERTEX
  8
0
  5
3A95
 10
115.360
 20
48.4471
 30
2.57282e-14
  70
    32
  0
VERTEX
  8
0
  5
3A96
 10
115.317
 20
48.4321
 30
2.57174e-14
  70
    32
  0
VERTEX
  8
0
  5
3A97
 10
115.274
 20
48.4174
 30
2.57067e-14
  70
    32
  0
VERTEX
  8
0
  5
3A98
 10
115.230
 20
48.4029
 30
2.56963e-14
  70
    32
  0
VERTEX
  8
0
  5
3A99
 10
115.186
 20
48.3888
 30
2.56859e-14
  70
    32
  0
VERTEX
  8
0
  5
3A9A
 10
115.142
 20
48.3749
 30
2.56757e-14
  70
    32
  0
VERTEX
  8
0
  5
3A9B
 10
115.098
 20
48.3612
 30
2.56656e-14
  70
    32
  0
VERTEX
  8
0
  5
3A9C
 10
115.053
 20
48.3479
 30
2.56557e-14
  70
    32
  0
VERTEX
  8
0
  5
3A9D
 10
115.008
 20
48.3349
 30
2.56458e-14
  70
    32
  0
VERTEX
  8
0
  5
3A9E
 10
114.963
 20
48.3221
 30
2.56360e-14
  70
    32
  0
VERTEX
  8
0
  5
3A9F
 10
114.917
 20
48.3097
 30
2.56263e-14
  70
    32
  0
VERTEX
  8
0
  5
3AA0
 10
114.871
 20
48.2976
 30
2.56166e-14
  70
    32
  0
VERTEX
  8
0
  5
3AA1
 10
114.825
 20
48.2858
 30
2.56070e-14
  70
    32
  0
VERTEX
  8
0
  5
3AA2
 10
114.779
 20
48.2743
 30
2.55975e-14
  70
    32
  0
VERTEX
  8
0
  5
3AA3
 10
114.732
 20
48.2632
 30
2.55880e-14
  70
    32
  0
VERTEX
  8
0
  5
3AA4
 10
114.685
 20
48.2524
 30
2.55784e-14
  70
    32
  0
VERTEX
  8
0
  5
3AA5
 10
114.638
 20
48.2419
 30
2.55689e-14
  70
    32
  0
VERTEX
  8
0
  5
3AA6
 10
114.590
 20
48.2318
 30
2.55594e-14
  70
    32
  0
VERTEX
  8
0
  5
3AA7
 10
114.542
 20
48.2220
 30
2.55499e-14
  70
    32
  0
VERTEX
  8
0
  5
3AA8
 10
114.494
 20
48.2126
 30
2.55403e-14
  70
    32
  0
VERTEX
  8
0
  5
3AA9
 10
114.445
 20
48.2036
 30
2.55307e-14
  70
    32
  0
VERTEX
  8
0
  5
3AAA
 10
114.397
 20
48.1949
 30
2.55211e-14
  70
    32
  0
VERTEX
  8
0
  5
3AAB
 10
114.348
 20
48.1866
 30
2.55113e-14
  70
    32
  0
VERTEX
  8
0
  5
3AAC
 10
114.298
 20
48.1786
 30
2.55016e-14
  70
    32
  0
VERTEX
  8
0
  5
3AAD
 10
114.249
 20
48.1711
 30
2.54917e-14
  70
    32
  0
VERTEX
  8
0
  5
3AAE
 10
114.199
 20
48.1639
 30
2.54817e-14
  70
    32
  0
VERTEX
  8
0
  5
3AAF
 10
114.149
 20
48.1572
 30
2.54716e-14
  70
    32
  0
VERTEX
  8
0
  5
3AB0
 10
114.098
 20
48.1508
 30
2.54614e-14
  70
    32
  0
VERTEX
  8
0
  5
3AB1
 10
114.047
 20
48.1448
 30
2.54511e-14
  70
    32
  0
VERTEX
  8
0
  5
3AB2
 10
113.996
 20
48.1393
 30
2.54406e-14
  70
    32
  0
VERTEX
  8
0
  5
3AB3
 10
113.945
 20
48.1341
 30
2.54300e-14
  70
    32
  0
VERTEX
  8
0
  5
3AB4
 10
113.893
 20
48.1294
 30
2.54192e-14
  70
    32
  0
VERTEX
  8
0
  5
3AB5
 10
113.841
 20
48.1252
 30
2.54082e-14
  70
    32
  0
VERTEX
  8
0
  5
3AB6
 10
113.789
 20
48.1213
 30
2.53971e-14
  70
    32
  0
VERTEX
  8
0
  5
3AB7
 10
113.737
 20
48.1179
 30
2.53857e-14
  70
    32
  0
VERTEX
  8
0
  5
3AB8
 10
113.684
 20
48.1149
 30
2.53741e-14
  70
    32
  0
VERTEX
  8
0
  5
3AB9
 10
113.631
 20
48.1124
 30
2.53624e-14
  70
    32
  0
VERTEX
  8
0
  5
3ABA
 10
113.577
 20
48.1104
 30
2.53503e-14
  70
    32
  0
VERTEX
  8
0
  5
3ABB
 10
113.524
 20
48.1088
 30
2.53381e-14
  70
    32
  0
VERTEX
  8
0
  5
3ABC
 10
113.470
 20
48.1076
 30
2.53255e-14
  70
    32
  0
VERTEX
  8
0
  5
3ABD
 10
113.415
 20
48.1070
 30
2.53127e-14
  70
    32
  0
VERTEX
  8
0
  5
3ABE
 10
113.361
 20
48.1068
 30
2.53004e-14
  70
    32
  0
VERTEX
  8
0
  5
3ABF
 10
113.295
 20
48.1068
 30
2.52874e-14
  70
    32
  0
VERTEX
  8
0
  5
3AC0
 10
113.228
 20
48.1068
 30
2.52727e-14
  70
    32
  0
VERTEX
  8
0
  5
3AC1
 10
113.162
 20
48.1068
 30
2.52579e-14
  70
    32
  0
VERTEX
  8
0
  5
3AC2
 10
113.095
 20
48.1068
 30
2.52432e-14
  70
    32
  0
VERTEX
  8
0
  5
3AC3
 10
113.028
 20
48.1068
 30
2.52284e-14
  70
    32
  0
VERTEX
  8
0
  5
3AC4
 10
112.961
 20
48.1068
 30
2.52137e-14
  70
    32
  0
VERTEX
  8
0
  5
3AC5
 10
112.894
 20
48.1068
 30
2.51989e-14
  70
    32
  0
VERTEX
  8
0
  5
3AC6
 10
112.828
 20
48.1068
 30
2.51842e-14
  70
    32
  0
VERTEX
  8
0
  5
3AC7
 10
112.761
 20
48.1068
 30
2.51694e-14
  70
    32
  0
VERTEX
  8
0
  5
3AC8
 10
112.694
 20
48.1068
 30
2.51546e-14
  70
    32
  0
VERTEX
  8
0
  5
3AC9
 10
112.627
 20
48.1068
 30
2.51399e-14
  70
    32
  0
VERTEX
  8
0
  5
3ACA
 10
112.560
 20
48.1068
 30
2.51251e-14
  70
    32
  0
VERTEX
  8
0
  5
3ACB
 10
112.494
 20
48.1068
 30
2.51104e-14
  70
    32
  0
VERTEX
  8
0
  5
3ACC
 10
112.427
 20
48.1068
 30
2.50956e-14
  70
    32
  0
VERTEX
  8
0
  5
3ACD
 10
112.360
 20
48.1068
 30
2.50808e-14
  70
    32
  0
VERTEX
  8
0
  5
3ACE
 10
112.293
 20
48.1068
 30
2.50661e-14
  70
    32
  0
VERTEX
  8
0
  5
3ACF
 10
112.227
 20
48.1068
 30
2.50513e-14
  70
    32
  0
VERTEX
  8
0
  5
3AD0
 10
112.160
 20
48.1068
 30
2.50365e-14
  70
    32
  0
VERTEX
  8
0
  5
3AD1
 10
112.093
 20
48.1068
 30
2.50218e-14
  70
    32
  0
VERTEX
  8
0
  5
3AD2
 10
112.026
 20
48.1068
 30
2.50070e-14
  70
    32
  0
VERTEX
  8
0
  5
3AD3
 10
111.959
 20
48.1068
 30
2.49922e-14
  70
    32
  0
VERTEX
  8
0
  5
3AD4
 10
111.893
 20
48.1068
 30
2.49775e-14
  70
    32
  0
VERTEX
  8
0
  5
3AD5
 10
111.826
 20
48.1068
 30
2.49627e-14
  70
    32
  0
VERTEX
  8
0
  5
3AD6
 10
111.759
 20
48.1068
 30
2.49479e-14
  70
    32
  0
VERTEX
  8
0
  5
3AD7
 10
111.692
 20
48.1068
 30
2.49332e-14
  70
    32
  0
VERTEX
  8
0
  5
3AD8
 10
111.625
 20
48.1068
 30
2.49184e-14
  70
    32
  0
VERTEX
  8
0
  5
3AD9
 10
111.559
 20
48.1068
 30
2.49036e-14
  70
    32
  0
VERTEX
  8
0
  5
3ADA
 10
111.492
 20
48.1068
 30
2.48889e-14
  70
    32
  0
VERTEX
  8
0
  5
3ADB
 10
111.425
 20
48.1068
 30
2.48741e-14
  70
    32
  0
VERTEX
  8
0
  5
3ADC
 10
111.358
 20
48.1068
 30
2.48593e-14
  70
    32
  0
VERTEX
  8
0
  5
3ADD
 10
111.292
 20
48.1068
 30
2.48445e-14
  70
    32
  0
VERTEX
  8
0
  5
3ADE
 10
111.225
 20
48.1068
 30
2.48298e-14
  70
    32
  0
VERTEX
  8
0
  5
3ADF
 10
111.158
 20
48.1068
 30
2.48150e-14
  70
    32
  0
VERTEX
  8
0
  5
3AE0
 10
111.091
 20
48.1068
 30
2.48002e-14
  70
    32
  0
VERTEX
  8
0
  5
3AE1
 10
111.024
 20
48.1068
 30
2.47855e-14
  70
    32
  0
VERTEX
  8
0
  5
3AE2
 10
110.958
 20
48.1068
 30
2.47707e-14
  70
    32
  0
VERTEX
  8
0
  5
3AE3
 10
110.891
 20
48.1068
 30
2.47559e-14
  70
    32
  0
VERTEX
  8
0
  5
3AE4
 10
110.824
 20
48.1068
 30
2.47411e-14
  70
    32
  0
VERTEX
  8
0
  5
3AE5
 10
110.757
 20
48.1068
 30
2.47263e-14
  70
    32
  0
VERTEX
  8
0
  5
3AE6
 10
110.690
 20
48.1068
 30
2.47116e-14
  70
    32
  0
VERTEX
  8
0
  5
3AE7
 10
110.624
 20
48.1068
 30
2.46968e-14
  70
    32
  0
VERTEX
  8
0
  5
3AE8
 10
110.557
 20
48.1068
 30
2.46820e-14
  70
    32
  0
VERTEX
  8
0
  5
3AE9
 10
110.490
 20
48.1068
 30
2.46672e-14
  70
    32
  0
VERTEX
  8
0
  5
3AEA
 10
110.423
 20
48.1068
 30
2.46525e-14
  70
    32
  0
VERTEX
  8
0
  5
3AEB
 10
110.357
 20
48.1068
 30
2.46377e-14
  70
    32
  0
VERTEX
  8
0
  5
3AEC
 10
110.290
 20
48.1068
 30
2.46229e-14
  70
    32
  0
VERTEX
  8
0
  5
3AED
 10
110.223
 20
48.1068
 30
2.46081e-14
  70
    32
  0
VERTEX
  8
0
  5
3AEE
 10
110.156
 20
48.1068
 30
2.45933e-14
  70
    32
  0
VERTEX
  8
0
  5
3AEF
 10
110.089
 20
48.1068
 30
2.45785e-14
  70
    32
  0
VERTEX
  8
0
  5
3AF0
 10
110.023
 20
48.1068
 30
2.45638e-14
  70
    32
  0
VERTEX
  8
0
  5
3AF1
 10
109.956
 20
48.1068
 30
2.45490e-14
  70
    32
  0
VERTEX
  8
0
  5
3AF2
 10
109.889
 20
48.1068
 30
2.45342e-14
  70
    32
  0
VERTEX
  8
0
  5
3AF3
 10
109.822
 20
48.1068
 30
2.45194e-14
  70
    32
  0
VERTEX
  8
0
  5
3AF4
 10
109.755
 20
48.1068
 30
2.45046e-14
  70
    32
  0
VERTEX
  8
0
  5
3AF5
 10
109.689
 20
48.1068
 30
2.44898e-14
  70
    32
  0
VERTEX
  8
0
  5
3AF6
 10
109.622
 20
48.1068
 30
2.44751e-14
  70
    32
  0
VERTEX
  8
0
  5
3AF7
 10
109.555
 20
48.1068
 30
2.44603e-14
  70
    32
  0
VERTEX
  8
0
  5
3AF8
 10
109.488
 20
48.1068
 30
2.44455e-14
  70
    32
  0
VERTEX
  8
0
  5
3AF9
 10
109.422
 20
48.1068
 30
2.44307e-14
  70
    32
  0
VERTEX
  8
0
  5
3AFA
 10
109.355
 20
48.1068
 30
2.44159e-14
  70
    32
  0
VERTEX
  8
0
  5
3AFB
 10
109.288
 20
48.1068
 30
2.44011e-14
  70
    32
  0
VERTEX
  8
0
  5
3AFC
 10
109.221
 20
48.1068
 30
2.43863e-14
  70
    32
  0
VERTEX
  8
0
  5
3AFD
 10
109.154
 20
48.1068
 30
2.43715e-14
  70
    32
  0
VERTEX
  8
0
  5
3AFE
 10
109.088
 20
48.1068
 30
2.43568e-14
  70
    32
  0
VERTEX
  8
0
  5
3AFF
 10
109.021
 20
48.1068
 30
2.43420e-14
  70
    32
  0
VERTEX
  8
0
  5
3B00
 10
108.954
 20
48.1068
 30
2.43272e-14
  70
    32
  0
VERTEX
  8
0
  5
3B01
 10
108.887
 20
48.1068
 30
2.43124e-14
  70
    32
  0
VERTEX
  8
0
  5
3B02
 10
108.820
 20
48.1068
 30
2.42976e-14
  70
    32
  0
VERTEX
  8
0
  5
3B03
 10
108.754
 20
48.1068
 30
2.42828e-14
  70
    32
  0
VERTEX
  8
0
  5
3B04
 10
108.687
 20
48.1068
 30
2.42680e-14
  70
    32
  0
VERTEX
  8
0
  5
3B05
 10
108.620
 20
48.1068
 30
2.42532e-14
  70
    32
  0
VERTEX
  8
0
  5
3B06
 10
108.553
 20
48.1068
 30
2.42384e-14
  70
    32
  0
VERTEX
  8
0
  5
3B07
 10
108.487
 20
48.1068
 30
2.42236e-14
  70
    32
  0
VERTEX
  8
0
  5
3B08
 10
108.420
 20
48.1068
 30
2.42088e-14
  70
    32
  0
VERTEX
  8
0
  5
3B09
 10
108.353
 20
48.1068
 30
2.41940e-14
  70
    32
  0
VERTEX
  8
0
  5
3B0A
 10
108.286
 20
48.1068
 30
2.41793e-14
  70
    32
  0
VERTEX
  8
0
  5
3B0B
 10
108.219
 20
48.1068
 30
2.41645e-14
  70
    32
  0
VERTEX
  8
0
  5
3B0C
 10
108.153
 20
48.1068
 30
2.41497e-14
  70
    32
  0
VERTEX
  8
0
  5
3B0D
 10
108.086
 20
48.1068
 30
2.41349e-14
  70
    32
  0
VERTEX
  8
0
  5
3B0E
 10
108.019
 20
48.1068
 30
2.41201e-14
  70
    32
  0
VERTEX
  8
0
  5
3B0F
 10
107.952
 20
48.1068
 30
2.41053e-14
  70
    32
  0
VERTEX
  8
0
  5
3B10
 10
107.885
 20
48.1068
 30
2.40905e-14
  70
    32
  0
VERTEX
  8
0
  5
3B11
 10
107.819
 20
48.1068
 30
2.40757e-14
  70
    32
  0
VERTEX
  8
0
  5
3B12
 10
107.752
 20
48.1068
 30
2.40609e-14
  70
    32
  0
VERTEX
  8
0
  5
3B13
 10
107.685
 20
48.1068
 30
2.40461e-14
  70
    32
  0
VERTEX
  8
0
  5
3B14
 10
107.618
 20
48.1068
 30
2.40313e-14
  70
    32
  0
VERTEX
  8
0
  5
3B15
 10
107.552
 20
48.1068
 30
2.40165e-14
  70
    32
  0
VERTEX
  8
0
  5
3B16
 10
107.485
 20
48.1068
 30
2.40017e-14
  70
    32
  0
VERTEX
  8
0
  5
3B17
 10
107.418
 20
48.1068
 30
2.39869e-14
  70
    32
  0
VERTEX
  8
0
  5
3B18
 10
107.351
 20
48.1068
 30
2.39721e-14
  70
    32
  0
VERTEX
  8
0
  5
3B19
 10
107.284
 20
48.1068
 30
2.39573e-14
  70
    32
  0
VERTEX
  8
0
  5
3B1A
 10
107.218
 20
48.1068
 30
2.39425e-14
  70
    32
  0
VERTEX
  8
0
  5
3B1B
 10
107.151
 20
48.1068
 30
2.39277e-14
  70
    32
  0
VERTEX
  8
0
  5
3B1C
 10
107.084
 20
48.1068
 30
2.39129e-14
  70
    32
  0
VERTEX
  8
0
  5
3B1D
 10
107.017
 20
48.1068
 30
2.38981e-14
  70
    32
  0
VERTEX
  8
0
  5
3B1E
 10
106.950
 20
48.1068
 30
2.38833e-14
  70
    32
  0
VERTEX
  8
0
  5
3B1F
 10
106.884
 20
48.1068
 30
2.38685e-14
  70
    32
  0
VERTEX
  8
0
  5
3B20
 10
106.817
 20
48.1068
 30
2.38537e-14
  70
    32
  0
VERTEX
  8
0
  5
3B21
 10
106.750
 20
48.1068
 30
2.38389e-14
  70
    32
  0
VERTEX
  8
0
  5
3B22
 10
106.683
 20
48.1068
 30
2.38241e-14
  70
    32
  0
VERTEX
  8
0
  5
3B23
 10
106.616
 20
48.1068
 30
2.38093e-14
  70
    32
  0
VERTEX
  8
0
  5
3B24
 10
106.550
 20
48.1068
 30
2.37945e-14
  70
    32
  0
VERTEX
  8
0
  5
3B25
 10
106.483
 20
48.1068
 30
2.37797e-14
  70
    32
  0
VERTEX
  8
0
  5
3B26
 10
106.416
 20
48.1068
 30
2.37649e-14
  70
    32
  0
VERTEX
  8
0
  5
3B27
 10
106.349
 20
48.1068
 30
2.37501e-14
  70
    32
  0
VERTEX
  8
0
  5
3B28
 10
106.283
 20
48.1068
 30
2.37353e-14
  70
    32
  0
VERTEX
  8
0
  5
3B29
 10
106.216
 20
48.1068
 30
2.37205e-14
  70
    32
  0
VERTEX
  8
0
  5
3B2A
 10
106.149
 20
48.1068
 30
2.37057e-14
  70
    32
  0
VERTEX
  8
0
  5
3B2B
 10
106.082
 20
48.1068
 30
2.36909e-14
  70
    32
  0
VERTEX
  8
0
  5
3B2C
 10
106.015
 20
48.1068
 30
2.36761e-14
  70
    32
  0
VERTEX
  8
0
  5
3B2D
 10
105.949
 20
48.1068
 30
2.36613e-14
  70
    32
  0
VERTEX
  8
0
  5
3B2E
 10
105.882
 20
48.1068
 30
2.36465e-14
  70
    32
  0
VERTEX
  8
0
  5
3B2F
 10
105.815
 20
48.1068
 30
2.36317e-14
  70
    32
  0
VERTEX
  8
0
  5
3B30
 10
105.748
 20
48.1068
 30
2.36169e-14
  70
    32
  0
VERTEX
  8
0
  5
3B31
 10
105.681
 20
48.1068
 30
2.36021e-14
  70
    32
  0
VERTEX
  8
0
  5
3B32
 10
105.615
 20
48.1068
 30
2.35873e-14
  70
    32
  0
VERTEX
  8
0
  5
3B33
 10
105.548
 20
48.1068
 30
2.35725e-14
  70
    32
  0
VERTEX
  8
0
  5
3B34
 10
105.481
 20
48.1068
 30
2.35576e-14
  70
    32
  0
VERTEX
  8
0
  5
3B35
 10
105.414
 20
48.1068
 30
2.35428e-14
  70
    32
  0
VERTEX
  8
0
  5
3B36
 10
105.348
 20
48.1068
 30
2.35280e-14
  70
    32
  0
VERTEX
  8
0
  5
3B37
 10
105.281
 20
48.1068
 30
2.35132e-14
  70
    32
  0
VERTEX
  8
0
  5
3B38
 10
105.214
 20
48.1068
 30
2.34984e-14
  70
    32
  0
VERTEX
  8
0
  5
3B39
 10
105.147
 20
48.1068
 30
2.34836e-14
  70
    32
  0
VERTEX
  8
0
  5
3B3A
 10
105.080
 20
48.1068
 30
2.34688e-14
  70
    32
  0
VERTEX
  8
0
  5
3B3B
 10
105.014
 20
48.1068
 30
2.34540e-14
  70
    32
  0
VERTEX
  8
0
  5
3B3C
 10
104.947
 20
48.1068
 30
2.34392e-14
  70
    32
  0
VERTEX
  8
0
  5
3B3D
 10
104.880
 20
48.1068
 30
2.34244e-14
  70
    32
  0
VERTEX
  8
0
  5
3B3E
 10
104.813
 20
48.1068
 30
2.34096e-14
  70
    32
  0
VERTEX
  8
0
  5
3B3F
 10
104.746
 20
48.1068
 30
2.33948e-14
  70
    32
  0
VERTEX
  8
0
  5
3B40
 10
104.680
 20
48.1068
 30
2.33800e-14
  70
    32
  0
VERTEX
  8
0
  5
3B41
 10
104.613
 20
48.1068
 30
2.33652e-14
  70
    32
  0
VERTEX
  8
0
  5
3B42
 10
104.546
 20
48.1068
 30
2.33504e-14
  70
    32
  0
VERTEX
  8
0
  5
3B43
 10
104.479
 20
48.1068
 30
2.33356e-14
  70
    32
  0
VERTEX
  8
0
  5
3B44
 10
104.413
 20
48.1068
 30
2.33208e-14
  70
    32
  0
VERTEX
  8
0
  5
3B45
 10
104.346
 20
48.1068
 30
2.33060e-14
  70
    32
  0
VERTEX
  8
0
  5
3B46
 10
104.279
 20
48.1068
 30
2.32912e-14
  70
    32
  0
VERTEX
  8
0
  5
3B47
 10
104.212
 20
48.1068
 30
2.32763e-14
  70
    32
  0
VERTEX
  8
0
  5
3B48
 10
104.145
 20
48.1068
 30
2.32615e-14
  70
    32
  0
VERTEX
  8
0
  5
3B49
 10
104.079
 20
48.1068
 30
2.32467e-14
  70
    32
  0
VERTEX
  8
0
  5
3B4A
 10
104.012
 20
48.1068
 30
2.32319e-14
  70
    32
  0
VERTEX
  8
0
  5
3B4B
 10
103.945
 20
48.1068
 30
2.32171e-14
  70
    32
  0
VERTEX
  8
0
  5
3B4C
 10
103.878
 20
48.1068
 30
2.32023e-14
  70
    32
  0
VERTEX
  8
0
  5
3B4D
 10
103.811
 20
48.1068
 30
2.31825e-14
  70
    32
  0
VERTEX
  8
0
  5
3B4E
 10
103.744
 20
48.1068
 30
2.31624e-14
  70
    32
  0
VERTEX
  8
0
  5
3B4F
 10
103.676
 20
48.1068
 30
2.31429e-14
  70
    32
  0
VERTEX
  8
0
  5
3B50
 10
103.608
 20
48.1068
 30
2.31241e-14
  70
    32
  0
VERTEX
  8
0
  5
3B51
 10
103.539
 20
48.1068
 30
2.31059e-14
  70
    32
  0
VERTEX
  8
0
  5
3B52
 10
103.470
 20
48.1068
 30
2.30882e-14
  70
    32
  0
VERTEX
  8
0
  5
3B53
 10
103.401
 20
48.1068
 30
2.30710e-14
  70
    32
  0
VERTEX
  8
0
  5
3B54
 10
103.331
 20
48.1068
 30
2.30543e-14
  70
    32
  0
VERTEX
  8
0
  5
3B55
 10
103.260
 20
48.1068
 30
2.30380e-14
  70
    32
  0
VERTEX
  8
0
  5
3B56
 10
103.189
 20
48.1068
 30
2.30221e-14
  70
    32
  0
VERTEX
  8
0
  5
3B57
 10
103.118
 20
48.1068
 30
2.30066e-14
  70
    32
  0
VERTEX
  8
0
  5
3B58
 10
103.046
 20
48.1068
 30
2.29914e-14
  70
    32
  0
VERTEX
  8
0
  5
3B59
 10
102.974
 20
48.1068
 30
2.29764e-14
  70
    32
  0
VERTEX
  8
0
  5
3B5A
 10
102.901
 20
48.1068
 30
2.29617e-14
  70
    32
  0
VERTEX
  8
0
  5
3B5B
 10
102.828
 20
48.1068
 30
2.29472e-14
  70
    32
  0
VERTEX
  8
0
  5
3B5C
 10
102.754
 20
48.1068
 30
2.29328e-14
  70
    32
  0
VERTEX
  8
0
  5
3B5D
 10
102.680
 20
48.1068
 30
2.29186e-14
  70
    32
  0
VERTEX
  8
0
  5
3B5E
 10
102.605
 20
48.1068
 30
2.29044e-14
  70
    32
  0
VERTEX
  8
0
  5
3B5F
 10
102.530
 20
48.1068
 30
2.28902e-14
  70
    32
  0
VERTEX
  8
0
  5
3B60
 10
102.454
 20
48.1068
 30
2.28761e-14
  70
    32
  0
VERTEX
  8
0
  5
3B61
 10
102.378
 20
48.1068
 30
2.28619e-14
  70
    32
  0
VERTEX
  8
0
  5
3B62
 10
102.301
 20
48.1068
 30
2.28476e-14
  70
    32
  0
VERTEX
  8
0
  5
3B63
 10
102.224
 20
48.1068
 30
2.28332e-14
  70
    32
  0
VERTEX
  8
0
  5
3B64
 10
102.146
 20
48.1068
 30
2.28186e-14
  70
    32
  0
VERTEX
  8
0
  5
3B65
 10
102.068
 20
48.1068
 30
2.28038e-14
  70
    32
  0
VERTEX
  8
0
  5
3B66
 10
101.989
 20
48.1068
 30
2.27888e-14
  70
    32
  0
VERTEX
  8
0
  5
3B67
 10
101.910
 20
48.1068
 30
2.27735e-14
  70
    32
  0
VERTEX
  8
0
  5
3B68
 10
101.830
 20
48.1068
 30
2.27579e-14
  70
    32
  0
VERTEX
  8
0
  5
3B69
 10
101.749
 20
48.1068
 30
2.27417e-14
  70
    32
  0
VERTEX
  8
0
  5
3B6A
 10
101.667
 20
48.1068
 30
2.27226e-14
  70
    32
  0
VERTEX
  8
0
  5
3B6B
 10
101.584
 20
48.1068
 30
2.27006e-14
  70
    32
  0
VERTEX
  8
0
  5
3B6C
 10
101.498
 20
48.1068
 30
2.26765e-14
  70
    32
  0
VERTEX
  8
0
  5
3B6D
 10
101.411
 20
48.1068
 30
2.26510e-14
  70
    32
  0
VERTEX
  8
0
  5
3B6E
 10
101.322
 20
48.1068
 30
2.26250e-14
  70
    32
  0
VERTEX
  8
0
  5
3B6F
 10
101.231
 20
48.1068
 30
2.25990e-14
  70
    32
  0
VERTEX
  8
0
  5
3B70
 10
101.138
 20
48.1068
 30
2.25740e-14
  70
    32
  0
VERTEX
  8
0
  5
3B71
 10
101.043
 20
48.1068
 30
2.25506e-14
  70
    32
  0
VERTEX
  8
0
  5
3B72
 10
100.947
 20
48.1068
 30
2.25295e-14
  70
    32
  0
VERTEX
  8
0
  5
3B73
 10
100.857
 20
48.1068
 30
2.25106e-14
  70
    32
  0
VERTEX
  8
0
  5
3B74
 10
100.775
 20
48.1067
 30
2.24935e-14
  70
    32
  0
VERTEX
  8
0
  5
3B75
 10
100.700
 20
48.1066
 30
2.24782e-14
  70
    32
  0
VERTEX
  8
0
  5
3B76
 10
100.632
 20
48.1066
 30
2.24645e-14
  70
    32
  0
VERTEX
  8
0
  5
3B77
 10
100.570
 20
48.1065
 30
2.24523e-14
  70
    32
  0
VERTEX
  8
0
  5
3B78
 10
100.514
 20
48.1065
 30
2.24414e-14
  70
    32
  0
VERTEX
  8
0
  5
3B79
 10
100.462
 20
48.1065
 30
2.24317e-14
  70
    32
  0
VERTEX
  8
0
  5
3B7A
 10
100.415
 20
48.1066
 30
2.24230e-14
  70
    32
  0
VERTEX
  8
0
  5
3B7B
 10
100.373
 20
48.1067
 30
2.24153e-14
  70
    32
  0
VERTEX
  8
0
  5
3B7C
 10
100.333
 20
48.1070
 30
2.24083e-14
  70
    32
  0
VERTEX
  8
0
  5
3B7D
 10
100.297
 20
48.1073
 30
2.24019e-14
  70
    32
  0
VERTEX
  8
0
  5
3B7E
 10
100.263
 20
48.1077
 30
2.23961e-14
  70
    32
  0
VERTEX
  8
0
  5
3B7F
 10
100.231
 20
48.1083
 30
2.23905e-14
  70
    32
  0
VERTEX
  8
0
  5
3B80
 10
100.201
 20
48.1090
 30
2.23852e-14
  70
    32
  0
VERTEX
  8
0
  5
3B81
 10
100.171
 20
48.1099
 30
2.23799e-14
  70
    32
  0
VERTEX
  8
0
  5
3B82
 10
100.142
 20
48.1109
 30
2.23746e-14
  70
    32
  0
VERTEX
  8
0
  5
3B83
 10
100.112
 20
48.1121
 30
2.23690e-14
  70
    32
  0
VERTEX
  8
0
  5
3B84
 10
100.082
 20
48.1136
 30
2.23631e-14
  70
    32
  0
VERTEX
  8
0
  5
3B85
 10
100.051
 20
48.1152
 30
2.23567e-14
  70
    32
  0
VERTEX
  8
0
  5
3B86
 10
100.018
 20
48.1170
 30
2.23498e-14
  70
    32
  0
VERTEX
  8
0
  5
3B87
 10
99.9845
 20
48.1190
 30
2.23427e-14
  70
    32
  0
VERTEX
  8
0
  5
3B88
 10
99.9513
 20
48.1213
 30
2.23355e-14
  70
    32
  0
VERTEX
  8
0
  5
3B89
 10
99.9180
 20
48.1237
 30
2.23283e-14
  70
    32
  0
VERTEX
  8
0
  5
3B8A
 10
99.8846
 20
48.1262
 30
2.23210e-14
  70
    32
  0
VERTEX
  8
0
  5
3B8B
 10
99.8511
 20
48.1290
 30
2.23136e-14
  70
    32
  0
VERTEX
  8
0
  5
3B8C
 10
99.8176
 20
48.1320
 30
2.23062e-14
  70
    32
  0
VERTEX
  8
0
  5
3B8D
 10
99.7840
 20
48.1352
 30
2.22988e-14
  70
    32
  0
VERTEX
  8
0
  5
3B8E
 10
99.7503
 20
48.1385
 30
2.22913e-14
  70
    32
  0
VERTEX
  8
0
  5
3B8F
 10
99.7166
 20
48.1421
 30
2.22837e-14
  70
    32
  0
VERTEX
  8
0
  5
3B90
 10
99.6827
 20
48.1458
 30
2.22761e-14
  70
    32
  0
VERTEX
  8
0
  5
3B91
 10
99.6489
 20
48.1498
 30
2.22685e-14
  70
    32
  0
VERTEX
  8
0
  5
3B92
 10
99.6149
 20
48.1540
 30
2.22608e-14
  70
    32
  0
VERTEX
  8
0
  5
3B93
 10
99.5809
 20
48.1583
 30
2.22530e-14
  70
    32
  0
VERTEX
  8
0
  5
3B94
 10
99.5468
 20
48.1629
 30
2.22452e-14
  70
    32
  0
VERTEX
  8
0
  5
3B95
 10
99.5127
 20
48.1677
 30
2.22374e-14
  70
    32
  0
VERTEX
  8
0
  5
3B96
 10
99.4785
 20
48.1727
 30
2.22296e-14
  70
    32
  0
VERTEX
  8
0
  5
3B97
 10
99.4442
 20
48.1779
 30
2.22217e-14
  70
    32
  0
VERTEX
  8
0
  5
3B98
 10
99.4099
 20
48.1833
 30
2.22137e-14
  70
    32
  0
VERTEX
  8
0
  5
3B99
 10
99.3755
 20
48.1889
 30
2.22058e-14
  70
    32
  0
VERTEX
  8
0
  5
3B9A
 10
99.3411
 20
48.1948
 30
2.21978e-14
  70
    32
  0
VERTEX
  8
0
  5
3B9B
 10
99.3066
 20
48.2008
 30
2.21897e-14
  70
    32
  0
VERTEX
  8
0
  5
3B9C
 10
99.2720
 20
48.2071
 30
2.21817e-14
  70
    32
  0
VERTEX
  8
0
  5
3B9D
 10
99.2374
 20
48.2136
 30
2.21736e-14
  70
    32
  0
VERTEX
  8
0
  5
3B9E
 10
99.2028
 20
48.2204
 30
2.21655e-14
  70
    32
  0
VERTEX
  8
0
  5
3B9F
 10
99.1681
 20
48.2273
 30
2.21574e-14
  70
    32
  0
VERTEX
  8
0
  5
3BA0
 10
99.1333
 20
48.2345
 30
2.21493e-14
  70
    32
  0
VERTEX
  8
0
  5
3BA1
 10
99.0985
 20
48.2419
 30
2.21411e-14
  70
    32
  0
VERTEX
  8
0
  5
3BA2
 10
99.0636
 20
48.2495
 30
2.21329e-14
  70
    32
  0
VERTEX
  8
0
  5
3BA3
 10
99.0287
 20
48.2574
 30
2.21247e-14
  70
    32
  0
VERTEX
  8
0
  5
3BA4
 10
98.9938
 20
48.2655
 30
2.21165e-14
  70
    32
  0
VERTEX
  8
0
  5
3BA5
 10
98.9588
 20
48.2738
 30
2.21083e-14
  70
    32
  0
VERTEX
  8
0
  5
3BA6
 10
98.9237
 20
48.2824
 30
2.21001e-14
  70
    32
  0
VERTEX
  8
0
  5
3BA7
 10
98.8886
 20
48.2912
 30
2.20919e-14
  70
    32
  0
VERTEX
  8
0
  5
3BA8
 10
98.8535
 20
48.3002
 30
2.20836e-14
  70
    32
  0
VERTEX
  8
0
  5
3BA9
 10
98.8183
 20
48.3095
 30
2.20754e-14
  70
    32
  0
VERTEX
  8
0
  5
3BAA
 10
98.7831
 20
48.3191
 30
2.20671e-14
  70
    32
  0
VERTEX
  8
0
  5
3BAB
 10
98.7478
 20
48.3289
 30
2.20589e-14
  70
    32
  0
VERTEX
  8
0
  5
3BAC
 10
98.7125
 20
48.3389
 30
2.20506e-14
  70
    32
  0
VERTEX
  8
0
  5
3BAD
 10
98.6772
 20
48.3491
 30
2.20424e-14
  70
    32
  0
VERTEX
  8
0
  5
3BAE
 10
98.6418
 20
48.3597
 30
2.20342e-14
  70
    32
  0
VERTEX
  8
0
  5
3BAF
 10
98.6064
 20
48.3704
 30
2.20259e-14
  70
    32
  0
VERTEX
  8
0
  5
3BB0
 10
98.5709
 20
48.3815
 30
2.20177e-14
  70
    32
  0
VERTEX
  8
0
  5
3BB1
 10
98.5354
 20
48.3928
 30
2.20095e-14
  70
    32
  0
VERTEX
  8
0
  5
3BB2
 10
98.4999
 20
48.4043
 30
2.20013e-14
  70
    32
  0
VERTEX
  8
0
  5
3BB3
 10
98.4644
 20
48.4161
 30
2.19931e-14
  70
    32
  0
VERTEX
  8
0
  5
3BB4
 10
98.4288
 20
48.4282
 30
2.19850e-14
  70
    32
  0
VERTEX
  8
0
  5
3BB5
 10
98.3932
 20
48.4405
 30
2.19768e-14
  70
    32
  0
VERTEX
  8
0
  5
3BB6
 10
98.3575
 20
48.4531
 30
2.19687e-14
  70
    32
  0
VERTEX
  8
0
  5
3BB7
 10
98.3219
 20
48.4659
 30
2.19606e-14
  70
    32
  0
VERTEX
  8
0
  5
3BB8
 10
98.2862
 20
48.4790
 30
2.19525e-14
  70
    32
  0
VERTEX
  8
0
  5
3BB9
 10
98.2505
 20
48.4924
 30
2.19444e-14
  70
    32
  0
VERTEX
  8
0
  5
3BBA
 10
98.2147
 20
48.5061
 30
2.19364e-14
  70
    32
  0
VERTEX
  8
0
  5
3BBB
 10
98.1789
 20
48.5200
 30
2.19284e-14
  70
    32
  0
VERTEX
  8
0
  5
3BBC
 10
98.1431
 20
48.5342
 30
2.19204e-14
  70
    32
  0
VERTEX
  8
0
  5
3BBD
 10
98.1073
 20
48.5487
 30
2.19125e-14
  70
    32
  0
VERTEX
  8
0
  5
3BBE
 10
98.0715
 20
48.5634
 30
2.19046e-14
  70
    32
  0
VERTEX
  8
0
  5
3BBF
 10
98.0356
 20
48.5784
 30
2.18967e-14
  70
    32
  0
VERTEX
  8
0
  5
3BC0
 10
97.9997
 20
48.5937
 30
2.18888e-14
  70
    32
  0
VERTEX
  8
0
  5
3BC1
 10
97.9638
 20
48.6093
 30
2.18810e-14
  70
    32
  0
VERTEX
  8
0
  5
3BC2
 10
97.9279
 20
48.6252
 30
2.18733e-14
  70
    32
  0
VERTEX
  8
0
  5
3BC3
 10
97.8920
 20
48.6414
 30
2.18656e-14
  70
    32
  0
VERTEX
  8
0
  5
3BC4
 10
97.8560
 20
48.6578
 30
2.18579e-14
  70
    32
  0
VERTEX
  8
0
  5
3BC5
 10
97.8201
 20
48.6746
 30
2.18503e-14
  70
    32
  0
VERTEX
  8
0
  5
3BC6
 10
97.7841
 20
48.6916
 30
2.18427e-14
  70
    32
  0
VERTEX
  8
0
  5
3BC7
 10
97.7481
 20
48.7089
 30
2.18351e-14
  70
    32
  0
VERTEX
  8
0
  5
3BC8
 10
97.7121
 20
48.7265
 30
2.18276e-14
  70
    32
  0
VERTEX
  8
0
  5
3BC9
 10
97.6761
 20
48.7444
 30
2.18198e-14
  70
    32
  0
VERTEX
  8
0
  5
3BCA
 10
97.6402
 20
48.7626
 30
2.18120e-14
  70
    32
  0
VERTEX
  8
0
  5
3BCB
 10
97.6042
 20
48.7811
 30
2.18041e-14
  70
    32
  0
VERTEX
  8
0
  5
3BCC
 10
97.5682
 20
48.7999
 30
2.17960e-14
  70
    32
  0
VERTEX
  8
0
  5
3BCD
 10
97.5323
 20
48.8190
 30
2.17878e-14
  70
    32
  0
VERTEX
  8
0
  5
3BCE
 10
97.4963
 20
48.8384
 30
2.17796e-14
  70
    32
  0
VERTEX
  8
0
  5
3BCF
 10
97.4604
 20
48.8581
 30
2.17713e-14
  70
    32
  0
VERTEX
  8
0
  5
3BD0
 10
97.4245
 20
48.8781
 30
2.17629e-14
  70
    32
  0
VERTEX
  8
0
  5
3BD1
 10
97.3887
 20
48.8984
 30
2.17544e-14
  70
    32
  0
VERTEX
  8
0
  5
3BD2
 10
97.3528
 20
48.9190
 30
2.17458e-14
  70
    32
  0
VERTEX
  8
0
  5
3BD3
 10
97.3170
 20
48.9399
 30
2.17372e-14
  70
    32
  0
VERTEX
  8
0
  5
3BD4
 10
97.2813
 20
48.9612
 30
2.17285e-14
  70
    32
  0
VERTEX
  8
0
  5
3BD5
 10
97.2455
 20
48.9827
 30
2.17197e-14
  70
    32
  0
VERTEX
  8
0
  5
3BD6
 10
97.2098
 20
49.0046
 30
2.17110e-14
  70
    32
  0
VERTEX
  8
0
  5
3BD7
 10
97.1742
 20
49.0268
 30
2.17021e-14
  70
    32
  0
VERTEX
  8
0
  5
3BD8
 10
97.1385
 20
49.0493
 30
2.16932e-14
  70
    32
  0
VERTEX
  8
0
  5
3BD9
 10
97.1030
 20
49.0722
 30
2.16843e-14
  70
    32
  0
VERTEX
  8
0
  5
3BDA
 10
97.0675
 20
49.0953
 30
2.16754e-14
  70
    32
  0
VERTEX
  8
0
  5
3BDB
 10
97.0320
 20
49.1188
 30
2.16665e-14
  70
    32
  0
VERTEX
  8
0
  5
3BDC
 10
96.9966
 20
49.1427
 30
2.16575e-14
  70
    32
  0
VERTEX
  8
0
  5
3BDD
 10
96.9612
 20
49.1668
 30
2.16485e-14
  70
    32
  0
VERTEX
  8
0
  5
3BDE
 10
96.9259
 20
49.1913
 30
2.16396e-14
  70
    32
  0
VERTEX
  8
0
  5
3BDF
 10
96.8907
 20
49.2161
 30
2.16306e-14
  70
    32
  0
VERTEX
  8
0
  5
3BE0
 10
96.8556
 20
49.2413
 30
2.16216e-14
  70
    32
  0
VERTEX
  8
0
  5
3BE1
 10
96.8205
 20
49.2668
 30
2.16127e-14
  70
    32
  0
VERTEX
  8
0
  5
3BE2
 10
96.7854
 20
49.2927
 30
2.16037e-14
  70
    32
  0
VERTEX
  8
0
  5
3BE3
 10
96.7505
 20
49.3189
 30
2.15948e-14
  70
    32
  0
VERTEX
  8
0
  5
3BE4
 10
96.7156
 20
49.3454
 30
2.15860e-14
  70
    32
  0
VERTEX
  8
0
  5
3BE5
 10
96.6808
 20
49.3723
 30
2.15771e-14
  70
    32
  0
VERTEX
  8
0
  5
3BE6
 10
96.6461
 20
49.3995
 30
2.15683e-14
  70
    32
  0
VERTEX
  8
0
  5
3BE7
 10
96.6115
 20
49.4271
 30
2.15596e-14
  70
    32
  0
VERTEX
  8
0
  5
3BE8
 10
96.5770
 20
49.4551
 30
2.15509e-14
  70
    32
  0
VERTEX
  8
0
  5
3BE9
 10
96.5426
 20
49.4834
 30
2.15422e-14
  70
    32
  0
VERTEX
  8
0
  5
3BEA
 10
96.5082
 20
49.5120
 30
2.15337e-14
  70
    32
  0
VERTEX
  8
0
  5
3BEB
 10
96.4740
 20
49.5411
 30
2.15252e-14
  70
    32
  0
VERTEX
  8
0
  5
3BEC
 10
96.4398
 20
49.5705
 30
2.15167e-14
  70
    32
  0
VERTEX
  8
0
  5
3BED
 10
96.4058
 20
49.6002
 30
2.15084e-14
  70
    32
  0
VERTEX
  8
0
  5
3BEE
 10
96.3718
 20
49.6303
 30
2.15001e-14
  70
    32
  0
VERTEX
  8
0
  5
3BEF
 10
96.3380
 20
49.6608
 30
2.14920e-14
  70
    32
  0
VERTEX
  8
0
  5
3BF0
 10
96.3043
 20
49.6917
 30
2.14839e-14
  70
    32
  0
VERTEX
  8
0
  5
3BF1
 10
96.2707
 20
49.7229
 30
2.14759e-14
  70
    32
  0
VERTEX
  8
0
  5
3BF2
 10
96.2372
 20
49.7545
 30
2.14681e-14
  70
    32
  0
VERTEX
  8
0
  5
3BF3
 10
96.2038
 20
49.7865
 30
2.14603e-14
  70
    32
  0
VERTEX
  8
0
  5
3BF4
 10
96.1706
 20
49.8188
 30
2.14527e-14
  70
    32
  0
VERTEX
  8
0
  5
3BF5
 10
96.1375
 20
49.8516
 30
2.14452e-14
  70
    32
  0
VERTEX
  8
0
  5
3BF6
 10
96.1045
 20
49.8847
 30
2.14379e-14
  70
    32
  0
VERTEX
  8
0
  5
3BF7
 10
96.0716
 20
49.9182
 30
2.14307e-14
  70
    32
  0
VERTEX
  8
0
  5
3BF8
 10
96.0389
 20
49.9521
 30
2.14236e-14
  70
    32
  0
VERTEX
  8
0
  5
3BF9
 10
96.0063
 20
49.9864
 30
2.14167e-14
  70
    32
  0
VERTEX
  8
0
  5
3BFA
 10
95.9738
 20
50.0211
 30
2.14099e-14
  70
    32
  0
VERTEX
  8
0
  5
3BFB
 10
95.9415
 20
50.0561
 30
2.14033e-14
  70
    32
  0
VERTEX
  8
0
  5
3BFC
 10
95.9093
 20
50.0916
 30
2.13968e-14
  70
    32
  0
VERTEX
  8
0
  5
3BFD
 10
95.8773
 20
50.1274
 30
2.13906e-14
  70
    32
  0
VERTEX
  8
0
  5
3BFE
 10
95.8454
 20
50.1637
 30
2.13844e-14
  70
    32
  0
VERTEX
  8
0
  5
3BFF
 10
95.8137
 20
50.2004
 30
2.13783e-14
  70
    32
  0
VERTEX
  8
0
  5
3C00
 10
95.7822
 20
50.2374
 30
2.13721e-14
  70
    32
  0
VERTEX
  8
0
  5
3C01
 10
95.7508
 20
50.2749
 30
2.13658e-14
  70
    32
  0
VERTEX
  8
0
  5
3C02
 10
95.7196
 20
50.3127
 30
2.13596e-14
  70
    32
  0
VERTEX
  8
0
  5
3C03
 10
95.6886
 20
50.3510
 30
2.13533e-14
  70
    32
  0
VERTEX
  8
0
  5
3C04
 10
95.6578
 20
50.3896
 30
2.13471e-14
  70
    32
  0
VERTEX
  8
0
  5
3C05
 10
95.6272
 20
50.4287
 30
2.13408e-14
  70
    32
  0
VERTEX
  8
0
  5
3C06
 10
95.5967
 20
50.4681
 30
2.13345e-14
  70
    32
  0
VERTEX
  8
0
  5
3C07
 10
95.5665
 20
50.5080
 30
2.13282e-14
  70
    32
  0
VERTEX
  8
0
  5
3C08
 10
95.5365
 20
50.5483
 30
2.13219e-14
  70
    32
  0
VERTEX
  8
0
  5
3C09
 10
95.5068
 20
50.5890
 30
2.13156e-14
  70
    32
  0
VERTEX
  8
0
  5
3C0A
 10
95.4772
 20
50.6301
 30
2.13093e-14
  70
    32
  0
VERTEX
  8
0
  5
3C0B
 10
95.4479
 20
50.6716
 30
2.13031e-14
  70
    32
  0
VERTEX
  8
0
  5
3C0C
 10
95.4189
 20
50.7136
 30
2.12968e-14
  70
    32
  0
VERTEX
  8
0
  5
3C0D
 10
95.3900
 20
50.7559
 30
2.12906e-14
  70
    32
  0
VERTEX
  8
0
  5
3C0E
 10
95.3614
 20
50.7987
 30
2.12844e-14
  70
    32
  0
VERTEX
  8
0
  5
3C0F
 10
95.3331
 20
50.8419
 30
2.12783e-14
  70
    32
  0
VERTEX
  8
0
  5
3C10
 10
95.3051
 20
50.8855
 30
2.12721e-14
  70
    32
  0
VERTEX
  8
0
  5
3C11
 10
95.2773
 20
50.9296
 30
2.12661e-14
  70
    32
  0
VERTEX
  8
0
  5
3C12
 10
95.2498
 20
50.9741
 30
2.12600e-14
  70
    32
  0
VERTEX
  8
0
  5
3C13
 10
95.2225
 20
51.0190
 30
2.12540e-14
  70
    32
  0
VERTEX
  8
0
  5
3C14
 10
95.1956
 20
51.0643
 30
2.12480e-14
  70
    32
  0
VERTEX
  8
0
  5
3C15
 10
95.1690
 20
51.1101
 30
2.12422e-14
  70
    32
  0
VERTEX
  8
0
  5
3C16
 10
95.1426
 20
51.1563
 30
2.12363e-14
  70
    32
  0
VERTEX
  8
0
  5
3C17
 10
95.1166
 20
51.2029
 30
2.12305e-14
  70
    32
  0
VERTEX
  8
0
  5
3C18
 10
95.0908
 20
51.2500
 30
2.12248e-14
  70
    32
  0
VERTEX
  8
0
  5
3C19
 10
95.0654
 20
51.2975
 30
2.12192e-14
  70
    32
  0
VERTEX
  8
0
  5
3C1A
 10
95.0403
 20
51.3454
 30
2.12136e-14
  70
    32
  0
VERTEX
  8
0
  5
3C1B
 10
95.0156
 20
51.3938
 30
2.12081e-14
  70
    32
  0
VERTEX
  8
0
  5
3C1C
 10
94.9911
 20
51.4427
 30
2.12027e-14
  70
    32
  0
VERTEX
  8
0
  5
3C1D
 10
94.9670
 20
51.4920
 30
2.11974e-14
  70
    32
  0
VERTEX
  8
0
  5
3C1E
 10
94.9433
 20
51.5417
 30
2.11921e-14
  70
    32
  0
VERTEX
  8
0
  5
3C1F
 10
94.9199
 20
51.5919
 30
2.11870e-14
  70
    32
  0
VERTEX
  8
0
  5
3C20
 10
94.8969
 20
51.6425
 30
2.11819e-14
  70
    32
  0
VERTEX
  8
0
  5
3C21
 10
94.8742
 20
51.6936
 30
2.11770e-14
  70
    32
  0
VERTEX
  8
0
  5
3C22
 10
94.8519
 20
51.7451
 30
2.11722e-14
  70
    32
  0
VERTEX
  8
0
  5
3C23
 10
94.8300
 20
51.7971
 30
2.11674e-14
  70
    32
  0
VERTEX
  8
0
  5
3C24
 10
94.8085
 20
51.8495
 30
2.11628e-14
  70
    32
  0
VERTEX
  8
0
  5
3C25
 10
94.7874
 20
51.9024
 30
2.11583e-14
  70
    32
  0
VERTEX
  8
0
  5
3C26
 10
94.7666
 20
51.9558
 30
2.11539e-14
  70
    32
  0
VERTEX
  8
0
  5
3C27
 10
94.7463
 20
52.0096
 30
2.11497e-14
  70
    32
  0
VERTEX
  8
0
  5
3C28
 10
94.7263
 20
52.0639
 30
2.11456e-14
  70
    32
  0
VERTEX
  8
0
  5
3C29
 10
94.7068
 20
52.1186
 30
2.11416e-14
  70
    32
  0
VERTEX
  8
0
  5
3C2A
 10
94.6877
 20
52.1738
 30
2.11378e-14
  70
    32
  0
VERTEX
  8
0
  5
3C2B
 10
94.6690
 20
52.2295
 30
2.11342e-14
  70
    32
  0
VERTEX
  8
0
  5
3C2C
 10
94.6508
 20
52.2856
 30
2.11309e-14
  70
    32
  0
VERTEX
  8
0
  5
3C2D
 10
94.6331
 20
52.3422
 30
2.11278e-14
  70
    32
  0
VERTEX
  8
0
  5
3C2E
 10
94.6158
 20
52.3992
 30
2.11250e-14
  70
    32
  0
VERTEX
  8
0
  5
3C2F
 10
94.5990
 20
52.4567
 30
2.11223e-14
  70
    32
  0
VERTEX
  8
0
  5
3C30
 10
94.5827
 20
52.5146
 30
2.11198e-14
  70
    32
  0
VERTEX
  8
0
  5
3C31
 10
94.5669
 20
52.5730
 30
2.11175e-14
  70
    32
  0
VERTEX
  8
0
  5
3C32
 10
94.5516
 20
52.6318
 30
2.11154e-14
  70
    32
  0
VERTEX
  8
0
  5
3C33
 10
94.5368
 20
52.6911
 30
2.11135e-14
  70
    32
  0
VERTEX
  8
0
  5
3C34
 10
94.5226
 20
52.7508
 30
2.11117e-14
  70
    32
  0
VERTEX
  8
0
  5
3C35
 10
94.5089
 20
52.8110
 30
2.11101e-14
  70
    32
  0
VERTEX
  8
0
  5
3C36
 10
94.4958
 20
52.8716
 30
2.11087e-14
  70
    32
  0
VERTEX
  8
0
  5
3C37
 10
94.4832
 20
52.9327
 30
2.11074e-14
  70
    32
  0
VERTEX
  8
0
  5
3C38
 10
94.4713
 20
52.9942
 30
2.11062e-14
  70
    32
  0
VERTEX
  8
0
  5
3C39
 10
94.4599
 20
53.0561
 30
2.11052e-14
  70
    32
  0
VERTEX
  8
0
  5
3C3A
 10
94.4491
 20
53.1185
 30
2.11043e-14
  70
    32
  0
VERTEX
  8
0
  5
3C3B
 10
94.4390
 20
53.1814
 30
2.11035e-14
  70
    32
  0
VERTEX
  8
0
  5
3C3C
 10
94.4294
 20
53.2446
 30
2.11028e-14
  70
    32
  0
VERTEX
  8
0
  5
3C3D
 10
94.4205
 20
53.3083
 30
2.11022e-14
  70
    32
  0
VERTEX
  8
0
  5
3C3E
 10
94.4123
 20
53.3725
 30
2.11017e-14
  70
    32
  0
VERTEX
  8
0
  5
3C3F
 10
94.4047
 20
53.4371
 30
2.11013e-14
  70
    32
  0
VERTEX
  8
0
  5
3C40
 10
94.3978
 20
53.5021
 30
2.11009e-14
  70
    32
  0
VERTEX
  8
0
  5
3C41
 10
94.3916
 20
53.5676
 30
2.11006e-14
  70
    32
  0
VERTEX
  8
0
  5
3C42
 10
94.3861
 20
53.6334
 30
2.11004e-14
  70
    32
  0
VERTEX
  8
0
  5
3C43
 10
94.3813
 20
53.6998
 30
2.11003e-14
  70
    32
  0
VERTEX
  8
0
  5
3C44
 10
94.3772
 20
53.7665
 30
2.11002e-14
  70
    32
  0
VERTEX
  8
0
  5
3C45
 10
94.3738
 20
53.8337
 30
2.11001e-14
  70
    32
  0
VERTEX
  8
0
  5
3C46
 10
94.3712
 20
53.9013
 30
2.11000e-14
  70
    32
  0
VERTEX
  8
0
  5
3C47
 10
94.3693
 20
53.9694
 30
2.11000e-14
  70
    32
  0
VERTEX
  8
0
  5
3C48
 10
94.3682
 20
54.0379
 30
2.11000e-14
  70
    32
  0
VERTEX
  8
0
  5
3C49
 10
94.3678
 20
54.1068
 30
2.11000e-14
  70
    32
  0
SEQEND
  8
0
  5
3C4A
  0
LINE
  5
2E37
  8
0
  6
CONTINUOUS
 62
     3
 10
126.8178285839777004
 20
24.1067960236255594
 30
0.0
 11
126.8178285839777004
 21
84.106796023625563
 31
0.0
  0
CIRCLE
  5
2E38
  8
0
  6
CONTINUOUS
 62
     3
 10
22.1257652260038107
 20
54.1068560156146035
 30
0.0
 40
49.0000000000000497
  0
CIRCLE
  5
2E39
  8
0
  6
CONTINUOUS
 62
     3
 10
22.1257652260038213
 20
54.1068560156146035
 30
0.0
 40
48.0154442465725424
  0
CIRCLE
  5
2E3A
  8
0
  6
CONTINUOUS
 62
     3
 10
22.1257652260038391
 20
54.1068560156146035
 30
0.0
 40
55.706755837924959
  0
CIRCLE
  5
2E3B
  8
0
  6
CONTINUOUS
 62
     3
 10
22.1257652260038391
 20
54.1068560156146035
 30
0.0
 40
53.894140263851682
  0
CIRCLE
  5
2E3C
  8
0
  6
CONTINUOUS
 62
     3
 10
22.1257652260038284
 20
54.1068560156146035
 30
0.0
 40
59.0000000003116583
  0
CIRCLE
  5
2E3D
  8
0
  6
CONTINUOUS
 62
     3
 10
22.1257652260038213
 20
54.1068560156146035
 30
0.0
 40
52.9999999980956034
  0
LINE
  5
2E3E
  8
0
  6
VERDECKT2
 10
-21.5662981319696208
 20
24.1067960236255594
 30
0.0
 11
-28.6777425319632293
 21
24.1067960236255594
 31
-0.0000000000000016
  0
LINE
  5
2E3F
  8
0
  6
VERDECKT2
 10
-28.6778133837014302
 20
84.1067960236255345
 30
0.0
 11
-21.5663805157181905
 21
84.1067960236255345
 31
0.0000000000000016
  0
LINE
  5
2E40
  8
0
  6
VERDECKT2
 10
65.8178285839772599
 20
24.1067960236255594
 30
0.0
 11
72.9292729839708755
 21
24.1067960236255594
 31
0.0000000000000016
  0
LINE
  5
2E41
  8
0
  6
VERDECKT2
 10
72.9293438357090764
 20
84.1067960236255345
 30
0.0
 11
65.8179109677258367
 21
84.1067960236255345
 31
-0.0000000000000016
  0
CIRCLE
  5
2E42
  8
0
  6
VERDECKT2
 10
22.1257652260038107
 20
54.1068560156146035
 30
0.0
 40
51.0000000000001208
  0
CIRCLE
  5
2E43
  8
0
  6
VERDECKT2
 10
22.1257652260038213
 20
54.1068560156146035
 30
0.0
 40
50.0
  0
CIRCLE
  5
2E44
  8
0
  6
VERDECKT2
 10
22.1257652260038213
 20
54.1068560156146035
 30
0.0
 40
55.0000000000000568
  0
CIRCLE
  5
2E45
  8
0
  6
VERDECKT2
 10
22.1257652260038284
 20
54.1068560156146035
 30
0.0
 40
57.0000000000000568
  0
ENDBLK
  5
2E47
  8
0
  0
BLOCK
  8
0
  2
A$C26D85E9A
 70
     0
 10
0.0
 20
0.0
 30
0.0
  3
A$C26D85E9A
  1

  0
LINE
  5
2E65
  8
0
  6
CONTINUOUS
 62
     3
 10
-21.5662981319701395
 20
316.7019258755927922
 30
-0.0000000000000703
 11
-21.5662981319701395
 21
310.7019258755926785
 31
-0.000000000000069
210
0.0
220
1.0
230
-0.0000000000000002
  0
LINE
  5
2E66
  8
0
  6
CONTINUOUS
 62
     3
 10
-21.5662981319696883
 20
310.7019258755926785
 30
-0.000000000000069
 11
-82.5662981319701288
 21
310.7019258755926785
 31
-0.000000000000069
210
0.0
220
1.0
230
-0.0000000000000002
  0
LINE
  5
2E67
  8
0
  6
CONTINUOUS
 62
     3
 10
-21.5662981319696883
 20
316.7019258755927922
 30
-0.0000000000000703
 11
-82.5662981319701288
 21
316.7019258755927922
 31
-0.0000000000000703
210
0.0
220
1.0
230
-0.0000000000000002
  0
LINE
  5
2E68
  8
0
  6
CONTINUOUS
 62
     3
 10
-82.5662981319701288
 20
310.7019258755926785
 30
-0.000000000000069
 11
-82.5662981319701288
 21
316.7019258755927922
 31
-0.0000000000000703
210
0.0
220
1.0
230
-0.0000000000000002
  0
LINE
  5
2E69
  8
0
  6
CONTINUOUS
 62
     3
 10
65.8178285839776436
 20
316.7019258755927922
 30
-0.0000000000000703
 11
65.8178285839776436
 21
310.7019258755926785
 31
-0.000000000000069
210
0.0
220
1.0
230
-0.0000000000000002
  0
LINE
  5
2E6A
  8
0
  6
CONTINUOUS
 62
     3
 10
65.8178285839771888
 20
310.7019258755926785
 30
-0.000000000000069
 11
126.8178285839776009
 21
310.7019258755926785
 31
-0.000000000000069
210
0.0
220
1.0
230
-0.0000000000000002
  0
LINE
  5
2E6B
  8
0
  6
CONTINUOUS
 62
     3
 10
126.8178285839776009
 20
310.7019258755926785
 30
-0.000000000000069
 11
126.8178285839776009
 21
316.7019258755927922
 31
-0.0000000000000703
210
0.0
220
1.0
230
-0.0000000000000002
  0
LINE
  5
2E6C
  8
0
  6
CONTINUOUS
 62
     3
 10
65.8178285839771888
 20
316.7019258755927922
 30
-0.0000000000000703
 11
126.8178285839776009
 21
316.7019258755927922
 31
-0.0000000000000703
210
0.0
220
1.0
230
-0.0000000000000002
  0
LINE
  5
2E6D
  8
0
  6
CONTINUOUS
 62
     3
 10
72.1257652260038071
 20
81.6933496253712974
 30
-0.0000000000000181
 11
-27.8742347739961893
 21
81.6933496253713258
 31
-0.0000000000000181
210
0.0
220
1.0
230
-0.0000000000000002
  0
LINE
  5
2E6E
  8
0
  6
CONTINUOUS
 62
     3
 10
-33.5809906119212087
 20
401.6933496253714111
 30
-0.0000000000000892
 11
77.8325210639287093
 21
401.6933496253714111
 31
-0.0000000000000892
210
0.0
220
1.0
230
-0.0000000000000002
  0
ARC
  5
2E6F
  8
0
  6
CONTINUOUS
 62
     3
 10
-63.1257652259991531
 20
90.3159271083577835
 30
0.0
 40
10.0000000000047606
210
0.0
220
-0.0000000000000002
230
-1.0
 50
180.0000000000013074
 51
187.1250163489006013
  0
ARC
  5
2E70
  8
0
  6
CONTINUOUS
 62
     3
 10
18.8742347739970207
 20
90.3159271083574993
 30
0.0
 40
9.9999999999992824
210
0.0
220
-0.0000000000000002
230
-1.0
 50
352.8749836510970113
 51
0.0000000000002544
  0
LINE
  5
2E71
  8
0
  6
CONTINUOUS
 62
     3
 10
73.1257652260039634
 20
325.6593571055030907
 30
-0.0000000000000723
 11
73.1257652260039634
 21
316.7019258755927922
 31
-0.0000000000000703
210
0.0
220
1.0
230
-0.0000000000000002
  0
LINE
  5
2E72
  8
0
  6
CONTINUOUS
 62
     3
 10
73.1257652260039634
 20
310.7019258755926785
 30
-0.000000000000069
 11
73.1257652260039208
 21
90.3159271083575419
 31
-0.0000000000000201
210
0.0
220
1.0
230
-0.0000000000000002
  0
LINE
  5
2E73
  8
0
  6
CONTINUOUS
 62
     3
 10
-28.874234773996271
 20
325.6593571055033181
 30
-0.0000000000000723
 11
-28.874234773996271
 21
316.7019258755927922
 31
-0.0000000000000703
210
0.0
220
1.0
230
-0.0000000000000002
  0
LINE
  5
2E74
  8
0
  6
CONTINUOUS
 62
     3
 10
-28.874234773996271
 20
310.7019258755926785
 30
-0.000000000000069
 11
-28.8742347739963101
 21
90.3159271083575419
 31
-0.0000000000000201
210
0.0
220
1.0
230
-0.0000000000000002
  0
LINE
  5
2E75
  8
0
  6
CONTINUOUS
 62
     3
 10
-27.8742347739961396
 20
81.6933496253713258
 30
-0.0000000000000181
 11
-28.7970135411329906
 21
89.0755797624653098
 31
-0.0000000000000198
210
0.0
220
1.0
230
-0.0000000000000002
  0
LINE
  5
2E76
  8
0
  6
CONTINUOUS
 62
     3
 10
72.1257652260037503
 20
81.6933496253713116
 30
-0.0000000000000181
 11
73.048543993140612
 21
89.0755797624652956
 31
-0.0000000000000198
210
0.0
220
1.0
230
-0.0000000000000002
  0
POLYLINE
  5
2E77
  8
0
  6
CONTINUOUS
 62
     3
 10
-33.5809906119829975
 20
401.6933496253768681
 30
-0.0000000000000891
 66
     1
 70
     8
  0
VERTEX
  8
0
  5
3C4B
 10
-33.5810
 20
401.693
 30
-8.91000e-14
  70
    32
  0
VERTEX
  8
0
  5
3C4C
 10
-33.5884
 20
401.677
 30
-8.90968e-14
  70
    32
  0
VERTEX
  8
0
  5
3C4D
 10
-33.5958
 20
401.661
 30
-8.90936e-14
  70
    32
  0
VERTEX
  8
0
  5
3C4E
 10
-33.6033
 20
401.646
 30
-8.90904e-14
  70
    32
  0
VERTEX
  8
0
  5
3C4F
 10
-33.6107
 20
401.630
 30
-8.90873e-14
  70
    32
  0
VERTEX
  8
0
  5
3C50
 10
-33.6181
 20
401.614
 30
-8.90841e-14
  70
    32
  0
VERTEX
  8
0
  5
3C51
 10
-33.6256
 20
401.598
 30
-8.90809e-14
  70
    32
  0
VERTEX
  8
0
  5
3C52
 10
-33.6330
 20
401.582
 30
-8.90777e-14
  70
    32
  0
VERTEX
  8
0
  5
3C53
 10
-33.6404
 20
401.566
 30
-8.90745e-14
  70
    32
  0
VERTEX
  8
0
  5
3C54
 10
-33.6479
 20
401.550
 30
-8.90713e-14
  70
    32
  0
VERTEX
  8
0
  5
3C55
 10
-33.6553
 20
401.534
 30
-8.90681e-14
  70
    32
  0
VERTEX
  8
0
  5
3C56
 10
-33.6627
 20
401.518
 30
-8.90649e-14
  70
    32
  0
VERTEX
  8
0
  5
3C57
 10
-33.6701
 20
401.502
 30
-8.90618e-14
  70
    32
  0
VERTEX
  8
0
  5
3C58
 10
-33.6776
 20
401.486
 30
-8.90586e-14
  70
    32
  0
VERTEX
  8
0
  5
3C59
 10
-33.6850
 20
401.470
 30
-8.90554e-14
  70
    32
  0
VERTEX
  8
0
  5
3C5A
 10
-33.6924
 20
401.454
 30
-8.90522e-14
  70
    32
  0
VERTEX
  8
0
  5
3C5B
 10
-33.6999
 20
401.438
 30
-8.90490e-14
  70
    32
  0
VERTEX
  8
0
  5
3C5C
 10
-33.7073
 20
401.423
 30
-8.90458e-14
  70
    32
  0
VERTEX
  8
0
  5
3C5D
 10
-33.7147
 20
401.407
 30
-8.90426e-14
  70
    32
  0
VERTEX
  8
0
  5
3C5E
 10
-33.7221
 20
401.391
 30
-8.90395e-14
  70
    32
  0
VERTEX
  8
0
  5
3C5F
 10
-33.7296
 20
401.375
 30
-8.90363e-14
  70
    32
  0
VERTEX
  8
0
  5
3C60
 10
-33.7370
 20
401.359
 30
-8.90331e-14
  70
    32
  0
VERTEX
  8
0
  5
3C61
 10
-33.7444
 20
401.343
 30
-8.90299e-14
  70
    32
  0
VERTEX
  8
0
  5
3C62
 10
-33.7519
 20
401.327
 30
-8.90267e-14
  70
    32
  0
VERTEX
  8
0
  5
3C63
 10
-33.7593
 20
401.311
 30
-8.90235e-14
  70
    32
  0
VERTEX
  8
0
  5
3C64
 10
-33.7667
 20
401.295
 30
-8.90203e-14
  70
    32
  0
VERTEX
  8
0
  5
3C65
 10
-33.7741
 20
401.279
 30
-8.90172e-14
  70
    32
  0
VERTEX
  8
0
  5
3C66
 10
-33.7816
 20
401.263
 30
-8.90140e-14
  70
    32
  0
VERTEX
  8
0
  5
3C67
 10
-33.7890
 20
401.247
 30
-8.90108e-14
  70
    32
  0
VERTEX
  8
0
  5
3C68
 10
-33.7964
 20
401.231
 30
-8.90076e-14
  70
    32
  0
VERTEX
  8
0
  5
3C69
 10
-33.8039
 20
401.215
 30
-8.90044e-14
  70
    32
  0
VERTEX
  8
0
  5
3C6A
 10
-33.8113
 20
401.199
 30
-8.90012e-14
  70
    32
  0
VERTEX
  8
0
  5
3C6B
 10
-33.8187
 20
401.184
 30
-8.89980e-14
  70
    32
  0
VERTEX
  8
0
  5
3C6C
 10
-33.8262
 20
401.168
 30
-8.89948e-14
  70
    32
  0
VERTEX
  8
0
  5
3C6D
 10
-33.8336
 20
401.152
 30
-8.89917e-14
  70
    32
  0
VERTEX
  8
0
  5
3C6E
 10
-33.8410
 20
401.136
 30
-8.89885e-14
  70
    32
  0
VERTEX
  8
0
  5
3C6F
 10
-33.8484
 20
401.120
 30
-8.89853e-14
  70
    32
  0
VERTEX
  8
0
  5
3C70
 10
-33.8559
 20
401.104
 30
-8.89821e-14
  70
    32
  0
VERTEX
  8
0
  5
3C71
 10
-33.8633
 20
401.088
 30
-8.89789e-14
  70
    32
  0
VERTEX
  8
0
  5
3C72
 10
-33.8707
 20
401.072
 30
-8.89757e-14
  70
    32
  0
VERTEX
  8
0
  5
3C73
 10
-33.8782
 20
401.056
 30
-8.89725e-14
  70
    32
  0
VERTEX
  8
0
  5
3C74
 10
-33.8856
 20
401.040
 30
-8.89694e-14
  70
    32
  0
VERTEX
  8
0
  5
3C75
 10
-33.8930
 20
401.024
 30
-8.89662e-14
  70
    32
  0
VERTEX
  8
0
  5
3C76
 10
-33.9004
 20
401.008
 30
-8.89630e-14
  70
    32
  0
VERTEX
  8
0
  5
3C77
 10
-33.9079
 20
400.992
 30
-8.89598e-14
  70
    32
  0
VERTEX
  8
0
  5
3C78
 10
-33.9153
 20
400.976
 30
-8.89566e-14
  70
    32
  0
VERTEX
  8
0
  5
3C79
 10
-33.9227
 20
400.960
 30
-8.89534e-14
  70
    32
  0
VERTEX
  8
0
  5
3C7A
 10
-33.9302
 20
400.945
 30
-8.89502e-14
  70
    32
  0
VERTEX
  8
0
  5
3C7B
 10
-33.9376
 20
400.929
 30
-8.89471e-14
  70
    32
  0
VERTEX
  8
0
  5
3C7C
 10
-33.9450
 20
400.913
 30
-8.89439e-14
  70
    32
  0
VERTEX
  8
0
  5
3C7D
 10
-33.9524
 20
400.897
 30
-8.89407e-14
  70
    32
  0
VERTEX
  8
0
  5
3C7E
 10
-33.9599
 20
400.881
 30
-8.89375e-14
  70
    32
  0
VERTEX
  8
0
  5
3C7F
 10
-33.9673
 20
400.865
 30
-8.89343e-14
  70
    32
  0
VERTEX
  8
0
  5
3C80
 10
-33.9747
 20
400.849
 30
-8.89311e-14
  70
    32
  0
VERTEX
  8
0
  5
3C81
 10
-33.9822
 20
400.833
 30
-8.89279e-14
  70
    32
  0
VERTEX
  8
0
  5
3C82
 10
-33.9896
 20
400.817
 30
-8.89247e-14
  70
    32
  0
VERTEX
  8
0
  5
3C83
 10
-33.9970
 20
400.801
 30
-8.89216e-14
  70
    32
  0
VERTEX
  8
0
  5
3C84
 10
-34.0045
 20
400.785
 30
-8.89184e-14
  70
    32
  0
VERTEX
  8
0
  5
3C85
 10
-34.0119
 20
400.769
 30
-8.89152e-14
  70
    32
  0
VERTEX
  8
0
  5
3C86
 10
-34.0193
 20
400.753
 30
-8.89120e-14
  70
    32
  0
VERTEX
  8
0
  5
3C87
 10
-34.0267
 20
400.737
 30
-8.89088e-14
  70
    32
  0
VERTEX
  8
0
  5
3C88
 10
-34.0342
 20
400.721
 30
-8.89056e-14
  70
    32
  0
VERTEX
  8
0
  5
3C89
 10
-34.0416
 20
400.706
 30
-8.89024e-14
  70
    32
  0
VERTEX
  8
0
  5
3C8A
 10
-34.0490
 20
400.690
 30
-8.88993e-14
  70
    32
  0
VERTEX
  8
0
  5
3C8B
 10
-34.0565
 20
400.674
 30
-8.88961e-14
  70
    32
  0
VERTEX
  8
0
  5
3C8C
 10
-34.0639
 20
400.658
 30
-8.88929e-14
  70
    32
  0
VERTEX
  8
0
  5
3C8D
 10
-34.0713
 20
400.642
 30
-8.88897e-14
  70
    32
  0
VERTEX
  8
0
  5
3C8E
 10
-34.0787
 20
400.626
 30
-8.88865e-14
  70
    32
  0
VERTEX
  8
0
  5
3C8F
 10
-34.0862
 20
400.610
 30
-8.88833e-14
  70
    32
  0
VERTEX
  8
0
  5
3C90
 10
-34.0936
 20
400.594
 30
-8.88801e-14
  70
    32
  0
VERTEX
  8
0
  5
3C91
 10
-34.1010
 20
400.578
 30
-8.88770e-14
  70
    32
  0
VERTEX
  8
0
  5
3C92
 10
-34.1085
 20
400.562
 30
-8.88738e-14
  70
    32
  0
VERTEX
  8
0
  5
3C93
 10
-34.1159
 20
400.546
 30
-8.88706e-14
  70
    32
  0
VERTEX
  8
0
  5
3C94
 10
-34.1233
 20
400.530
 30
-8.88674e-14
  70
    32
  0
VERTEX
  8
0
  5
3C95
 10
-34.1307
 20
400.514
 30
-8.88642e-14
  70
    32
  0
VERTEX
  8
0
  5
3C96
 10
-34.1382
 20
400.498
 30
-8.88610e-14
  70
    32
  0
VERTEX
  8
0
  5
3C97
 10
-34.1456
 20
400.483
 30
-8.88578e-14
  70
    32
  0
VERTEX
  8
0
  5
3C98
 10
-34.1530
 20
400.467
 30
-8.88546e-14
  70
    32
  0
VERTEX
  8
0
  5
3C99
 10
-34.1605
 20
400.451
 30
-8.88515e-14
  70
    32
  0
VERTEX
  8
0
  5
3C9A
 10
-34.1679
 20
400.435
 30
-8.88483e-14
  70
    32
  0
VERTEX
  8
0
  5
3C9B
 10
-34.1753
 20
400.419
 30
-8.88451e-14
  70
    32
  0
VERTEX
  8
0
  5
3C9C
 10
-34.1828
 20
400.403
 30
-8.88419e-14
  70
    32
  0
VERTEX
  8
0
  5
3C9D
 10
-34.1902
 20
400.387
 30
-8.88387e-14
  70
    32
  0
VERTEX
  8
0
  5
3C9E
 10
-34.1976
 20
400.371
 30
-8.88355e-14
  70
    32
  0
VERTEX
  8
0
  5
3C9F
 10
-34.2050
 20
400.355
 30
-8.88323e-14
  70
    32
  0
VERTEX
  8
0
  5
3CA0
 10
-34.2125
 20
400.339
 30
-8.88292e-14
  70
    32
  0
VERTEX
  8
0
  5
3CA1
 10
-34.2199
 20
400.323
 30
-8.88260e-14
  70
    32
  0
VERTEX
  8
0
  5
3CA2
 10
-34.2273
 20
400.307
 30
-8.88228e-14
  70
    32
  0
VERTEX
  8
0
  5
3CA3
 10
-34.2348
 20
400.291
 30
-8.88196e-14
  70
    32
  0
VERTEX
  8
0
  5
3CA4
 10
-34.2422
 20
400.275
 30
-8.88164e-14
  70
    32
  0
VERTEX
  8
0
  5
3CA5
 10
-34.2496
 20
400.259
 30
-8.88132e-14
  70
    32
  0
VERTEX
  8
0
  5
3CA6
 10
-34.2570
 20
400.244
 30
-8.88100e-14
  70
    32
  0
VERTEX
  8
0
  5
3CA7
 10
-34.2645
 20
400.228
 30
-8.88069e-14
  70
    32
  0
VERTEX
  8
0
  5
3CA8
 10
-34.2719
 20
400.212
 30
-8.88037e-14
  70
    32
  0
VERTEX
  8
0
  5
3CA9
 10
-34.2793
 20
400.196
 30
-8.88005e-14
  70
    32
  0
VERTEX
  8
0
  5
3CAA
 10
-34.2868
 20
400.180
 30
-8.87973e-14
  70
    32
  0
VERTEX
  8
0
  5
3CAB
 10
-34.2942
 20
400.164
 30
-8.87941e-14
  70
    32
  0
VERTEX
  8
0
  5
3CAC
 10
-34.3016
 20
400.148
 30
-8.87909e-14
  70
    32
  0
VERTEX
  8
0
  5
3CAD
 10
-34.3091
 20
400.132
 30
-8.87877e-14
  70
    32
  0
VERTEX
  8
0
  5
3CAE
 10
-34.3165
 20
400.116
 30
-8.87845e-14
  70
    32
  0
VERTEX
  8
0
  5
3CAF
 10
-34.3239
 20
400.100
 30
-8.87814e-14
  70
    32
  0
VERTEX
  8
0
  5
3CB0
 10
-34.3313
 20
400.084
 30
-8.87782e-14
  70
    32
  0
VERTEX
  8
0
  5
3CB1
 10
-34.3388
 20
400.068
 30
-8.87750e-14
  70
    32
  0
VERTEX
  8
0
  5
3CB2
 10
-34.3462
 20
400.052
 30
-8.87718e-14
  70
    32
  0
VERTEX
  8
0
  5
3CB3
 10
-34.3536
 20
400.036
 30
-8.87686e-14
  70
    32
  0
VERTEX
  8
0
  5
3CB4
 10
-34.3611
 20
400.020
 30
-8.87654e-14
  70
    32
  0
VERTEX
  8
0
  5
3CB5
 10
-34.3685
 20
400.005
 30
-8.87622e-14
  70
    32
  0
VERTEX
  8
0
  5
3CB6
 10
-34.3759
 20
399.989
 30
-8.87591e-14
  70
    32
  0
VERTEX
  8
0
  5
3CB7
 10
-34.3833
 20
399.973
 30
-8.87559e-14
  70
    32
  0
VERTEX
  8
0
  5
3CB8
 10
-34.3908
 20
399.957
 30
-8.87527e-14
  70
    32
  0
VERTEX
  8
0
  5
3CB9
 10
-34.3982
 20
399.941
 30
-8.87495e-14
  70
    32
  0
VERTEX
  8
0
  5
3CBA
 10
-34.4056
 20
399.925
 30
-8.87463e-14
  70
    32
  0
VERTEX
  8
0
  5
3CBB
 10
-34.4131
 20
399.909
 30
-8.87431e-14
  70
    32
  0
VERTEX
  8
0
  5
3CBC
 10
-34.4205
 20
399.893
 30
-8.87399e-14
  70
    32
  0
VERTEX
  8
0
  5
3CBD
 10
-34.4279
 20
399.877
 30
-8.87368e-14
  70
    32
  0
VERTEX
  8
0
  5
3CBE
 10
-34.4353
 20
399.861
 30
-8.87336e-14
  70
    32
  0
VERTEX
  8
0
  5
3CBF
 10
-34.4428
 20
399.845
 30
-8.87304e-14
  70
    32
  0
VERTEX
  8
0
  5
3CC0
 10
-34.4502
 20
399.829
 30
-8.87272e-14
  70
    32
  0
VERTEX
  8
0
  5
3CC1
 10
-34.4576
 20
399.813
 30
-8.87240e-14
  70
    32
  0
VERTEX
  8
0
  5
3CC2
 10
-34.4651
 20
399.797
 30
-8.87208e-14
  70
    32
  0
VERTEX
  8
0
  5
3CC3
 10
-34.4725
 20
399.782
 30
-8.87176e-14
  70
    32
  0
VERTEX
  8
0
  5
3CC4
 10
-34.4799
 20
399.766
 30
-8.87144e-14
  70
    32
  0
VERTEX
  8
0
  5
3CC5
 10
-34.4874
 20
399.750
 30
-8.87113e-14
  70
    32
  0
VERTEX
  8
0
  5
3CC6
 10
-34.4948
 20
399.734
 30
-8.87081e-14
  70
    32
  0
VERTEX
  8
0
  5
3CC7
 10
-34.5022
 20
399.718
 30
-8.87049e-14
  70
    32
  0
VERTEX
  8
0
  5
3CC8
 10
-34.5096
 20
399.702
 30
-8.87017e-14
  70
    32
  0
VERTEX
  8
0
  5
3CC9
 10
-34.5171
 20
399.686
 30
-8.86985e-14
  70
    32
  0
VERTEX
  8
0
  5
3CCA
 10
-34.5245
 20
399.670
 30
-8.86953e-14
  70
    32
  0
VERTEX
  8
0
  5
3CCB
 10
-34.5319
 20
399.654
 30
-8.86921e-14
  70
    32
  0
SEQEND
  8
0
  5
3CCC
  0
ARC
  5
2E78
  8
0
  6
CONTINUOUS
 62
     3
 10
-204281.8130227214132901
 20
95622.3319206714950269
 30
0.0
 40
225313.6384300760983024
210
0.0
220
-0.0000000000000002
230
-1.0
 50
334.9997139055454909
 51
335.0002860945098178
  0
ARC
  5
2E79
  8
0
  6
CONTINUOUS
 62
     3
 10
11.8747978427480501
 20
389.0887229921373205
 30
0.0
 40
24.9994369315598703
210
0.0
220
-0.0000000000000002
230
-1.0
 50
359.9997139057895765
 51
25.0002860942071408
  0
ARC
  5
2E7A
  8
0
  6
CONTINUOUS
 62
     3
 10
-56.1263282947562487
 20
389.088722992137491
 30
0.0
 40
24.9994369315591385
210
0.0
220
-0.0000000000000002
230
-1.0
 50
154.9997139057925892
 51
180.0002860942109066
  0
LINE
  5
2E7B
  8
0
  6
CONTINUOUS
 62
     3
 10
-36.8741440846959634
 20
370.9263496253713015
 30
-0.0000000000000824
 11
-36.8742347739963066
 21
389.088598162800281
 31
-0.0000000000000864
210
0.0
220
1.0
230
-0.0000000000000002
  0
LINE
  5
2E7C
  8
0
  6
CONTINUOUS
 62
     3
 10
81.1256745367034569
 20
370.9263496253713015
 30
-0.0000000000000824
 11
81.1257652260038071
 21
389.0885981628002241
 31
-0.0000000000000864
210
0.0
220
1.0
230
-0.0000000000000002
  0
ARC
  5
2E7D
  8
0
  6
CONTINUOUS
 62
     3
 10
11.8742347739960792
 20
370.9263496253714152
 30
0.0
 40
24.9999093106998913
210
0.0
220
-0.0000000000000002
230
-1.0
 50
333.1122293409800932
 51
359.9999999999997726
  0
ARC
  5
2E7E
  8
0
  6
CONTINUOUS
 62
     3
 10
-56.1257652260035584
 20
370.9263496253714152
 30
0.0
 40
24.9999093106999091
210
0.0
220
-0.0000000000000002
230
-1.0
 50
180.0
 51
206.8877706590197079
  0
ARC
  5
2E7F
  8
0
  6
CONTINUOUS
 62
     3
 10
44.8742347739964274
 20
354.1933496253712974
 30
0.0
 40
12.0000000000000995
210
0.0
220
-0.0000000000000002
230
-1.0
 50
153.1122293409804911
 51
180.0
  0
ARC
  5
2E80
  8
0
  6
CONTINUOUS
 62
     3
 10
-89.1257652260041482
 20
354.1933496253712974
 30
0.0
 40
12.0000000000003304
210
0.0
220
-0.0000000000000002
230
-1.0
 50
0.0000000000002799
 51
26.8877706590192211
  0
LINE
  5
2E81
  8
0
  6
CONTINUOUS
 62
     3
 10
77.1257652260037361
 20
354.1933496253712974
 30
-0.0000000000000786
 11
77.1257652260037361
 21
338.620838502318918
 31
-0.0000000000000752
210
0.0
220
1.0
230
-0.0000000000000002
  0
LINE
  5
2E82
  8
0
  6
CONTINUOUS
 62
     3
 10
-32.8742347739962568
 20
354.1933496253712974
 30
-0.0000000000000786
 11
-32.8742347739962568
 21
338.620838502318918
 31
-0.0000000000000752
210
0.0
220
1.0
230
-0.0000000000000002
  0
ARC
  5
2E83
  8
0
  6
CONTINUOUS
 62
     3
 10
17.8742347739987011
 20
338.6208385023181222
 30
0.0
 40
14.9999999999975895
210
0.0
220
-0.0000000000000002
230
-1.0
 50
325.6988472432062736
 51
0.0000000000032632
  0
ARC
  5
2E84
  8
0
  6
CONTINUOUS
 62
     3
 10
-62.1257652260061306
 20
338.6208385023181222
 30
0.0
 40
14.9999999999976392
210
0.0
220
-0.0000000000000002
230
-1.0
 50
179.9999999999967031
 51
214.3011527567936128
  0
ARC
  5
2E85
  8
0
  6
CONTINUOUS
 62
     3
 10
36.8742347739955107
 20
325.6593571055034886
 30
0.0
 40
7.9999999999991473
210
0.0
220
-0.0000000000000002
230
-1.0
 50
145.6988472432070125
 51
180.0000000000028137
  0
ARC
  5
2E86
  8
0
  6
CONTINUOUS
 62
     3
 10
-81.1257652260027555
 20
325.6593571055036023
 30
0.0
 40
7.9999999999989484
210
0.0
220
-0.0000000000000002
230
-1.0
 50
359.9999999999968168
 51
34.301152756793968
  0
LINE
  5
2E87
  8
0
  6
VERDECKT2
 10
-21.566380515719171
 20
310.7019258755926785
 30
-0.000000000000069
 11
-21.566380515719171
 21
316.7019258755927922
 31
-0.0000000000000703
210
0.0
220
1.0
230
-0.0000000000000002
  0
LINE
  5
2E88
  8
0
  6
VERDECKT2
 10
-30.8742347739980687
 20
316.7019258755927922
 30
-0.0000000000000703
 11
-30.8742347739980687
 21
310.7019258755926785
 31
-0.000000000000069
210
0.0
220
1.0
230
-0.0000000000000002
  0
LINE
  5
2E89
  8
0
  6
VERDECKT2
 10
-75.1162981319712344
 20
316.7019258755927922
 30
-0.0000000000000703
 11
-75.1162981319712344
 21
310.7019258755926785
 31
-0.000000000000069
210
0.0
220
1.0
230
-0.0000000000000002
  0
LINE
  5
2E8A
  8
0
  6
VERDECKT2
 10
-50.1162981319712273
 20
316.7019258755927922
 30
-0.0000000000000703
 11
-50.1162981319712273
 21
310.7019258755926785
 31
-0.000000000000069
210
0.0
220
1.0
230
-0.0000000000000002
  0
LINE
  5
2E8B
  8
0
  6
VERDECKT2
 10
65.8179109677266752
 20
310.7019258755926785
 30
-0.000000000000069
 11
65.8179109677266752
 21
316.7019258755927922
 31
-0.0000000000000703
210
0.0
220
1.0
230
-0.0000000000000002
  0
LINE
  5
2E8C
  8
0
  6
VERDECKT2
 10
75.1257652260055693
 20
310.7019258755926785
 30
-0.000000000000069
 11
75.1257652260055693
 21
316.7019258755927922
 31
-0.0000000000000703
210
0.0
220
1.0
230
-0.0000000000000002
  0
LINE
  5
2E8D
  8
0
  6
VERDECKT2
 10
94.367828583978735
 20
316.7019258755927922
 30
-0.0000000000000703
 11
94.367828583978735
 21
310.7019258755926785
 31
-0.000000000000069
210
0.0
220
1.0
230
-0.0000000000000002
  0
LINE
  5
2E8E
  8
0
  6
VERDECKT2
 10
119.367828583978195
 20
316.7019258755927922
 30
-0.0000000000000703
 11
119.367828583978195
 21
310.7019258755926785
 31
-0.000000000000069
210
0.0
220
1.0
230
-0.0000000000000002
  0
LINE
  5
2E8F
  8
0
  6
VERDECKT2
 10
70.1412094725763495
 20
81.9414190945498149
 30
-0.0000000000000182
 11
-25.8896790205687388
 21
81.9414190945498433
 31
-0.0000000000000182
210
0.0
220
1.0
230
-0.0000000000000002
  0
LINE
  5
2E90
  8
0
  6
VERDECKT2
 10
-31.7683750378479317
 20
400.8481131018900214
 30
-0.000000000000089
 11
76.0199054898554323
 21
400.8481131018900214
 31
-0.000000000000089
210
0.0
220
1.0
230
-0.0000000000000002
  0
LINE
  5
2E91
  8
0
  6
VERDECKT2
 10
73.1257652260039634
 20
316.7019258755927922
 30
-0.0000000000000703
 11
73.1257652260039634
 21
310.7019258755926785
 31
-0.000000000000069
210
0.0
220
1.0
230
-0.0000000000000002
  0
LINE
  5
2E92
  8
0
  6
VERDECKT2
 10
-28.874234773996271
 20
316.7019258755927922
 30
-0.0000000000000703
 11
-28.874234773996271
 21
310.7019258755926785
 31
-0.000000000000069
210
0.0
220
1.0
230
-0.0000000000000002
  0
ARC
  5
2E93
  8
0
  6
VERDECKT2
 10
-63.1257652260039279
 20
90.3159271083574708
 30
0.0
 40
7.9999999999998792
210
0.0
220
-0.0000000000000002
230
-1.0
 50
179.9999999999996021
 51
187.1250163489023066
  0
ARC
  5
2E94
  8
0
  6
VERDECKT2
 10
18.8742347739963101
 20
90.3159271083575135
 30
0.0
 40
7.9999999999998836
210
0.0
220
-0.0000000000000002
230
-1.0
 50
352.8749836510972955
 51
0.0000000000001018
  0
LINE
  5
2E95
  8
0
  6
VERDECKT2
 10
71.1257652260038356
 20
325.6593571055030907
 30
-0.0000000000000723
 11
71.1257652260038071
 21
90.3159271083575419
 31
-0.0000000000000201
210
0.0
220
1.0
230
-0.0000000000000002
  0
LINE
  5
2E96
  8
0
  6
VERDECKT2
 10
-26.8742347739961502
 20
325.6593571055033181
 30
-0.0000000000000723
 11
-26.8742347739962
 21
90.3159271083575419
 31
-0.0000000000000201
210
0.0
220
1.0
230
-0.0000000000000002
  0
LINE
  5
2E97
  8
0
  6
VERDECKT2
 10
-25.8896790205686784
 20
81.9414190945498575
 30
-0.0000000000000182
 11
-26.8124577877055295
 21
89.3236492316437563
 31
-0.0000000000000198
210
0.0
220
1.0
230
-0.0000000000000002
  0
LINE
  5
2E98
  8
0
  6
VERDECKT2
 10
70.1412094725762927
 20
81.9414190945498149
 30
-0.0000000000000182
 11
71.0639882397131402
 21
89.323649231643742
 31
-0.0000000000000198
210
0.0
220
1.0
230
-0.0000000000000002
  0
ARC
  5
2E99
  8
0
  6
VERDECKT2
 10
36.8742347739964771
 20
325.6593571055030907
 30
0.0
 40
10.0000000000001599
210
0.0
220
-0.0000000000000002
230
-1.0
 50
145.6988472432080926
 51
180.0
  0
ARC
  5
2E9A
  8
0
  6
VERDECKT2
 10
-81.1257652260040771
 20
325.6593571055030907
 30
0.0
 40
10.0000000000002807
210
0.0
220
-0.0000000000000002
230
-1.0
 50
0.0000000000003308
 51
34.3011527567913674
  0
ARC
  5
2E9B
  8
0
  6
VERDECKT2
 10
17.8742347739963101
 20
338.620838502318918
 30
0.0
 40
12.9999999999999893
210
0.0
220
-0.0000000000000002
230
-1.0
 50
325.6988472432087747
 51
0.0
  0
ARC
  5
2E9C
  8
0
  6
VERDECKT2
 10
-62.125765226003729
 20
338.620838502318918
 30
0.0
 40
13.0000000000000497
210
0.0
220
-0.0000000000000002
230
-1.0
 50
180.0
 51
214.301152756790998
  0
LINE
  5
2E9D
  8
0
  6
VERDECKT2
 10
75.1257652260037929
 20
354.1933496253712974
 30
-0.0000000000000786
 11
75.1257652260037929
 21
338.620838502318918
 31
-0.0000000000000752
210
0.0
220
1.0
230
-0.0000000000000002
  0
LINE
  5
2E9E
  8
0
  6
VERDECKT2
 10
-30.8742347739963208
 20
354.1933496253712974
 30
-0.0000000000000786
 11
-30.8742347739963208
 21
338.620838502318918
 31
-0.0000000000000752
210
0.0
220
1.0
230
-0.0000000000000002
  0
ARC
  5
2E9F
  8
0
  6
VERDECKT2
 10
44.8732687798989929
 20
354.1935805396594787
 30
0.0
 40
13.9990340078071505
210
0.0
220
-0.0000000000000002
230
-1.0
 50
153.1112842461870969
 51
180.0009450947923142
  0
ARC
  5
2EA0
  8
0
  6
VERDECKT2
 10
-89.124799231906735
 20
354.1935805396594219
 30
0.0
 40
13.9990340078073903
210
0.0
220
-0.0000000000000002
230
-1.0
 50
359.9990549052077995
 51
26.8887157538125798
  0
ARC
  5
2EA1
  8
0
  6
VERDECKT2
 10
11.8750736380450199
 20
370.9263496253714152
 30
0.0
 40
22.9991611359512902
210
0.0
220
-0.0000000000000002
230
-1.0
 50
333.1112842461877221
 51
359.9999999999997158
  0
ARC
  5
2EA2
  8
0
  6
VERDECKT2
 10
-56.1266040900525169
 20
370.9263496253714152
 30
0.0
 40
22.9991611359512795
210
0.0
220
-0.0000000000000002
230
-1.0
 50
180.000000000000199
 51
206.8887157538123915
  0
LINE
  5
2EA3
  8
0
  6
VERDECKT2
 10
79.1257652260038071
 20
389.0885981628002241
 30
-0.0000000000000864
 11
79.1257652260038071
 21
370.9263496253713015
 31
-0.0000000000000824
210
0.0
220
1.0
230
-0.0000000000000002
  0
LINE
  5
2EA4
  8
0
  6
VERDECKT2
 10
-34.8742347739963066
 20
389.088598162800281
 30
-0.0000000000000864
 11
-34.8742347739963066
 21
370.9263496253713015
 31
-0.0000000000000824
210
0.0
220
1.0
230
-0.0000000000000002
  0
ARC
  5
2EA5
  8
0
  6
VERDECKT2
 10
11.8742347740129404
 20
389.0885981628059085
 30
0.0
 40
22.9999999999825988
210
0.0
220
-0.0000000000000002
230
-1.0
 50
359.9999999999860165
 51
25.0000000000016591
  0
ARC
  5
2EA6
  8
0
  6
VERDECKT2
 10
-56.1257652260207465
 20
389.0885981628059085
 30
0.0
 40
22.9999999999823004
210
0.0
220
-0.0000000000000002
230
-1.0
 50
154.9999999999982094
 51
180.0000000000140972
  0
LINE
  5
2EA7
  8
0
  6
VERDECKT2
 10
76.0199054898554607
 20
400.8481131018899077
 30
-0.000000000000089
 11
76.9708443278473453
 21
398.8088181828351821
 31
-0.0000000000000886
210
0.0
220
1.0
230
-0.0000000000000002
  0
LINE
  5
2EA8
  8
0
  6
VERDECKT2
 10
-31.7683750378479317
 20
400.8481131018900214
 30
-0.000000000000089
 11
-32.7193138758398234
 21
398.8088181828352958
 31
-0.0000000000000886
210
0.0
220
1.0
230
-0.0000000000000002
  0
LINE
  5
2EA9
  8
0
  6
VERDECKT2
 10
-31.7683750378479388
 20
400.8481131018900214
 30
-0.000000000000089
 11
-33.5809906119212087
 21
401.6933496253714111
 31
-0.0000000000000892
210
0.0
220
1.0
230
-0.0000000000000002
  0
LINE
  5
2EAA
  8
0
  6
VERDECKT2
 10
76.0199054898554181
 20
400.8481131018899077
 30
-0.000000000000089
 11
77.8325210639286666
 21
401.6933496253714111
 31
-0.0000000000000892
210
0.0
220
1.0
230
-0.0000000000000002
  0
LINE
  5
2EAB
  8
0
  6
VERDECKT2
 10
70.1412094725763495
 20
81.9414190945498149
 30
-0.0000000000000182
 11
72.1257652260038071
 21
81.6933496253712974
 31
-0.0000000000000181
210
0.0
220
1.0
230
-0.0000000000000002
  0
LINE
  5
2EAC
  8
0
  6
VERDECKT2
 10
-25.8896790205687388
 20
81.9414190945498433
 30
-0.0000000000000182
 11
-27.8742347739962
 21
81.6933496253713258
 31
-0.0000000000000181
210
0.0
220
1.0
230
-0.0000000000000002
  0
ENDBLK
  5
2EAE
  8
0
  0
ENDSEC
  0
SECTION
  2
ENTITIES
  0
INSERT
  5
440
  8
ADSK_ASSOC_ENTITY_BACKUPS
  2
*S0
 10
0.0
 20
0.0
 30
0.0
  0
INSERT
  5
2E48
  8
VOLL
  2
A$CDF21E951
 10
-218.4886126703025866
 20
-31.9999478193112807
 30
0.0
  0
INSERT
  5
2EAF
  8
VOLL
  2
A$C26D85E9A
 10
-218.4886126703025866
 20
59.096064530855692
 30
0.0000000000000284
  0
VIEWPORT
  5
34F
 67
     1
  8
0
 10
424.3867189243038069
 20
231.7195593312351889
 30
0.0
 40
1331.3677993955229795
 41
655.9075006367797869
 68
     1
 69
     1
1001
ACAD
1000
MVIEW
1002
{
1070
    16
1010
0.0
1020
0.0
1030
0.0
1010
0.0
1020
0.0
1030
1.0
1040
0.0
1040
655.9075006367797869
1040
424.3867189243038069
1040
231.7195593312351889
1040
50.0
1040
0.0
1040
0.0
1070
     0
1070
  1500
1070
     1
1070
     1
1070
     0
1070
     0
1070
     0
1070
     0
1040
0.0
1040
0.0
1040
0.0
1040
10.0
1040
10.0
1040
10.0
1040
10.0
1070
     0
1002
{
1002
}
1002
}
  0
ENDSEC
  0
EOF
