  0
SECTION
  2
HEADER
  9
$ACADVER
  1
AC1009
  9
$INSBASE
 10
0.0
 20
0.0
 30
0.0
  9
$EXTMIN
 10
-89.0745416284748046
 20
0.9179720536577384
 30
-0.000000000000087
  9
$EXTMAX
 10
124.5756844753566952
 20
629.5282365016832955
 30
391.6933496253703879
  9
$LIMMIN
 10
0.0
 20
0.0
  9
$LIMMAX
 10
210.0
 20
297.0
  9
$ORTHOMODE
 70
     1
  9
$REGENMODE
 70
     1
  9
$FILLMODE
 70
     1
  9
$QTEXTMODE
 70
     0
  9
$MIRRTEXT
 70
     1
  9
$DRAGMODE
 70
     2
  9
$LTSCALE
 40
10.0
  9
$OSMODE
 70
    39
  9
$ATTMODE
 70
     1
  9
$TEXTSIZE
 40
3.5
  9
$TRACEWID
 40
0.5
  9
$TEXTSTYLE
  7
STANDARD
  9
$CLAYER
  8
BEM
  9
$CELTYPE
  6
BYLAYER
  9
$CECOLOR
 62
   256
  9
$DIMSCALE
 40
1.0
  9
$DIMASZ
 40
3.5
  9
$DIMEXO
 40
1.0
  9
$DIMDLI
 40
7.0
  9
$DIMRND
 40
0.0
  9
$DIMDLE
 40
0.0
  9
$DIMEXE
 40
1.0
  9
$DIMTP
 40
0.0
  9
$DIMTM
 40
0.0
  9
$DIMTXT
 40
3.5
  9
$DIMCEN
 40
1.5
  9
$DIMTSZ
 40
0.0
  9
$DIMTOL
 70
     0
  9
$DIMLIM
 70
     0
  9
$DIMTIH
 70
     0
  9
$DIMTOH
 70
     0
  9
$DIMSE1
 70
     0
  9
$DIMSE2
 70
     0
  9
$DIMTAD
 70
     1
  9
$DIMZIN
 70
     8
  9
$DIMBLK
  1

  9
$DIMASO
 70
     1
  9
$DIMSHO
 70
     0
  9
$DIMPOST
  1

  9
$DIMAPOST
  1

  9
$DIMALT
 70
     0
  9
$DIMALTD
 70
     2
  9
$DIMALTF
 40
25.3999999999999986
  9
$DIMLFAC
 40
1.0
  9
$DIMTOFL
 70
     1
  9
$DIMTVP
 40
0.0
  9
$DIMTIX
 70
     0
  9
$DIMSOXD
 70
     0
  9
$DIMSAH
 70
     0
  9
$DIMBLK1
  1

  9
$DIMBLK2
  1

  9
$DIMSTYLE
  2
STANDARD
  9
$DIMCLRD
 70
     0
  9
$DIMCLRE
 70
     0
  9
$DIMCLRT
 70
     1
  9
$DIMTFAC
 40
0.5142857142857143
  9
$DIMGAP
 40
1.5
  9
$LUNITS
 70
     2
  9
$LUPREC
 70
     2
  9
$SKETCHINC
 40
1.0
  9
$FILLETRAD
 40
11.5999999999999996
  9
$AUNITS
 70
     1
  9
$AUPREC
 70
     3
  9
$MENU
  1
ACAD
  9
$ELEVATION
 40
0.0
  9
$PELEVATION
 40
0.0
  9
$THICKNESS
 40
0.0
  9
$LIMCHECK
 70
     0
  9
$BLIPMODE
 70
     0
  9
$CHAMFERA
 40
0.0
  9
$CHAMFERB
 40
0.0
  9
$SKPOLY
 70
     0
  9
$TDCREATE
 40
2452040.6370949079282582
  9
$TDUPDATE
 40
2459285.3531018518842757
  9
$TDINDWG
 40
0.8969046875
  9
$TDUSRTIMER
 40
0.8969046875
  9
$USRTIMER
 70
     1
  9
$ANGBASE
 50
0.0
  9
$ANGDIR
 70
     0
  9
$PDMODE
 70
     0
  9
$PDSIZE
 40
0.0
  9
$PLINEWID
 40
0.0
  9
$COORDS
 70
     1
  9
$SPLFRAME
 70
     0
  9
$SPLINETYPE
 70
     6
  9
$SPLINESEGS
 70
     8
  9
$ATTDIA
 70
     1
  9
$ATTREQ
 70
     1
  9
$HANDLING
 70
     1
  9
$HANDSEED
  5
253B
  9
$SURFTAB1
 70
     6
  9
$SURFTAB2
 70
     6
  9
$SURFTYPE
 70
     6
  9
$SURFU
 70
     6
  9
$SURFV
 70
     6
  9
$UCSNAME
  2

  9
$UCSORG
 10
0.0
 20
0.0
 30
0.0
  9
$UCSXDIR
 10
1.0
 20
0.0
 30
0.0
  9
$UCSYDIR
 10
0.0
 20
1.0
 30
0.0
  9
$PUCSNAME
  2

  9
$PUCSORG
 10
0.0
 20
0.0
 30
0.0
  9
$PUCSXDIR
 10
1.0
 20
0.0
 30
0.0
  9
$PUCSYDIR
 10
0.0
 20
1.0
 30
0.0
  9
$USERI1
 70
     0
  9
$USERI2
 70
     0
  9
$USERI3
 70
     0
  9
$USERI4
 70
     0
  9
$USERI5
 70
     0
  9
$USERR1
 40
0.0
  9
$USERR2
 40
0.0
  9
$USERR3
 40
0.0
  9
$USERR4
 40
0.0
  9
$USERR5
 40
0.0
  9
$WORLDVIEW
 70
     1
  9
$SHADEDGE
 70
     3
  9
$SHADEDIF
 70
    70
  9
$TILEMODE
 70
     1
  9
$MAXACTVP
 70
    16
  9
$PLIMCHECK
 70
     0
  9
$PEXTMIN
 10
2.1696230337272482
 20
6.4862770726388126
 30
-411.2239754552967952
  9
$PEXTMAX
 10
293.1331757420429085
 20
417.9360868635804991
 30
0.0251002686300126
  9
$PLIMMIN
 10
-2.2387790453608432
 20
1.2766717379595169
  9
$PLIMMAX
 10
294.687215827685975
 20
421.2233270113969752
  9
$UNITMODE
 70
     0
  9
$VISRETAIN
 70
     0
  9
$PLINEGEN
 70
     0
  9
$PSLTSCALE
 70
     0
  0
ENDSEC
  0
SECTION
  2
TABLES
  0
TABLE
  2
VPORT
 70
     1
  0
VPORT
  2
*ACTIVE
 70
     0
 10
0.0
 20
0.0
 11
1.0
 21
1.0
 12
304.8458646186863916
 22
322.7404818185536897
 13
0.0
 23
0.0
 14
1.0
 24
1.0
 15
10.0
 25
10.0
 16
-0.00000000000027
 26
0.0
 36
1222.8859511176779051
 17
20.7459028066331008
 27
113.3972615408276994
 37
195.8466796875
 40
793.571714813170729
 41
1.7678795483061469
 42
50.0
 43
0.0
 44
0.0
 50
0.0
 51
0.0
 71
     0
 72
  1500
 73
     1
 74
     0
 75
     0
 76
     0
 77
     0
 78
     0
  0
ENDTAB
  0
TABLE
  2
LTYPE
 70
     6
  0
LTYPE
  2
CONTINUOUS
 70
     0
  3
Solid line
 72
    65
 73
     0
 40
0.0
  0
LTYPE
  2
VERDECKT
 70
     0
  3
Verdeckt __ __ __ __ __ __ __ __ __ __ __ __ __
 72
    65
 73
     2
 40
0.375
 49
0.25
 49
-0.125
  0
ENDTAB
  0
TABLE
  2
LAYER
 70
    20
  0
LAYER
  2
0
 70
     0
 62
     7
  6
CONTINUOUS
  0
LAYER
  2
BEM
 70
     0
 62
     7
  6
CONTINUOUS
  0
LAYER
  2
DEFPOINTS
 70
     0
 62
     7
  6
CONTINUOUS
  0
LAYER
  2
ROHR
 70
     0
 62
   254
  6
CONTINUOUS
  0
LAYER
  2
ADSK_ASSOC_ENTITY_BACKUPS
 70
     1
 62
    -7
  6
CONTINUOUS
  0
LAYER
  2
BLECH
 70
     0
 62
   254
  6
CONTINUOUS
  0
ENDTAB
  0
TABLE
  2
STYLE
 70
     4
  0
STYLE
  2
STANDARD
 70
     0
 40
0.0
 41
0.8
 50
0.0
 71
     0
 42
3.5
  3
simplex.shx
  4

  0
STYLE
  2

 70
     1
 40
0.0
 41
1.0
 50
0.0
 71
     0
 42
3.5
  3
ltypeshp.shx
  4

  0
ENDTAB
  0
TABLE
  2
VIEW
 70
     1
  0
ENDTAB
  0
TABLE
  2
UCS
 70
     0
  0
ENDTAB
  0
TABLE
  2
APPID
 70
    21
  0
APPID
  2
ACAD
 70
     0
  0
APPID
  2
ACAD_NAV_VCDISPLAY
 70
     0
  0
APPID
  2
ACAD_PSEXT
 70
     0
  0
APPID
  2
ACAECLAYERSTANDARD
 70
     0
  0
APPID
  2
ACCMTRANSPARENCY
 70
     0
  0
APPID
  2
ACAD_STEPID
 70
     0
  0
APPID
  2
ACAD_EXEMPT_FROM_CAD_STANDARDS
 70
     0
  0
APPID
  2
ACADANNOPO
 70
     0
  0
APPID
  2
ACDBDYNAMICBLOCKGUID
 70
     0
  0
APPID
  2
ACSYNERGY
 70
     0
  0
APPID
  2
SYNERGY_BODY_TBR_ID
 70
     0
  0
APPID
  2
ACAD_VIEW_EDGE_ID
 70
     0
  0
APPID
  2
ACSYNERGYSKETCH
 70
     0
  0
APPID
  2
ACADANNOMONITORALERTICONDI
 70
     0
  0
APPID
  2
ACAD_DSTYLE_DIMRADIAL_EXTENSION
 70
     0
  0
APPID
  2
ACAD_MODELDOC_XFORM
 70
     0
  0
APPID
  2
ACAD_DSTYLE_DIMJAG
 70
     0
  0
APPID
  2
ACAD_DSTYLE_DIMBREAK
 70
     0
  0
APPID
  2
PLOTTRANSPARENCY
 70
     0
  0
APPID
  2
ACAD_MLEADERVER
 70
     0
  0
APPID
  2
AcDbAttr
 70
     0
  0
ENDTAB
  0
TABLE
  2
DIMSTYLE
 70
     4
  0
DIMSTYLE
  2
STANDARD
 70
     0
  3

  4

  5

  6

  7

 40
1.0
 41
0.18
 42
0.0625
 43
0.38
 44
0.18
 45
0.0
 46
0.0
 47
0.0
 48
0.0
140
0.18
141
0.09
142
0.0
143
25.3999999999999986
144
1.0
145
0.0
146
1.0
147
0.09
 71
     0
 72
     0
 73
     1
 74
     1
 75
     0
 76
     0
 77
     0
 78
     0
170
     0
171
     2
172
     0
173
     0
174
     0
175
     0
176
     0
177
     0
178
     0
  0
ENDTAB
  0
ENDSEC
  0
SECTION
  2
BLOCKS
  0
BLOCK
  8
0
  2
$MODEL_SPACE
 70
     0
 10
0.0
 20
0.0
 30
0.0
  3
$MODEL_SPACE
  1

  0
ENDBLK
  5
44
  8
0
  0
BLOCK
 67
     1
  8
0
  2
$PAPER_SPACE
 70
     0
 10
0.0
 20
0.0
 30
0.0
  3
$PAPER_SPACE
  1

  0
ENDBLK
  5
42
 67
     1
  8
0
  0
BLOCK
  8
0
  2
*S3
 70
     1
 10
0.0
 20
0.0
 30
0.0
  3
*S3
  1

  0
ENDBLK
  5
43E
  8
0
  0
BLOCK
  8
0
  2
A$CD17EE5FA
 70
     0
 10
0.0
 20
0.0
 30
0.0
  3
A$CD17EE5FA
  1

  0
LINE
  5
246F
  8
0
  6
CONTINUOUS
 62
     3
 10
-32.7359741005134026
 20
24.1068088039476613
 30
0.0
 11
-19.241089824312791
 21
24.1068088039476613
 31
-0.000000000000003
  0
LINE
  5
2470
  8
0
  6
CONTINUOUS
 62
     3
 10
-53.8241540233494575
 20
48.1068215842695466
 30
0.0
 11
-66.8241540233494646
 21
48.1068215842695466
 31
0.0000000000000029
  0
ARC
  5
2471
  8
0
  6
CONTINUOUS
 62
     3
 10
-66.8241540233494646
 20
54.1068215842695395
 30
0.0
 40
6.0
 50
90.0
 51
270.0
  0
LINE
  5
2472
  8
0
  6
CONTINUOUS
 62
     3
 10
-66.8241540233494646
 20
60.1068215842695466
 30
0.0
 11
-53.8241540233494575
 21
60.1068215842695466
 31
-0.0000000000000029
  0
ARC
  5
2473
  8
0
  6
CONTINUOUS
 62
     3
 10
-53.8241540233494575
 20
54.1068215842695395
 30
0.0
 40
6.0
 50
270.0
 51
90.0
  0
LINE
  5
2474
  8
0
  6
CONTINUOUS
 62
     3
 10
-19.2411490332888313
 20
84.1068215842696247
 30
0.0
 11
-80.3241540233503741
 21
84.1068215842696247
 31
0.0000000000000136
  0
LINE
  5
2475
  8
0
  6
CONTINUOUS
 62
     3
 10
-80.3241540233494646
 20
24.1068215842696212
 30
0.0
 11
-80.3241540233494646
 21
84.1068215842696247
 31
0.0
  0
LINE
  5
2476
  8
0
  6
CONTINUOUS
 62
     3
 10
-32.7359741005134026
 20
24.1068215842696105
 30
0.0
 11
-80.3241540233494646
 21
24.1068215842696283
 31
0.0000000000000106
  0
LINE
  5
2477
  8
0
  6
CONTINUOUS
 62
     3
 10
-32.7359741005134026
 20
24.1068215842696105
 30
0.0
 11
-32.7359741005134026
 21
24.1068088039476613
 31
0.0
  0
LINE
  5
2478
  8
0
  6
CONTINUOUS
 62
     3
 10
76.9875045525205906
 20
84.106834364591549
 30
0.0
 11
63.4926702167935773
 21
84.106834364591549
 31
0.000000000000003
  0
LINE
  5
2479
  8
0
  6
CONTINUOUS
 62
     3
 10
98.0756844753566526
 20
60.1068215842696603
 30
0.0
 11
111.0756844753565957
 21
60.1068215842696603
 31
-0.0000000000000029
  0
ARC
  5
247A
  8
0
  6
CONTINUOUS
 62
     3
 10
111.0756844753565957
 20
54.1068215842696603
 30
0.0
 40
6.0
 50
270.0
 51
90.0
  0
LINE
  5
247B
  8
0
  6
CONTINUOUS
 62
     3
 10
111.0756844753565957
 20
48.1068215842696603
 30
0.0
 11
98.0756844753566526
 21
48.1068215842696603
 31
0.0000000000000029
  0
ARC
  5
247C
  8
0
  6
CONTINUOUS
 62
     3
 10
98.0756844753566526
 20
54.1068215842696603
 30
0.0
 40
6.0
 50
90.0
 51
270.0
  0
LINE
  5
247D
  8
0
  6
CONTINUOUS
 62
     3
 10
63.4926295448547222
 20
24.1068215842695786
 30
0.0
 11
124.5756844753575052
 21
24.1068215842695786
 31
-0.0000000000000136
  0
LINE
  5
247E
  8
0
  6
CONTINUOUS
 62
     3
 10
124.5756844753565957
 20
84.1068215842695963
 30
0.0
 11
124.5756844753565957
 21
24.1068215842695999
 31
0.0
  0
LINE
  5
247F
  8
0
  6
CONTINUOUS
 62
     3
 10
76.9875045525205906
 20
84.1068215842695963
 30
0.0
 11
124.5756844753565957
 21
84.1068215842695963
 31
-0.0000000000000106
  0
LINE
  5
2480
  8
0
  6
CONTINUOUS
 62
     3
 10
76.9875045525205906
 20
84.1068215842695963
 30
0.0
 11
76.9875045525205906
 21
84.106834364591549
 31
0.0
  0
CIRCLE
  5
2481
  8
0
  6
CONTINUOUS
 62
     3
 10
22.1257652260037787
 20
54.1068560156146035
 30
0.0
 40
42.1939789517232171
  0
CIRCLE
  5
2482
  8
0
  6
CONTINUOUS
 62
     3
 10
22.1257652260035691
 20
54.106856015614639
 30
0.0
 40
42.8999999999999986
  0
CIRCLE
  5
2483
  8
0
  6
CONTINUOUS
 62
     3
 10
22.12576522600353
 20
54.1068560156146603
 30
0.0
 40
46.0
  0
CIRCLE
  5
2484
  8
0
  6
CONTINUOUS
 62
     3
 10
22.12576522600353
 20
54.1068560156146603
 30
0.0
 40
47.7654046703399118
  0
CIRCLE
  5
2485
  8
0
  6
CONTINUOUS
 62
     3
 10
22.1257652260035407
 20
54.1068560156146532
 30
0.0
 40
51.0999999999999375
  0
CIRCLE
  5
2486
  8
0
  6
CONTINUOUS
 62
     3
 10
22.1257652260035407
 20
54.1068560156146532
 30
0.0
 40
51.1000932431256132
  0
ARC
  5
2487
  8
0
  6
VERDECKT
 62
     1
 10
22.1257652260018602
 20
54.1068815762586581
 30
0.0
 40
44.5000000000000071
 50
137.6113604650805939
 51
222.3888709767641103
  0
LINE
  5
2488
  8
0
  6
VERDECKT
 62
     1
 10
-19.2410898243128017
 20
24.1068088039476507
 30
0.0
 11
-10.7413252089004096
 21
24.1068088039476507
 31
-0.0000000000000019
  0
LINE
  5
2489
  8
0
  6
VERDECKT
 62
     1
 10
-10.7414463915927403
 20
84.1068215842696247
 30
0.0
 11
-19.2411490332888313
 21
84.1068215842696247
 31
0.0000000000000019
  0
ARC
  5
248A
  8
0
  6
VERDECKT
 62
     1
 10
22.1257652260053312
 20
54.1067615922805274
 30
0.0
 40
44.5000000000000071
 50
317.6113604650806224
 51
42.3888709767641103
  0
LINE
  5
248B
  8
0
  6
VERDECKT
 62
     1
 10
63.4926702167935773
 20
84.106834364591549
 30
0.0
 11
54.9928556609075869
 21
84.106834364591549
 31
0.0000000000000019
  0
LINE
  5
248C
  8
0
  6
VERDECKT
 62
     1
 10
54.9929768435999335
 20
24.1068215842695786
 30
0.0
 11
63.4926295448547222
 21
24.1068215842695786
 31
-0.0000000000000019
  0
CIRCLE
  5
248D
  8
0
  6
VERDECKT
 62
     1
 10
22.1257652260037787
 20
54.1068560156146035
 30
0.0
 40
43.8000906917925832
  0
CIRCLE
  5
248E
  8
0
  6
VERDECKT
 62
     1
 10
22.1257652260035691
 20
54.106856015614639
 30
0.0
 40
44.4999999999999929
  0
CIRCLE
  5
248F
  8
0
  6
VERDECKT
 62
     1
 10
22.1257652260035407
 20
54.1068560156146532
 30
0.0
 40
49.5000059675376818
  0
CIRCLE
  5
2490
  8
0
  6
VERDECKT
 62
     1
 10
22.1257652260035407
 20
54.1068560156146532
 30
0.0
 40
49.4999999999999503
  0
CIRCLE
  5
2491
  8
0
  6
VERDECKT
 62
     1
 10
22.1257652260035584
 20
54.1068560156146532
 30
0.0
 40
47.5999999999998877
  0
CIRCLE
  5
2492
  8
0
  6
VERDECKT
 62
     1
 10
22.1257652260035407
 20
54.1068560156146532
 30
0.0
 40
49.5000932431256118
  0
ENDBLK
  5
2494
  8
0
  0
BLOCK
  8
0
  2
A$CC29E4809
 70
     0
 10
0.0
 20
0.0
 30
0.0
  3
A$CC29E4809
  1

  0
LINE
  5
2498
  8
0
  6
CONTINUOUS
 62
     3
 10
-32.7359741005133316
 20
321.7019258755914848
 30
-0.0000000000000714
 11
-10.7413485398529591
 21
321.7019258755914848
 31
-0.0000000000000714
210
0.0
220
1.0
230
-0.0000000000000002
  0
LINE
  5
2499
  8
0
  6
CONTINUOUS
 62
     3
 10
-32.7359741005133316
 20
315.7019258755915985
 30
-0.0000000000000701
 11
-32.7359741005133316
 21
321.7019258755914848
 31
-0.0000000000000714
210
0.0
220
1.0
230
-0.0000000000000002
  0
LINE
  5
249A
  8
0
  6
CONTINUOUS
 62
     3
 10
-10.7413485398529502
 20
315.7019258755915985
 30
-0.0000000000000701
 11
-32.7359741005133387
 21
315.7019258755915985
 31
-0.0000000000000701
210
0.0
220
1.0
230
-0.0000000000000002
  0
LINE
  5
249B
  8
0
  6
CONTINUOUS
 62
     3
 10
-32.7359741005133316
 20
321.7019258755915985
 30
-0.0000000000000714
 11
-80.3241540233493936
 21
321.7019258755915985
 31
-0.0000000000000714
210
0.0
220
1.0
230
-0.0000000000000002
  0
LINE
  5
249C
  8
0
  6
CONTINUOUS
 62
     3
 10
-32.7359741005133316
 20
315.7019258755915985
 30
-0.0000000000000701
 11
-80.3241540233493936
 21
315.7019258755915985
 31
-0.0000000000000701
210
0.0
220
1.0
230
-0.0000000000000002
  0
LINE
  5
249D
  8
0
  6
CONTINUOUS
 62
     3
 10
-80.3241540233493936
 20
315.7019258755915985
 30
-0.0000000000000701
 11
-80.3241540233493936
 21
321.7019258755915985
 31
-0.0000000000000714
210
0.0
220
1.0
230
-0.0000000000000002
  0
LINE
  5
249E
  8
0
  6
CONTINUOUS
 62
     3
 10
54.9929768436000117
 20
321.7019258755915985
 30
-0.0000000000000714
 11
54.9929768436000117
 21
315.7019258755917122
 31
-0.0000000000000701
210
0.0
220
1.0
230
-0.0000000000000002
  0
LINE
  5
249F
  8
0
  6
CONTINUOUS
 62
     3
 10
54.9929768435999975
 20
321.7019258755915985
 30
-0.0000000000000714
 11
124.5756844753576047
 21
321.7019258755915985
 31
-0.0000000000000714
210
0.0
220
1.0
230
-0.0000000000000002
  0
LINE
  5
24A0
  8
0
  6
CONTINUOUS
 62
     3
 10
54.9929768436000117
 20
315.7019258755917122
 30
-0.0000000000000701
 11
124.5756844753566952
 21
315.7019258755917122
 31
-0.0000000000000701
210
0.0
220
1.0
230
-0.0000000000000002
  0
LINE
  5
24A1
  8
0
  6
CONTINUOUS
 62
     3
 10
124.5756844753566952
 20
321.7019258755917122
 30
-0.0000000000000714
 11
124.5756844753566952
 21
315.7019258755917122
 31
-0.0000000000000701
210
0.0
220
1.0
230
-0.0000000000000002
  0
LINE
  5
24A2
  8
0
  6
CONTINUOUS
 62
     3
 10
65.9258559177963832
 20
81.6933496253713258
 30
-0.0000000000000181
 11
-21.6743254657888009
 21
81.6933496253712832
 31
-0.0000000000000181
210
0.0
220
1.0
230
-0.0000000000000002
  0
LINE
  5
24A3
  8
0
  6
CONTINUOUS
 62
     3
 10
-25.6396394443362716
 20
391.6933496253705016
 30
-0.000000000000087
 11
69.8911698963435271
 21
391.6933496253705016
 31
-0.000000000000087
210
0.0
220
1.0
230
-0.0000000000000002
  0
ARC
  5
24A4
  8
0
  6
CONTINUOUS
 62
     3
 10
10.7742347740008402
 20
90.1998165631098914
 30
0.0
 40
11.5999999999955108
210
0.0
220
-0.0000000000000002
230
-1.0
 50
354.9999999999990905
 51
0.0000000000010559
  0
ARC
  5
24A5
  8
0
  6
CONTINUOUS
 62
     3
 10
-55.0257652260118491
 20
90.1998165631097066
 30
0.0
 40
11.5999999999917804
210
0.0
220
-0.0000000000000002
230
-1.0
 50
179.9999999999976978
 51
185.0000000000011937
  0
LINE
  5
24A6
  8
0
  6
CONTINUOUS
 62
     3
 10
-21.6743254657887796
 20
81.6933496253711837
 30
-0.0000000000000181
 11
-22.3300932718604592
 21
89.1888099472372744
 31
-0.0000000000000198
210
0.0
220
1.0
230
-0.0000000000000002
  0
LINE
  5
24A7
  8
0
  6
CONTINUOUS
 62
     3
 10
65.9258559177963832
 20
81.6933496253713116
 30
-0.0000000000000181
 11
66.5816237238680344
 21
89.1888099472373028
 31
-0.0000000000000198
210
0.0
220
1.0
230
-0.0000000000000002
  0
LINE
  5
24A8
  8
0
  6
CONTINUOUS
 62
     3
 10
66.6257652260035087
 20
326.3867499608019216
 30
-0.0000000000000725
 11
66.6257652260035087
 21
321.7019258755917122
 31
-0.0000000000000714
210
0.0
220
1.0
230
-0.0000000000000002
  0
LINE
  5
24A9
  8
0
  6
CONTINUOUS
 62
     3
 10
66.6257652260035087
 20
315.7019258755917122
 30
-0.0000000000000701
 11
66.6257652260036366
 21
90.1998165631101472
 31
-0.00000000000002
210
0.0
220
1.0
230
-0.0000000000000002
  0
LINE
  5
24AA
  8
0
  6
CONTINUOUS
 62
     3
 10
-22.3742347739964984
 20
326.3867499608019216
 30
-0.0000000000000725
 11
-22.3742347739964984
 21
321.7019258755914848
 31
-0.0000000000000714
210
0.0
220
1.0
230
-0.0000000000000002
  0
LINE
  5
24AB
  8
0
  6
CONTINUOUS
 62
     3
 10
-22.3742347739964913
 20
315.7019258755915985
 30
-0.0000000000000701
 11
-22.3742347739963598
 21
90.1998165631101045
 31
-0.00000000000002
210
0.0
220
1.0
230
-0.0000000000000002
  0
ARC
  5
24AC
  8
0
  6
CONTINUOUS
 62
     3
 10
30.374234773996271
 20
326.3867499608019216
 30
0.0
 40
7.9999999999999201
210
0.0
220
-0.0000000000000002
230
-1.0
 50
147.6719358778395872
 51
180.0000000000003979
  0
ARC
  5
24AD
  8
0
  6
CONTINUOUS
 62
     3
 10
-74.6257652260038071
 20
326.3867499608019784
 30
0.0
 40
8.0000000000001563
210
0.0
220
-0.0000000000000002
230
-1.0
 50
359.9999999999992042
 51
32.3280641221592617
  0
LINE
  5
24AE
  8
0
  6
CONTINUOUS
 62
     3
 10
69.8911698963435413
 20
391.6933496253703879
 30
-0.000000000000087
 11
70.9209367871050631
 21
389.4850074016208055
 31
-0.0000000000000865
210
0.0
220
1.0
230
-0.0000000000000002
  0
LINE
  5
24AF
  8
0
  6
CONTINUOUS
 62
     3
 10
-25.639639444336229
 20
391.6933496253705016
 30
-0.000000000000087
 11
-26.6694063350978396
 21
389.4850074016206918
 31
-0.0000000000000865
210
0.0
220
1.0
230
-0.0000000000000002
  0
ARC
  5
24B0
  8
0
  6
CONTINUOUS
 62
     3
 10
4.3742347739934182
 20
379.0885981627985757
 30
0.0
 40
24.6000000000029111
210
0.0
220
-0.0000000000000002
230
-1.0
 50
0.0000000000019847
 51
24.9999999999990408
  0
ARC
  5
24B1
  8
0
  6
CONTINUOUS
 62
     3
 10
-48.6257652260006168
 20
379.0885981627985757
 30
0.0
 40
24.6000000000029218
210
0.0
220
-0.0000000000000002
230
-1.0
 50
155.0000000000009948
 51
179.9999999999980105
  0
LINE
  5
24B2
  8
0
  6
CONTINUOUS
 62
     3
 10
73.2257652260035456
 20
379.0885981627994852
 30
-0.0000000000000842
 11
73.2257652260035456
 21
372.1297746827622177
 31
-0.0000000000000826
210
0.0
220
1.0
230
-0.0000000000000002
  0
LINE
  5
24B3
  8
0
  6
CONTINUOUS
 62
     3
 10
-28.9742347739963115
 20
379.0885981627994283
 30
-0.0000000000000842
 11
-28.9742347739963009
 21
372.1297746827619903
 31
-0.0000000000000826
210
0.0
220
1.0
230
-0.0000000000000002
  0
ARC
  5
24B4
  8
0
  6
CONTINUOUS
 62
     3
 10
3.9742347739962121
 20
372.0614946345801854
 30
0.0
 40
25.0000932431257787
210
0.0
220
-0.0000000000000002
230
-1.0
 50
334.9670575584273138
 51
0.1564859543310271
  0
ARC
  5
24B5
  8
0
  6
CONTINUOUS
 62
     3
 10
-48.2257652260034604
 20
372.0614946345801854
 30
0.0
 40
25.000093243125761
210
0.0
220
-0.0000000000000002
230
-1.0
 50
179.8435140456683996
 51
205.032942441572402
  0
ARC
  5
24B6
  8
0
  6
CONTINUOUS
 62
     3
 10
37.4742347739963932
 20
356.3532165621753052
 30
0.0
 40
12.0000000000001297
210
0.0
220
-0.0000000000000002
230
-1.0
 50
154.6922769019666077
 51
179.9999999999996874
  0
ARC
  5
24B7
  8
0
  6
CONTINUOUS
 62
     3
 10
-81.7257652260035314
 20
356.3532165621754189
 30
0.0
 40
12.0
210
0.0
220
-0.0000000000000002
230
-1.0
 50
359.9999999999997158
 51
25.3077230980333212
  0
LINE
  5
24B8
  8
0
  6
CONTINUOUS
 62
     3
 10
69.7257652260035172
 20
356.3532165621753052
 30
-0.0000000000000791
 11
69.7257652260035172
 21
337.0820760427874916
 31
-0.0000000000000748
210
0.0
220
1.0
230
-0.0000000000000002
  0
LINE
  5
24B9
  8
0
  6
CONTINUOUS
 62
     3
 10
-25.4742347739962511
 20
356.3532165621753052
 30
-0.0000000000000791
 11
-25.4742347739962405
 21
337.0820760427874916
 31
-0.0000000000000748
210
0.0
220
1.0
230
-0.0000000000000002
  0
ARC
  5
24BA
  8
0
  6
CONTINUOUS
 62
     3
 10
13.4742347739951391
 20
337.0820760427874916
 30
0.0
 40
12.0000000000010907
210
0.0
220
-0.0000000000000002
230
-1.0
 50
327.6719358778390188
 51
359.9999999999997158
  0
ARC
  5
24BB
  8
0
  6
CONTINUOUS
 62
     3
 10
-57.7257652260025225
 20
337.0820760427874916
 30
0.0
 40
12.0000000000010196
210
0.0
220
-0.0000000000000002
230
-1.0
 50
180.000000000000199
 51
212.3280641221612086
  0
LINE
  5
24BC
  8
0
  6
VERDECKT
 62
     1
 10
-10.7413252089003404
 20
315.7019258755915985
 30
-0.0000000000000701
 11
-10.7413252089003404
 21
321.7019258755914848
 31
-0.0000000000000714
210
0.0
220
1.0
230
-0.0000000000000002
  0
LINE
  5
24BD
  8
0
  6
VERDECKT
 62
     1
 10
-10.7414463915926799
 20
321.7019258755914848
 30
-0.0000000000000714
 11
-10.7414463915926799
 21
315.7019258755915985
 31
-0.0000000000000701
210
0.0
220
1.0
230
-0.0000000000000002
  0
LINE
  5
24BE
  8
0
  6
VERDECKT
 62
     1
 10
-10.7413485398529698
 20
321.7019258755914848
 30
-0.0000000000000714
 11
-10.7413252089003404
 21
321.7019258755914848
 31
-0.0000000000000714
210
0.0
220
1.0
230
-0.0000000000000002
  0
LINE
  5
24BF
  8
0
  6
VERDECKT
 62
     1
 10
-10.7413252089003493
 20
315.7019258755915985
 30
-0.0000000000000701
 11
-10.7413485398529502
 21
315.7019258755915985
 31
-0.0000000000000701
210
0.0
220
1.0
230
-0.0000000000000002
  0
LINE
  5
24C0
  8
0
  6
VERDECKT
 62
     1
 10
-72.8241540233493936
 20
321.7019258755915985
 30
-0.0000000000000714
 11
-72.8241540233493936
 21
315.7019258755915985
 31
-0.0000000000000701
210
0.0
220
1.0
230
-0.0000000000000002
  0
LINE
  5
24C1
  8
0
  6
VERDECKT
 62
     1
 10
-47.8241540233493865
 20
321.7019258755915985
 30
-0.0000000000000714
 11
-47.8241540233493865
 21
315.7019258755915985
 31
-0.0000000000000701
210
0.0
220
1.0
230
-0.0000000000000002
  0
LINE
  5
24C2
  8
0
  6
VERDECKT
 62
     1
 10
54.992855660907658
 20
315.7019258755917122
 30
-0.0000000000000701
 11
54.992855660907658
 21
321.7019258755915985
 31
-0.0000000000000714
210
0.0
220
1.0
230
-0.0000000000000002
  0
LINE
  5
24C3
  8
0
  6
VERDECKT
 62
     1
 10
54.992976843613981
 20
315.7019258755917122
 30
-0.0000000000000701
 11
54.9929768432094974
 21
315.7019258755917122
 31
-0.0000000000000701
210
0.0
220
1.0
230
-0.0000000000000002
  0
LINE
  5
24C4
  8
0
  6
VERDECKT
 62
     1
 10
54.9928556607618972
 20
321.7019258755917122
 30
-0.0000000000000714
 11
54.9928556609216272
 21
321.7019258755917122
 31
-0.0000000000000714
210
0.0
220
1.0
230
-0.0000000000000002
  0
LINE
  5
24C5
  8
0
  6
VERDECKT
 62
     1
 10
76.9875045525206616
 20
315.7019258755917122
 30
-0.0000000000000701
 11
76.9875045525206616
 21
321.7019258755915985
 31
-0.0000000000000714
210
0.0
220
1.0
230
-0.0000000000000002
  0
LINE
  5
24C6
  8
0
  6
VERDECKT
 62
     1
 10
66.625765226005413
 20
315.7019258755917122
 30
-0.0000000000000701
 11
66.625765226005413
 21
321.7019258755917122
 31
-0.0000000000000714
210
0.0
220
1.0
230
-0.0000000000000002
  0
LINE
  5
24C7
  8
0
  6
VERDECKT
 62
     1
 10
117.0756844753566952
 20
321.7019258755917122
 30
-0.0000000000000714
 11
117.0756844753566952
 21
315.7019258755917122
 31
-0.0000000000000701
210
0.0
220
1.0
230
-0.0000000000000002
  0
LINE
  5
24C8
  8
0
  6
VERDECKT
 62
     1
 10
92.0756844753567236
 20
321.7019258755917122
 30
-0.0000000000000714
 11
92.0756844753567236
 21
315.7019258755917122
 31
-0.0000000000000701
210
0.0
220
1.0
230
-0.0000000000000002
  0
LINE
  5
24C9
  8
0
  6
VERDECKT
 62
     1
 10
-22.3742347739964984
 20
321.7019258755914848
 30
-0.0000000000000714
 11
-22.3742347739964913
 21
315.7019258755915985
 31
-0.0000000000000701
210
0.0
220
1.0
230
-0.0000000000000002
  0
ARC
  5
24CA
  8
0
  6
VERDECKT
 62
     1
 10
10.7742347739972395
 20
90.1998165631101756
 30
0.0
 40
9.9999999999991083
210
0.0
220
-0.0000000000000002
230
-1.0
 50
354.9999999999996021
 51
0.0000000000000891
  0
ARC
  5
24CB
  8
0
  6
VERDECKT
 62
     1
 10
-55.0257652259962668
 20
90.1998165631104882
 30
0.0
 40
10.0000000000073506
210
0.0
220
-0.0000000000000002
230
-1.0
 50
180.0000000000013074
 51
184.9999999999976978
  0
LINE
  5
24CC
  8
0
  6
VERDECKT
 62
     1
 10
-20.0682137257194313
 20
81.6933496253711837
 30
-0.0000000000000181
 11
-20.7361817549136589
 21
89.3282591356336155
 31
-0.0000000000000198
210
0.0
220
1.0
230
-0.0000000000000002
  0
LINE
  5
24CD
  8
0
  6
VERDECKT
 62
     1
 10
64.3197441777270171
 20
81.6933496253713116
 30
-0.0000000000000181
 11
64.9877122069212447
 21
89.3282591356336582
 31
-0.0000000000000198
210
0.0
220
1.0
230
-0.0000000000000002
  0
LINE
  5
24CE
  8
0
  6
VERDECKT
 62
     1
 10
65.0257652260035002
 20
326.3867499608019216
 30
-0.0000000000000725
 11
65.0257652260036281
 21
90.1998165631102466
 31
-0.00000000000002
210
0.0
220
1.0
230
-0.0000000000000002
  0
LINE
  5
24CF
  8
0
  6
VERDECKT
 62
     1
 10
-20.7742347739964899
 20
326.3867499608019216
 30
-0.0000000000000725
 11
-20.7742347739963513
 21
90.1998165631101898
 31
-0.00000000000002
210
0.0
220
1.0
230
-0.0000000000000002
  0
ARC
  5
24D0
  8
0
  6
VERDECKT
 62
     1
 10
30.37423477399728
 20
326.3867499608016942
 30
0.0
 40
9.6000000000009411
210
0.0
220
-0.0000000000000002
230
-1.0
 50
147.6719358778381945
 51
179.9999999999992895
  0
ARC
  5
24D1
  8
0
  6
VERDECKT
 62
     1
 10
-74.6257652260050577
 20
326.3867499608016942
 30
0.0
 40
9.6000000000014154
210
0.0
220
-0.0000000000000002
230
-1.0
 50
0.000000000000687
 51
32.3280641221607681
  0
ARC
  5
24D2
  8
0
  6
VERDECKT
 62
     1
 10
13.4742347739959705
 20
337.0820760427877758
 30
0.0
 40
10.4000000000003503
210
0.0
220
-0.0000000000000002
230
-1.0
 50
327.6719358778389051
 51
359.9999999999984084
  0
ARC
  5
24D3
  8
0
  6
VERDECKT
 62
     1
 10
-57.725765226003702
 20
337.082076042787719
 30
0.0
 40
10.3999999999999293
210
0.0
220
-0.0000000000000002
230
-1.0
 50
180.0000000000007958
 51
212.3280641221614076
  0
LINE
  5
24D4
  8
0
  6
VERDECKT
 62
     1
 10
68.1257652260035655
 20
356.3532165621753052
 30
-0.0000000000000791
 11
68.1257652260035655
 21
337.0820760427874916
 31
-0.0000000000000748
210
0.0
220
1.0
230
-0.0000000000000002
  0
LINE
  5
24D5
  8
0
  6
VERDECKT
 62
     1
 10
-23.8742347739962995
 20
356.3532165621753052
 30
-0.0000000000000791
 11
-23.8742347739962888
 21
337.0820760427874916
 31
-0.0000000000000748
210
0.0
220
1.0
230
-0.0000000000000002
  0
ARC
  5
24D6
  8
0
  6
VERDECKT
 62
     1
 10
37.4742347739964785
 20
356.3532165621753052
 30
0.0
 40
13.6000000000002395
210
0.0
220
-0.0000000000000002
230
-1.0
 50
155.0466666810625895
 51
179.9999999999996874
  0
ARC
  5
24D7
  8
0
  6
VERDECKT
 62
     1
 10
-81.7257652260035456
 20
356.3532165621754757
 30
0.0
 40
13.6000000000000192
210
0.0
220
-0.0000000000000002
230
-1.0
 50
359.9999999999992042
 51
24.9533333189368101
  0
ARC
  5
24D8
  8
0
  6
VERDECKT
 62
     1
 10
3.974234773996375
 20
372.0614946345801854
 30
0.0
 40
23.400093243125621
210
0.0
220
-0.0000000000000002
230
-1.0
 50
334.7798768193241017
 51
0.1564859543311543
  0
ARC
  5
24D9
  8
0
  6
VERDECKT
 62
     1
 10
-48.2257652260037517
 20
372.0614946345800718
 30
0.0
 40
23.4000932431254896
210
0.0
220
-0.0000000000000002
230
-1.0
 50
179.8435140456682859
 51
205.220123180675813
  0
LINE
  5
24DA
  8
0
  6
VERDECKT
 62
     1
 10
71.6257682097724455
 20
379.0885981627994852
 30
-0.0000000000000842
 11
71.6257682097724455
 21
372.1254047759770742
 31
-0.0000000000000826
210
0.0
220
1.0
230
-0.0000000000000002
  0
LINE
  5
24DB
  8
0
  6
VERDECKT
 62
     1
 10
-27.3742377577652007
 20
379.0885981627994283
 30
-0.0000000000000842
 11
-27.3742377577651901
 21
372.1254047759769037
 31
-0.0000000000000826
210
0.0
220
1.0
230
-0.0000000000000002
  0
ARC
  5
24DC
  8
0
  6
VERDECKT
 62
     1
 10
4.3742347739962808
 20
379.0885981627994283
 30
0.0
 40
23.0000000000000604
210
0.0
220
-0.0000000000000002
230
-1.0
 50
0.0
 51
24.9999999999965183
  0
ARC
  5
24DD
  8
0
  6
VERDECKT
 62
     1
 10
-48.6257652260032387
 20
379.0885981627994283
 30
0.0
 40
23.0000000000003411
210
0.0
220
-0.0000000000000002
230
-1.0
 50
155.0000000000036096
 51
179.9999999999996874
  0
LINE
  5
24DE
  8
0
  6
VERDECKT
 62
     1
 10
68.1257652260036224
 20
391.6933496253703879
 30
-0.000000000000087
 11
69.4708443278471037
 21
388.8088181828342726
 31
-0.0000000000000863
210
0.0
220
1.0
230
-0.0000000000000002
  0
LINE
  5
24DF
  8
0
  6
VERDECKT
 62
     1
 10
-23.8742347739963385
 20
391.6933496253705016
 30
-0.000000000000087
 11
-25.2193138758398696
 21
388.8088181828342726
 31
-0.0000000000000863
210
0.0
220
1.0
230
-0.0000000000000002
  0
ENDBLK
  5
24E1
  8
0
  0
ENDSEC
  0
SECTION
  2
ENTITIES
  0
INSERT
  5
440
  8
ADSK_ASSOC_ENTITY_BACKUPS
  2
*S3
 10
0.0
 20
0.0
 30
0.0
  0
INSERT
  5
2495
  8
BEM
  2
A$CD17EE5FA
 10
-8.7503876051244234
 20
138.3549802763020011
 30
-0.0000000000000181
  0
INSERT
  5
24E2
  8
BEM
  2
A$CC29E4809
 10
-8.7503876051228886
 20
237.8348868763127939
 30
0.0
  0
VIEWPORT
  5
34F
 67
     1
  8
0
 10
330.1246080570592767
 20
195.4096937784296131
 30
0.0
 40
951.7139340321007239
 41
538.3364126498113365
 68
     1
 69
     1
1001
ACAD
1000
MVIEW
1002
{
1070
    16
1010
0.0
1020
0.0
1030
0.0
1010
0.0
1020
0.0
1030
1.0
1040
0.0
1040
538.3364126498113365
1040
330.1246080570592767
1040
195.4096937784296131
1040
50.0
1040
0.0
1040
0.0
1070
     0
1070
  1500
1070
     1
1070
     1
1070
     0
1070
     0
1070
     0
1070
     0
1040
0.0
1040
0.0
1040
0.0
1040
10.0
1040
10.0
1040
10.0
1040
10.0
1070
     0
1002
{
1002
}
1002
}
  0
ENDSEC
  0
EOF
