  0
SECTION
  2
HEADER
  9
$ACADVER
  1
AC1009
  9
$INSBASE
 10
0.0
 20
0.0
 30
0.0
  9
$EXTMIN
 10
-72.2811834180039767
 20
10.4546693532131307
 30
-0.0000000000000859
  9
$EXTMAX
 10
116.3535370877140025
 20
585.9560621642588103
 30
386.6933496253715248
  9
$LIMMIN
 10
0.0
 20
0.0
  9
$LIMMAX
 10
210.0
 20
297.0
  9
$ORTHOMODE
 70
     1
  9
$REGENMODE
 70
     1
  9
$FILLMODE
 70
     1
  9
$QTEXTMODE
 70
     0
  9
$MIRRTEXT
 70
     1
  9
$DRAGMODE
 70
     2
  9
$LTSCALE
 40
10.0
  9
$OSMODE
 70
    39
  9
$ATTMODE
 70
     1
  9
$TEXTSIZE
 40
3.5
  9
$TRACEWID
 40
0.5
  9
$TEXTSTYLE
  7
STANDARD
  9
$CLAYER
  8
BEM
  9
$CELTYPE
  6
BYLAYER
  9
$CECOLOR
 62
   256
  9
$DIMSCALE
 40
1.0
  9
$DIMASZ
 40
3.5
  9
$DIMEXO
 40
1.0
  9
$DIMDLI
 40
7.0
  9
$DIMRND
 40
0.0
  9
$DIMDLE
 40
0.0
  9
$DIMEXE
 40
1.0
  9
$DIMTP
 40
0.0
  9
$DIMTM
 40
0.0
  9
$DIMTXT
 40
3.5
  9
$DIMCEN
 40
1.5
  9
$DIMTSZ
 40
0.0
  9
$DIMTOL
 70
     0
  9
$DIMLIM
 70
     0
  9
$DIMTIH
 70
     0
  9
$DIMTOH
 70
     0
  9
$DIMSE1
 70
     0
  9
$DIMSE2
 70
     0
  9
$DIMTAD
 70
     1
  9
$DIMZIN
 70
     8
  9
$DIMBLK
  1

  9
$DIMASO
 70
     1
  9
$DIMSHO
 70
     0
  9
$DIMPOST
  1

  9
$DIMAPOST
  1

  9
$DIMALT
 70
     0
  9
$DIMALTD
 70
     2
  9
$DIMALTF
 40
25.3999999999999986
  9
$DIMLFAC
 40
1.0
  9
$DIMTOFL
 70
     1
  9
$DIMTVP
 40
0.0
  9
$DIMTIX
 70
     0
  9
$DIMSOXD
 70
     0
  9
$DIMSAH
 70
     0
  9
$DIMBLK1
  1

  9
$DIMBLK2
  1

  9
$DIMSTYLE
  2
STANDARD
  9
$DIMCLRD
 70
     0
  9
$DIMCLRE
 70
     0
  9
$DIMCLRT
 70
     1
  9
$DIMTFAC
 40
0.5142857142857143
  9
$DIMGAP
 40
1.5
  9
$LUNITS
 70
     2
  9
$LUPREC
 70
     2
  9
$SKETCHINC
 40
1.0
  9
$FILLETRAD
 40
7.5999999999999988
  9
$AUNITS
 70
     1
  9
$AUPREC
 70
     3
  9
$MENU
  1
ACAD
  9
$ELEVATION
 40
0.0
  9
$PELEVATION
 40
0.0
  9
$THICKNESS
 40
0.0
  9
$LIMCHECK
 70
     0
  9
$BLIPMODE
 70
     0
  9
$CHAMFERA
 40
0.0
  9
$CHAMFERB
 40
0.0
  9
$SKPOLY
 70
     0
  9
$TDCREATE
 40
2452040.6370949079282582
  9
$TDUPDATE
 40
2459285.3285300931893289
  9
$TDINDWG
 40
0.7201222801
  9
$TDUSRTIMER
 40
0.7201222801
  9
$USRTIMER
 70
     1
  9
$ANGBASE
 50
0.0
  9
$ANGDIR
 70
     0
  9
$PDMODE
 70
     0
  9
$PDSIZE
 40
0.0
  9
$PLINEWID
 40
0.0
  9
$COORDS
 70
     1
  9
$SPLFRAME
 70
     0
  9
$SPLINETYPE
 70
     6
  9
$SPLINESEGS
 70
     8
  9
$ATTDIA
 70
     1
  9
$ATTREQ
 70
     1
  9
$HANDLING
 70
     1
  9
$HANDSEED
  5
212E
  9
$SURFTAB1
 70
     6
  9
$SURFTAB2
 70
     6
  9
$SURFTYPE
 70
     6
  9
$SURFU
 70
     6
  9
$SURFV
 70
     6
  9
$UCSNAME
  2

  9
$UCSORG
 10
0.0
 20
0.0
 30
0.0
  9
$UCSXDIR
 10
1.0
 20
0.0
 30
0.0
  9
$UCSYDIR
 10
0.0
 20
1.0
 30
0.0
  9
$PUCSNAME
  2

  9
$PUCSORG
 10
0.0
 20
0.0
 30
0.0
  9
$PUCSXDIR
 10
1.0
 20
0.0
 30
0.0
  9
$PUCSYDIR
 10
0.0
 20
1.0
 30
0.0
  9
$USERI1
 70
     0
  9
$USERI2
 70
     0
  9
$USERI3
 70
     0
  9
$USERI4
 70
     0
  9
$USERI5
 70
     0
  9
$USERR1
 40
0.0
  9
$USERR2
 40
0.0
  9
$USERR3
 40
0.0
  9
$USERR4
 40
0.0
  9
$USERR5
 40
0.0
  9
$WORLDVIEW
 70
     1
  9
$SHADEDGE
 70
     3
  9
$SHADEDIF
 70
    70
  9
$TILEMODE
 70
     1
  9
$MAXACTVP
 70
    16
  9
$PLIMCHECK
 70
     0
  9
$PEXTMIN
 10
2.1696230337272482
 20
6.4862770726388126
 30
-411.2239754552967952
  9
$PEXTMAX
 10
293.1331757420429085
 20
417.9360868635804991
 30
0.0251002686300126
  9
$PLIMMIN
 10
-2.2387790453608432
 20
1.2766717379595169
  9
$PLIMMAX
 10
294.687215827685975
 20
421.2233270113969752
  9
$UNITMODE
 70
     0
  9
$VISRETAIN
 70
     0
  9
$PLINEGEN
 70
     0
  9
$PSLTSCALE
 70
     0
  0
ENDSEC
  0
SECTION
  2
TABLES
  0
TABLE
  2
VPORT
 70
     1
  0
VPORT
  2
*ACTIVE
 70
     0
 10
0.0
 20
0.0
 11
1.0
 21
1.0
 12
291.9387927969956991
 22
215.5470308253651126
 13
0.0
 23
0.0
 14
1.0
 24
1.0
 15
10.0
 25
10.0
 16
-0.0000000000002558
 26
0.0
 36
1149.2152531964839
 17
23.9305636317174297
 27
102.735277582156499
 37
193.3466796875
 40
749.3485408689076621
 41
1.7678795483061469
 42
50.0
 43
0.0
 44
0.0
 50
0.0
 51
0.0
 71
     0
 72
  1500
 73
     1
 74
     0
 75
     0
 76
     0
 77
     0
 78
     0
  0
ENDTAB
  0
TABLE
  2
LTYPE
 70
     6
  0
LTYPE
  2
CONTINUOUS
 70
     0
  3
Solid line
 72
    65
 73
     0
 40
0.0
  0
LTYPE
  2
VERDECKT
 70
     0
  3
Verdeckt __ __ __ __ __ __ __ __ __ __ __ __ __
 72
    65
 73
     2
 40
0.375
 49
0.25
 49
-0.125
  0
ENDTAB
  0
TABLE
  2
LAYER
 70
    20
  0
LAYER
  2
0
 70
     0
 62
     7
  6
CONTINUOUS
  0
LAYER
  2
BEM
 70
     0
 62
     7
  6
CONTINUOUS
  0
LAYER
  2
DEFPOINTS
 70
     0
 62
     7
  6
CONTINUOUS
  0
LAYER
  2
ROHR
 70
     0
 62
   254
  6
CONTINUOUS
  0
LAYER
  2
ADSK_ASSOC_ENTITY_BACKUPS
 70
     1
 62
    -7
  6
CONTINUOUS
  0
LAYER
  2
BLECH
 70
     0
 62
   254
  6
CONTINUOUS
  0
ENDTAB
  0
TABLE
  2
STYLE
 70
     5
  0
STYLE
  2
STANDARD
 70
     0
 40
0.0
 41
0.8
 50
0.0
 71
     0
 42
3.5
  3
simplex.shx
  4

  0
STYLE
  2

 70
     1
 40
0.0
 41
1.0
 50
0.0
 71
     0
 42
3.5
  3
ltypeshp.shx
  4

  0
ENDTAB
  0
TABLE
  2
VIEW
 70
     1
  0
ENDTAB
  0
TABLE
  2
UCS
 70
     0
  0
ENDTAB
  0
TABLE
  2
APPID
 70
    21
  0
APPID
  2
ACAD
 70
     0
  0
APPID
  2
ACAD_NAV_VCDISPLAY
 70
     0
  0
APPID
  2
ACAD_PSEXT
 70
     0
  0
APPID
  2
ACAECLAYERSTANDARD
 70
     0
  0
APPID
  2
ACCMTRANSPARENCY
 70
     0
  0
APPID
  2
ACAD_STEPID
 70
     0
  0
APPID
  2
ACAD_EXEMPT_FROM_CAD_STANDARDS
 70
     0
  0
APPID
  2
ACADANNOPO
 70
     0
  0
APPID
  2
ACDBDYNAMICBLOCKGUID
 70
     0
  0
APPID
  2
ACSYNERGY
 70
     0
  0
APPID
  2
SYNERGY_BODY_TBR_ID
 70
     0
  0
APPID
  2
ACAD_VIEW_EDGE_ID
 70
     0
  0
APPID
  2
ACSYNERGYSKETCH
 70
     0
  0
APPID
  2
ACADANNOMONITORALERTICONDI
 70
     0
  0
APPID
  2
ACAD_DSTYLE_DIMRADIAL_EXTENSION
 70
     0
  0
APPID
  2
ACAD_MODELDOC_XFORM
 70
     0
  0
APPID
  2
ACAD_DSTYLE_DIMJAG
 70
     0
  0
APPID
  2
ACAD_DSTYLE_DIMBREAK
 70
     0
  0
APPID
  2
PLOTTRANSPARENCY
 70
     0
  0
APPID
  2
ACAD_MLEADERVER
 70
     0
  0
APPID
  2
AcDbAttr
 70
     0
  0
ENDTAB
  0
TABLE
  2
DIMSTYLE
 70
     5
  0
DIMSTYLE
  2
STANDARD
 70
     0
  3

  4

  5

  6

  7

 40
1.0
 41
0.18
 42
0.0625
 43
0.38
 44
0.18
 45
0.0
 46
0.0
 47
0.0
 48
0.0
140
0.18
141
0.09
142
0.0
143
25.3999999999999986
144
1.0
145
0.0
146
1.0
147
0.09
 71
     0
 72
     0
 73
     1
 74
     1
 75
     0
 76
     0
 77
     0
 78
     0
170
     0
171
     2
172
     0
173
     0
174
     0
175
     0
176
     0
177
     0
178
     0
  0
ENDTAB
  0
ENDSEC
  0
SECTION
  2
BLOCKS
  0
BLOCK
  8
0
  2
$MODEL_SPACE
 70
     0
 10
0.0
 20
0.0
 30
0.0
  3
$MODEL_SPACE
  1

  0
ENDBLK
  5
44
  8
0
  0
BLOCK
 67
     1
  8
0
  2
$PAPER_SPACE
 70
     0
 10
0.0
 20
0.0
 30
0.0
  3
$PAPER_SPACE
  1

  0
ENDBLK
  5
42
 67
     1
  8
0
  0
BLOCK
  8
0
  2
*S3
 70
     1
 10
0.0
 20
0.0
 30
0.0
  3
*S3
  1

  0
ENDBLK
  5
43E
  8
0
  0
BLOCK
  8
0
  2
A$C8B25307F
 70
     0
 10
0.0
 20
0.0
 30
0.0
  3
A$C8B25307F
  1

  0
ARC
  5
206F
  8
0
  6
CONTINUOUS
 62
     3
 10
-54.9924108165068191
 20
54.1068560156146035
 30
0.0
 40
6.0
 50
90.0
 51
270.0
  0
LINE
  5
2070
  8
0
  6
CONTINUOUS
 62
     3
 10
-41.9924108165068191
 20
48.1068560156145892
 30
0.0
 11
-54.9924108165068191
 21
48.1068560156145892
 31
-0.0000000000000029
  0
ARC
  5
2071
  8
0
  6
CONTINUOUS
 62
     3
 10
-41.9924108165068191
 20
54.1068560156146035
 30
0.0
 40
6.0
 50
270.0
 51
90.0
  0
LINE
  5
2072
  8
0
  6
CONTINUOUS
 62
     3
 10
-54.9924108165068191
 20
60.1068560156145892
 30
0.0
 11
-41.9924108165068191
 21
60.1068560156145892
 31
0.0000000000000029
  0
LINE
  5
2073
  8
0
  6
CONTINUOUS
 62
     3
 10
-68.4924108165068048
 20
79.1068560156145821
 30
0.0
 11
-68.4924108165068048
 21
29.1068560156145999
 31
0.0
  0
LINE
  5
2074
  8
0
  6
CONTINUOUS
 62
     3
 10
-68.4924108165068048
 20
29.1068560156145786
 30
0.0
 11
-11.7476756975283205
 21
29.1068560156145786
 31
0.0000000000000125
  0
LINE
  5
2075
  8
0
  6
CONTINUOUS
 62
     3
 10
-11.7476756975283205
 20
79.1068560156145821
 30
0.0
 11
-68.4924108165068048
 21
79.1068560156145821
 31
-0.0000000000000125
  0
ARC
  5
2076
  8
0
  6
CONTINUOUS
 62
     3
 10
99.2439412685144617
 20
54.1068560156146035
 30
0.0
 40
6.0
 50
270.0
 51
90.0
  0
LINE
  5
2077
  8
0
  6
CONTINUOUS
 62
     3
 10
86.243941268514476
 20
60.1068560156145892
 30
0.0
 11
99.2439412685144617
 21
60.1068560156145892
 31
0.0000000000000029
  0
ARC
  5
2078
  8
0
  6
CONTINUOUS
 62
     3
 10
86.243941268514476
 20
54.1068560156146035
 30
0.0
 40
6.0
 50
90.0
 51
270.0
  0
LINE
  5
2079
  8
0
  6
CONTINUOUS
 62
     3
 10
99.2439412685144617
 20
48.1068560156145892
 30
0.0
 11
86.243941268514476
 21
48.1068560156145892
 31
-0.0000000000000029
  0
LINE
  5
207A
  8
0
  6
CONTINUOUS
 62
     3
 10
112.7439412685144049
 20
29.1068560156145999
 30
0.0
 11
112.7439412685144049
 21
79.1068560156145821
 31
0.0
  0
LINE
  5
207B
  8
0
  6
CONTINUOUS
 62
     3
 10
112.7439412685144049
 20
29.1068560156145786
 30
0.0
 11
55.9992061495359579
 21
29.1068560156145786
 31
-0.0000000000000125
  0
LINE
  5
207C
  8
0
  6
CONTINUOUS
 62
     3
 10
55.9992061495359579
 20
79.1068560156145821
 30
0.0
 11
112.7439412685144049
 21
79.1068560156145821
 31
0.0000000000000125
  0
CIRCLE
  5
207D
  8
0
  6
CONTINUOUS
 62
     3
 10
22.1257652260039315
 20
54.1068560156145821
 30
0.0
 40
34.8999999999999204
  0
CIRCLE
  5
207E
  8
0
  6
CONTINUOUS
 62
     3
 10
22.1257652260038213
 20
54.1068560156145821
 30
0.0
 40
33.9123553972581107
  0
CIRCLE
  5
207F
  8
0
  6
CONTINUOUS
 62
     3
 10
22.1257652260039492
 20
54.1068560156145821
 30
0.0
 40
38.3148118992667222
  0
CIRCLE
  5
2080
  8
0
  6
CONTINUOUS
 62
     3
 10
22.1257652260039386
 20
54.1068560156145821
 30
0.0
 40
42.0999999999999588
  0
CIRCLE
  5
2081
  8
0
  6
CONTINUOUS
 62
     3
 10
22.1257652260039492
 20
54.1068560156145821
 30
0.0
 40
39.7653973282751778
  0
CIRCLE
  5
2082
  8
0
  6
CONTINUOUS
 62
     3
 10
22.1257652260039315
 20
54.1068560156145821
 30
0.0
 40
37.9999429345782431
  0
LINE
  5
2083
  8
0
  6
VERDECKT
 62
     1
 10
-11.7476756975283205
 20
29.1068560156145786
 30
0.0
 11
-6.4924108165050001
 21
29.1068560156145786
 31
0.0000000000000012
  0
LINE
  5
2084
  8
0
  6
VERDECKT
 62
     1
 10
-6.4924108165050001
 20
79.1068560156145821
 30
0.0
 11
-11.7476756975283205
 21
79.1068560156145821
 31
-0.0000000000000012
  0
LINE
  5
2085
  8
0
  6
VERDECKT
 62
     1
 10
55.9992061495359579
 20
29.1068560156145786
 30
0.0
 11
50.7439412685126428
 21
29.1068560156145786
 31
-0.0000000000000012
  0
LINE
  5
2086
  8
0
  6
VERDECKT
 62
     1
 10
50.7439412685144617
 20
79.1068560156145821
 30
0.0
 11
55.9992061495359579
 21
79.1068560156145821
 31
0.0000000000000012
  0
CIRCLE
  5
2087
  8
0
  6
VERDECKT
 62
     1
 10
22.1257652260039315
 20
54.1068560156145821
 30
0.0
 40
36.4999999999999503
  0
CIRCLE
  5
2088
  8
0
  6
VERDECKT
 62
     1
 10
22.1257652260038213
 20
54.1068560156145821
 30
0.0
 40
35.5
  0
CIRCLE
  5
2089
  8
0
  6
VERDECKT
 62
     1
 10
22.1257652260039386
 20
54.1068560156145821
 30
0.0
 40
40.4999999999999432
  0
CIRCLE
  5
208A
  8
0
  6
VERDECKT
 62
     1
 10
22.1257652260039315
 20
54.1068560156145821
 30
0.0
 40
37.9999999999999432
  0
CIRCLE
  5
208B
  8
0
  6
VERDECKT
 62
     1
 10
22.1257652260039315
 20
54.1068560156145821
 30
0.0
 40
39.599999999999973
  0
ENDBLK
  5
208D
  8
0
  0
BLOCK
  8
0
  2
A$C56FC4C7B
 70
     0
 10
0.0
 20
0.0
 30
0.0
  3
A$C56FC4C7B
  1

  0
LINE
  5
2091
  8
0
  6
CONTINUOUS
 62
     3
 10
-68.4924108165087091
 20
321.6971953077435273
 30
-0.0000000000000714
 11
-68.4924108165087091
 21
315.6971953077434137
 31
-0.0000000000000701
210
0.0
220
1.0
230
-0.0000000000000002
  0
LINE
  5
2092
  8
0
  6
CONTINUOUS
 62
     3
 10
-6.4924108165050711
 20
315.6971953077435273
 30
-0.0000000000000701
 11
-68.4924108165068901
 21
315.6971953077435273
 31
-0.0000000000000701
210
0.0
220
1.0
230
-0.0000000000000002
  0
LINE
  5
2093
  8
0
  6
CONTINUOUS
 62
     3
 10
-6.4924108165050711
 20
315.6971953077435273
 30
-0.0000000000000701
 11
-6.4924108165050711
 21
321.6971953077435273
 31
-0.0000000000000714
210
0.0
220
1.0
230
-0.0000000000000002
  0
LINE
  5
2094
  8
0
  6
CONTINUOUS
 62
     3
 10
-68.4924108165068901
 20
321.6971953077435273
 30
-0.0000000000000714
 11
-6.4924108165050711
 21
321.6971953077435273
 31
-0.0000000000000714
210
0.0
220
1.0
230
-0.0000000000000002
  0
LINE
  5
2095
  8
0
  6
CONTINUOUS
 62
     3
 10
112.7439412685144049
 20
315.6971953077434137
 30
-0.0000000000000701
 11
112.7439412685144049
 21
321.6971953077435273
 31
-0.0000000000000714
210
0.0
220
1.0
230
-0.0000000000000002
  0
LINE
  5
2096
  8
0
  6
CONTINUOUS
 62
     3
 10
50.7439412685125717
 20
315.6971953077435273
 30
-0.0000000000000701
 11
112.7439412685144049
 21
315.6971953077435273
 31
-0.0000000000000701
210
0.0
220
1.0
230
-0.0000000000000002
  0
LINE
  5
2097
  8
0
  6
CONTINUOUS
 62
     3
 10
112.7439412685144049
 20
321.6971953077435273
 30
-0.0000000000000714
 11
50.7439412685125717
 21
321.6971953077435273
 31
-0.0000000000000714
210
0.0
220
1.0
230
-0.0000000000000002
  0
LINE
  5
2098
  8
0
  6
CONTINUOUS
 62
     3
 10
50.7439412685125717
 20
315.6971953077435273
 30
-0.0000000000000701
 11
50.7439412685125717
 21
321.6971953077435273
 31
-0.0000000000000714
210
0.0
220
1.0
230
-0.0000000000000002
  0
LINE
  5
2099
  8
0
  6
CONTINUOUS
 62
     3
 10
-13.3742347739961893
 20
81.6933496253713116
 30
-0.0000000000000181
 11
57.6257652260038
 21
81.6933496253713116
 31
-0.0000000000000181
210
0.0
220
1.0
230
-0.0000000000000002
  0
LINE
  5
209A
  8
0
  6
CONTINUOUS
 62
     3
 10
61.8911625542790418
 20
386.6933496253714111
 30
-0.0000000000000859
 11
-17.6396321022713209
 21
386.6933496253714111
 31
-0.0000000000000859
210
0.0
220
1.0
230
-0.0000000000000002
  0
ARC
  5
209B
  8
0
  6
CONTINUOUS
 62
     3
 10
6.7742347739976907
 20
90.1665085124401173
 30
0.0
 40
7.5999999999984382
210
0.0
220
-0.0000000000000002
230
-1.0
 50
352.8749836510978071
 51
0.0000000000007506
  0
ARC
  5
209C
  8
0
  6
CONTINUOUS
 62
     3
 10
-51.0257652260025694
 20
90.1665085124403163
 30
0.0
 40
7.600000000001188
210
0.0
220
-0.0000000000000002
230
-1.0
 50
180.0000000000007105
 51
187.1250163489011129
  0
LINE
  5
209D
  8
0
  6
CONTINUOUS
 62
     3
 10
58.6257652260037929
 20
326.3867499608027174
 30
-0.0000000000000725
 11
58.6257652260037929
 21
321.6971953077435842
 31
-0.0000000000000714
210
0.0
220
1.0
230
-0.0000000000000002
  0
LINE
  5
209E
  8
0
  6
CONTINUOUS
 62
     3
 10
58.6257652260037929
 20
315.6971953077435273
 30
-0.0000000000000701
 11
58.6257652260037503
 21
90.1665085124402168
 31
-0.00000000000002
210
0.0
220
1.0
230
-0.0000000000000002
  0
LINE
  5
209F
  8
0
  6
CONTINUOUS
 62
     3
 10
-14.3742347739960898
 20
326.3867499608027174
 30
-0.0000000000000725
 11
-14.3742347739960898
 21
321.6971953077435273
 31
-0.0000000000000714
210
0.0
220
1.0
230
-0.0000000000000002
  0
LINE
  5
20A0
  8
0
  6
CONTINUOUS
 62
     3
 10
-14.3742347739960898
 20
315.6971953077435273
 30
-0.0000000000000701
 11
-14.3742347739961307
 21
90.1665085124402168
 31
-0.00000000000002
210
0.0
220
1.0
230
-0.0000000000000002
  0
LINE
  5
20A1
  8
0
  6
CONTINUOUS
 62
     3
 10
-13.3742347739961893
 20
81.6933496253713116
 30
-0.0000000000000181
 11
-14.3155466370200095
 21
89.2238445295622853
 31
-0.0000000000000198
210
0.0
220
1.0
230
-0.0000000000000002
  0
LINE
  5
20A2
  8
0
  6
CONTINUOUS
 62
     3
 10
57.6257652260038
 20
81.6933496253713116
 30
-0.0000000000000181
 11
58.5670770890276273
 21
89.2238445295622853
 31
-0.0000000000000198
210
0.0
220
1.0
230
-0.0000000000000002
  0
ARC
  5
20A3
  8
0
  6
CONTINUOUS
 62
     3
 10
-66.6257652260033808
 20
326.3867499608027742
 30
0.0
 40
7.9999999999995728
210
0.0
220
-0.0000000000000002
230
-1.0
 50
359.9999999999992042
 51
32.3280641221633473
  0
ARC
  5
20A4
  8
0
  6
CONTINUOUS
 62
     3
 10
22.3742347739957808
 20
326.3867499608027742
 30
0.0
 40
7.9999999999996643
210
0.0
220
-0.0000000000000002
230
-1.0
 50
147.6719358778370008
 51
180.0000000000007105
  0
ARC
  5
20A5
  8
0
  6
CONTINUOUS
 62
     3
 10
-49.725765226004512
 20
337.0820760427880032
 30
0.0
 40
11.9999999999993197
210
0.0
220
-0.0000000000000002
230
-1.0
 50
179.9999999999980105
 51
212.3280641221631129
  0
ARC
  5
20A6
  8
0
  6
CONTINUOUS
 62
     3
 10
5.4742347739967938
 20
337.0820760427880032
 30
0.0
 40
11.9999999999993303
210
0.0
220
-0.0000000000000002
230
-1.0
 50
327.6719358778369156
 51
0.0000000000019083
  0
LINE
  5
20A7
  8
0
  6
CONTINUOUS
 62
     3
 10
-17.474234773996109
 20
337.0820760427884011
 30
-0.0000000000000748
 11
-17.474234773996109
 21
353.6933496253714111
 31
-0.0000000000000785
210
0.0
220
1.0
230
-0.0000000000000002
  0
LINE
  5
20A8
  8
0
  6
CONTINUOUS
 62
     3
 10
61.7257652260038228
 20
337.0820760427884011
 30
-0.0000000000000748
 11
61.7257652260038228
 21
353.6933496253714111
 31
-0.0000000000000785
210
0.0
220
1.0
230
-0.0000000000000002
  0
ARC
  5
20A9
  8
0
  6
CONTINUOUS
 62
     3
 10
-73.725765226003773
 20
353.6933496253714111
 30
0.0
 40
12.0
210
0.0
220
-0.0000000000000002
230
-1.0
 50
0.0
 51
21.1831543930358812
  0
ARC
  5
20AA
  8
0
  6
CONTINUOUS
 62
     3
 10
29.4742347739967911
 20
353.6933496253712974
 30
0.0
 40
12.0000000000007407
210
0.0
220
-0.0000000000000002
230
-1.0
 50
158.8168456069651029
 51
179.9999999999994031
  0
ARC
  5
20AB
  8
0
  6
CONTINUOUS
 62
     3
 10
-39.2257652260024585
 20
367.0633496253715862
 30
0.0
 40
25.0000932431270897
210
0.0
220
-0.0000000000000002
230
-1.0
 50
180.1564859543589989
 51
201.1831543930348971
  0
ARC
  5
20AC
  8
0
  6
CONTINUOUS
 62
     3
 10
-5.025765226005638
 20
367.0633496253718135
 30
0.0
 40
25.0000932431274805
210
0.0
220
-0.0000000000000002
230
-1.0
 50
338.8168456069649892
 51
359.8435140456406884
  0
LINE
  5
20AD
  8
0
  6
CONTINUOUS
 62
     3
 10
-19.9742347739960984
 20
366.9950695771776168
 30
-0.0000000000000815
 11
-19.9742347739960984
 21
376.1444272182525879
 31
-0.0000000000000835
210
0.0
220
1.0
230
-0.0000000000000002
  0
LINE
  5
20AE
  8
0
  6
CONTINUOUS
 62
     3
 10
64.2257652260038299
 20
366.9950695771776168
 30
-0.0000000000000815
 11
64.2257652260038299
 21
376.1444272182525879
 31
-0.0000000000000835
210
0.0
220
1.0
230
-0.0000000000000002
  0
ARC
  5
20AF
  8
0
  6
CONTINUOUS
 62
     3
 10
-39.2257652259979608
 20
376.1444272182512236
 30
0.0
 40
25.0000000000058584
210
0.0
220
-0.0000000000000002
230
-1.0
 50
155.0418036876870929
 51
179.9999999999967031
  0
ARC
  5
20B0
  8
0
  6
CONTINUOUS
 62
     3
 10
-5.0257652260097556
 20
376.1444272182512236
 30
0.0
 40
25.0000000000058797
210
0.0
220
-0.0000000000000002
230
-1.0
 50
0.0
 51
24.9581963123096315
  0
LINE
  5
20B1
  8
0
  6
VERDECKT
 62
     1
 10
-60.9924108165068901
 20
315.6971953077434137
 30
-0.0000000000000701
 11
-60.9924108165068901
 21
321.6971953077435842
 31
-0.0000000000000714
210
0.0
220
1.0
230
-0.0000000000000002
  0
LINE
  5
20B2
  8
0
  6
VERDECKT
 62
     1
 10
-35.9924108165068901
 20
315.6971953077434137
 30
-0.0000000000000701
 11
-35.9924108165068901
 21
321.6971953077435842
 31
-0.0000000000000714
210
0.0
220
1.0
230
-0.0000000000000002
  0
LINE
  5
20B3
  8
0
  6
VERDECKT
 62
     1
 10
-15.8742347739953402
 20
315.6971953077434137
 30
-0.0000000000000701
 11
-15.8742347739953402
 21
321.6971953077435842
 31
-0.0000000000000714
210
0.0
220
1.0
230
-0.0000000000000002
  0
LINE
  5
20B4
  8
0
  6
VERDECKT
 62
     1
 10
105.2439412685144049
 20
321.6971953077435842
 30
-0.0000000000000714
 11
105.2439412685144049
 21
315.6971953077434137
 31
-0.0000000000000701
210
0.0
220
1.0
230
-0.0000000000000002
  0
LINE
  5
20B5
  8
0
  6
VERDECKT
 62
     1
 10
80.2439412685143765
 20
321.6971953077435842
 30
-0.0000000000000714
 11
80.2439412685143765
 21
315.6971953077434137
 31
-0.0000000000000701
210
0.0
220
1.0
230
-0.0000000000000002
  0
LINE
  5
20B6
  8
0
  6
VERDECKT
 62
     1
 10
60.1257652260046598
 20
321.6971953077435842
 30
-0.0000000000000714
 11
60.1257652260046598
 21
315.6971953077434137
 31
-0.0000000000000701
210
0.0
220
1.0
230
-0.0000000000000002
  0
LINE
  5
20B7
  8
0
  6
VERDECKT
 62
     1
 10
-11.7865901712542893
 20
81.8918052007137618
 30
-0.0000000000000182
 11
56.0381206232619107
 21
81.8918052007137618
 31
-0.0000000000000182
210
0.0
220
1.0
230
-0.0000000000000002
  0
LINE
  5
20B8
  8
0
  6
VERDECKT
 62
     1
 10
60.440577125270579
 20
386.0182185913135982
 30
-0.0000000000000857
 11
-16.1890466732628511
 21
386.0182185913135982
 31
-0.0000000000000857
210
0.0
220
1.0
230
-0.0000000000000002
  0
LINE
  5
20B9
  8
0
  6
VERDECKT
 62
     1
 10
58.6257652260037929
 20
321.6971953077435842
 30
-0.0000000000000714
 11
58.6257652260037929
 21
315.6971953077435273
 31
-0.0000000000000701
210
0.0
220
1.0
230
-0.0000000000000002
  0
LINE
  5
20BA
  8
0
  6
VERDECKT
 62
     1
 10
-14.3742347739960898
 20
321.6971953077435273
 30
-0.0000000000000714
 11
-14.3742347739960898
 21
315.6971953077435273
 31
-0.0000000000000701
210
0.0
220
1.0
230
-0.0000000000000002
  0
ARC
  5
20BB
  8
0
  6
VERDECKT
 62
     1
 10
-51.0257652260050705
 20
90.1665085124399042
 30
0.0
 40
5.9999999999986491
210
0.0
220
-0.0000000000000002
230
-1.0
 50
179.9999999999992042
 51
187.1250163489021929
  0
ARC
  5
20BC
  8
0
  6
VERDECKT
 62
     1
 10
6.7742347739965494
 20
90.166508512439961
 30
0.0
 40
5.9999999999995577
210
0.0
220
-0.0000000000000002
230
-1.0
 50
352.8749836510983187
 51
0.0000000000002672
  0
LINE
  5
20BD
  8
0
  6
VERDECKT
 62
     1
 10
57.0257652260037702
 20
326.3867499608027174
 30
-0.0000000000000725
 11
57.0257652260037275
 21
90.1665085124400036
 31
-0.00000000000002
210
0.0
220
1.0
230
-0.0000000000000002
  0
LINE
  5
20BE
  8
0
  6
VERDECKT
 62
     1
 10
-12.77423477399606
 20
326.3867499608027174
 30
-0.0000000000000725
 11
-12.7742347739961097
 21
90.1665085124400036
 31
-0.00000000000002
210
0.0
220
1.0
230
-0.0000000000000002
  0
LINE
  5
20BF
  8
0
  6
VERDECKT
 62
     1
 10
-11.7865901712543
 20
81.8918052007137618
 30
-0.0000000000000182
 11
-12.7279020342781202
 21
89.4223001049047781
 31
-0.0000000000000199
210
0.0
220
1.0
230
-0.0000000000000002
  0
LINE
  5
20C0
  8
0
  6
VERDECKT
 62
     1
 10
56.0381206232619107
 20
81.8918052007137618
 30
-0.0000000000000182
 11
56.979432486285738
 21
89.4223001049047781
 31
-0.0000000000000199
210
0.0
220
1.0
230
-0.0000000000000002
  0
ARC
  5
20C1
  8
0
  6
VERDECKT
 62
     1
 10
-39.2257652260038014
 20
376.1444272182528152
 30
0.0
 40
23.3999999999999417
210
0.0
220
-0.0000000000000002
230
-1.0
 50
155.0418036876907877
 51
180.000000000000199
  0
ARC
  5
20C2
  8
0
  6
VERDECKT
 62
     1
 10
-5.025765226004129
 20
376.1444272182528152
 30
0.0
 40
23.4000000000001513
210
0.0
220
-0.0000000000000002
230
-1.0
 50
359.9999999999997726
 51
24.9581963123090809
  0
LINE
  5
20C3
  8
0
  6
VERDECKT
 62
     1
 10
-18.3742347739960792
 20
366.9950695771776168
 30
-0.0000000000000815
 11
-18.3742347739960792
 21
376.1444272182527016
 31
-0.0000000000000835
210
0.0
220
1.0
230
-0.0000000000000002
  0
LINE
  5
20C4
  8
0
  6
VERDECKT
 62
     1
 10
62.6257652260038
 20
366.9950695771776168
 30
-0.0000000000000815
 11
62.6257652260038
 21
376.1444272182527016
 31
-0.0000000000000835
210
0.0
220
1.0
230
-0.0000000000000002
  0
ARC
  5
20C5
  8
0
  6
VERDECKT
 62
     1
 10
-39.5880804209350572
 20
366.9950695771776168
 30
0.0
 40
23.0376848050687393
210
0.0
220
-0.0000000000000002
230
-1.0
 50
180.0
 51
201.3504243456038125
  0
ARC
  5
20C6
  8
0
  6
VERDECKT
 62
     1
 10
-4.6634500310725642
 20
366.9950695771776168
 30
0.0
 40
23.0376848050686398
210
0.0
220
-0.0000000000000002
230
-1.0
 50
338.6495756543960738
 51
0.0000000000000127
  0
ARC
  5
20C7
  8
0
  6
VERDECKT
 62
     1
 10
-73.516699607318742
 20
353.7324433830859221
 30
0.0
 40
13.3909914467366402
210
0.0
220
-0.0000000000000002
230
-1.0
 50
359.832730047432392
 51
21.3504243456034004
  0
ARC
  5
20C8
  8
0
  6
VERDECKT
 62
     1
 10
29.2651691553109394
 20
353.7324433830859221
 30
0.0
 40
13.3909914467365496
210
0.0
220
-0.0000000000000002
230
-1.0
 50
158.6495756543963864
 51
180.167269952567608
  0
LINE
  5
20C9
  8
0
  6
VERDECKT
 62
     1
 10
-15.8742347739960898
 20
337.0820760427884011
 30
-0.0000000000000748
 11
-15.8742347739960792
 21
353.6933496253714111
 31
-0.0000000000000785
210
0.0
220
1.0
230
-0.0000000000000002
  0
LINE
  5
20CA
  8
0
  6
VERDECKT
 62
     1
 10
60.1257652260038
 20
337.0820760427884011
 30
-0.0000000000000748
 11
60.1257652260038
 21
353.6933496253714111
 31
-0.0000000000000785
210
0.0
220
1.0
230
-0.0000000000000002
  0
ARC
  5
20CB
  8
0
  6
VERDECKT
 62
     1
 10
-49.725765226002629
 20
337.0820760427885148
 30
0.0
 40
10.4000000000011497
210
0.0
220
-0.0000000000000002
230
-1.0
 50
180.000000000000199
 51
212.3280641221597875
  0
ARC
  5
20CC
  8
0
  6
VERDECKT
 62
     1
 10
5.4742347739952102
 20
337.0820760427884011
 30
0.0
 40
10.4000000000008708
210
0.0
220
-0.0000000000000002
230
-1.0
 50
327.6719358778391893
 51
0.0
  0
ARC
  5
20CD
  8
0
  6
VERDECKT
 62
     1
 10
-66.6257652260050719
 20
326.3867499608020921
 30
0.0
 40
9.6000000000012875
210
0.0
220
-0.0000000000000002
230
-1.0
 50
0.0000000000030533
 51
32.3280641221608533
  0
ARC
  5
20CE
  8
0
  6
VERDECKT
 62
     1
 10
22.3742347739974186
 20
326.3867499608020921
 30
0.0
 40
9.6000000000013284
210
0.0
220
-0.0000000000000002
230
-1.0
 50
147.671935877839303
 51
179.999999999996902
  0
LINE
  5
20CF
  8
0
  6
VERDECKT
 62
     1
 10
-16.1890466732628511
 20
386.0182185913135982
 30
-0.0000000000000857
 11
-17.6396321022713209
 21
386.6933496253714111
 31
-0.0000000000000859
210
0.0
220
1.0
230
-0.0000000000000002
  0
LINE
  5
20D0
  8
0
  6
VERDECKT
 62
     1
 10
60.440577125270579
 20
386.0182185913135982
 30
-0.0000000000000857
 11
61.8911625542790418
 21
386.6933496253714111
 31
-0.0000000000000859
210
0.0
220
1.0
230
-0.0000000000000002
  0
LINE
  5
20D1
  8
0
  6
VERDECKT
 62
     1
 10
56.0381206232619107
 20
81.8918052007137618
 30
-0.0000000000000182
 11
57.6257652260038
 21
81.6933496253713116
 31
-0.0000000000000181
210
0.0
220
1.0
230
-0.0000000000000002
  0
LINE
  5
20D2
  8
0
  6
VERDECKT
 62
     1
 10
-11.7865901712543
 20
81.8918052007137618
 30
-0.0000000000000182
 11
-13.3742347739961893
 21
81.6933496253713116
 31
-0.0000000000000181
210
0.0
220
1.0
230
-0.0000000000000002
  0
ENDBLK
  5
20D4
  8
0
  0
ENDSEC
  0
SECTION
  2
ENTITIES
  0
INSERT
  5
440
  8
ADSK_ASSOC_ENTITY_BACKUPS
  2
*S3
 10
0.0
 20
0.0
 30
0.0
  0
INSERT
  5
208E
  8
BEM
  2
A$C8B25307F
 10
-3.7887726014952849
 20
125.5955656714499042
 30
-0.0000000000000181
  0
INSERT
  5
20D5
  8
BEM
  2
A$C56FC4C7B
 10
-3.7887726014952672
 20
199.2627125388873992
 30
0.0
  0
VIEWPORT
  5
34F
 67
     1
  8
0
 10
363.786999702396713
 20
204.7244025582724873
 30
0.0
 40
998.903192630944659
 41
565.0289883086322789
 68
     1
 69
     1
1001
ACAD
1000
MVIEW
1002
{
1070
    16
1010
0.0
1020
0.0
1030
0.0
1010
0.0
1020
0.0
1030
1.0
1040
0.0
1040
565.0289883086322789
1040
363.786999702396713
1040
204.7244025582724873
1040
50.0
1040
0.0
1040
0.0
1070
     0
1070
  1500
1070
     1
1070
     1
1070
     0
1070
     0
1070
     0
1070
     0
1040
0.0
1040
0.0
1040
0.0
1040
10.0
1040
10.0
1040
10.0
1040
10.0
1070
     0
1002
{
1002
}
1002
}
  0
ENDSEC
  0
EOF
