  0
SECTION
  2
HEADER
  9
$ACADVER
  1
AC1009
  9
$INSBASE
 10
0.0
 20
0.0
 30
0.0
  9
$EXTMIN
 10
-86.5256284334895156
 20
-54.5108375267457603
 30
-0.0000000000000821
  9
$EXTMAX
 10
113.9420329784780961
 20
458.1704260564962965
 30
369.6933496253711837
  9
$LIMMIN
 10
0.0
 20
0.0
  9
$LIMMAX
 10
210.0
 20
297.0
  9
$ORTHOMODE
 70
     1
  9
$REGENMODE
 70
     1
  9
$FILLMODE
 70
     1
  9
$QTEXTMODE
 70
     0
  9
$MIRRTEXT
 70
     1
  9
$DRAGMODE
 70
     2
  9
$LTSCALE
 40
10.0
  9
$OSMODE
 70
    39
  9
$ATTMODE
 70
     1
  9
$TEXTSIZE
 40
3.5
  9
$TRACEWID
 40
0.5
  9
$TEXTSTYLE
  7
STANDARD
  9
$CLAYER
  8
BEM
  9
$CELTYPE
  6
BYLAYER
  9
$CECOLOR
 62
   256
  9
$DIMSCALE
 40
1.0
  9
$DIMASZ
 40
3.5
  9
$DIMEXO
 40
1.0
  9
$DIMDLI
 40
7.0
  9
$DIMRND
 40
0.0
  9
$DIMDLE
 40
0.0
  9
$DIMEXE
 40
1.0
  9
$DIMTP
 40
0.0
  9
$DIMTM
 40
0.0
  9
$DIMTXT
 40
3.5
  9
$DIMCEN
 40
1.5
  9
$DIMTSZ
 40
0.0
  9
$DIMTOL
 70
     0
  9
$DIMLIM
 70
     0
  9
$DIMTIH
 70
     0
  9
$DIMTOH
 70
     0
  9
$DIMSE1
 70
     0
  9
$DIMSE2
 70
     0
  9
$DIMTAD
 70
     1
  9
$DIMZIN
 70
     8
  9
$DIMBLK
  1

  9
$DIMASO
 70
     1
  9
$DIMSHO
 70
     0
  9
$DIMPOST
  1

  9
$DIMAPOST
  1

  9
$DIMALT
 70
     0
  9
$DIMALTD
 70
     2
  9
$DIMALTF
 40
25.3999999999999986
  9
$DIMLFAC
 40
1.0
  9
$DIMTOFL
 70
     1
  9
$DIMTVP
 40
0.0
  9
$DIMTIX
 70
     0
  9
$DIMSOXD
 70
     0
  9
$DIMSAH
 70
     0
  9
$DIMBLK1
  1

  9
$DIMBLK2
  1

  9
$DIMSTYLE
  2
STANDARD
  9
$DIMCLRD
 70
     0
  9
$DIMCLRE
 70
     0
  9
$DIMCLRT
 70
     1
  9
$DIMTFAC
 40
0.5142857142857143
  9
$DIMGAP
 40
1.5
  9
$LUNITS
 70
     2
  9
$LUPREC
 70
     2
  9
$SKETCHINC
 40
1.0
  9
$FILLETRAD
 40
6.0
  9
$AUNITS
 70
     1
  9
$AUPREC
 70
     3
  9
$MENU
  1
ACAD
  9
$ELEVATION
 40
0.0
  9
$PELEVATION
 40
0.0
  9
$THICKNESS
 40
0.0
  9
$LIMCHECK
 70
     0
  9
$BLIPMODE
 70
     0
  9
$CHAMFERA
 40
0.0
  9
$CHAMFERB
 40
0.0
  9
$SKPOLY
 70
     0
  9
$TDCREATE
 40
2452040.6370949079282582
  9
$TDUPDATE
 40
2459285.3118634261190891
  9
$TDINDWG
 40
0.7339995949
  9
$TDUSRTIMER
 40
0.7339995949
  9
$USRTIMER
 70
     1
  9
$ANGBASE
 50
0.0
  9
$ANGDIR
 70
     0
  9
$PDMODE
 70
     0
  9
$PDSIZE
 40
0.0
  9
$PLINEWID
 40
0.0
  9
$COORDS
 70
     1
  9
$SPLFRAME
 70
     0
  9
$SPLINETYPE
 70
     6
  9
$SPLINESEGS
 70
     8
  9
$ATTDIA
 70
     1
  9
$ATTREQ
 70
     1
  9
$HANDLING
 70
     1
  9
$HANDSEED
  5
222D
  9
$SURFTAB1
 70
     6
  9
$SURFTAB2
 70
     6
  9
$SURFTYPE
 70
     6
  9
$SURFU
 70
     6
  9
$SURFV
 70
     6
  9
$UCSNAME
  2

  9
$UCSORG
 10
0.0
 20
0.0
 30
0.0
  9
$UCSXDIR
 10
1.0
 20
0.0
 30
0.0
  9
$UCSYDIR
 10
0.0
 20
1.0
 30
0.0
  9
$PUCSNAME
  2

  9
$PUCSORG
 10
0.0
 20
0.0
 30
0.0
  9
$PUCSXDIR
 10
1.0
 20
0.0
 30
0.0
  9
$PUCSYDIR
 10
0.0
 20
1.0
 30
0.0
  9
$USERI1
 70
     0
  9
$USERI2
 70
     0
  9
$USERI3
 70
     0
  9
$USERI4
 70
     0
  9
$USERI5
 70
     0
  9
$USERR1
 40
0.0
  9
$USERR2
 40
0.0
  9
$USERR3
 40
0.0
  9
$USERR4
 40
0.0
  9
$USERR5
 40
0.0
  9
$WORLDVIEW
 70
     1
  9
$SHADEDGE
 70
     3
  9
$SHADEDIF
 70
    70
  9
$TILEMODE
 70
     1
  9
$MAXACTVP
 70
    16
  9
$PLIMCHECK
 70
     0
  9
$PEXTMIN
 10
2.1696230337272482
 20
6.4862770726388126
 30
-411.2051490090652237
  9
$PEXTMAX
 10
293.1331757420429085
 20
417.9360868635804991
 30
0.0062757374259945
  9
$PLIMMIN
 10
-2.2387790453608432
 20
1.2766717379595169
  9
$PLIMMAX
 10
294.687215827685975
 20
421.2233270113969752
  9
$UNITMODE
 70
     0
  9
$VISRETAIN
 70
     0
  9
$PLINEGEN
 70
     0
  9
$PSLTSCALE
 70
     0
  0
ENDSEC
  0
SECTION
  2
TABLES
  0
TABLE
  2
VPORT
 70
     1
  0
VPORT
  2
*ACTIVE
 70
     0
 10
0.0
 20
0.0
 11
1.0
 21
1.0
 12
250.8586176625400128
 22
208.1706128205061077
 13
0.0
 23
0.0
 14
1.0
 24
1.0
 15
10.0
 25
10.0
 16
-0.000000000000238
 26
0.0
 36
1075.8437702196790724
 17
22.34122749033261
 27
15.5847420650194408
 37
184.8466796875
 40
704.8780105871635442
 41
1.767879548306148
 42
50.0
 43
0.0
 44
0.0
 50
0.0
 51
0.0
 71
     0
 72
  1500
 73
     1
 74
     0
 75
     0
 76
     0
 77
     0
 78
     0
  0
ENDTAB
  0
TABLE
  2
LTYPE
 70
     6
  0
LTYPE
  2
CONTINUOUS
 70
     0
  3
Solid line
 72
    65
 73
     0
 40
0.0
  0
LTYPE
  2
VERDECKT
 70
     0
  3
Verdeckt __ __ __ __ __ __ __ __ __ __ __ __ __
 72
    65
 73
     2
 40
0.375
 49
0.25
 49
-0.125
  0
ENDTAB
  0
TABLE
  2
LAYER
 70
    20
  0
LAYER
  2
0
 70
     0
 62
     7
  6
CONTINUOUS
  0
LAYER
  2
BEM
 70
     0
 62
     7
  6
CONTINUOUS
  0
LAYER
  2
DEFPOINTS
 70
     0
 62
     7
  6
CONTINUOUS
  0
LAYER
  2
ROHR
 70
     0
 62
   254
  6
CONTINUOUS
  0
LAYER
  2
ADSK_ASSOC_ENTITY_BACKUPS
 70
     1
 62
    -7
  6
CONTINUOUS
  0
LAYER
  2
BLECH
 70
     0
 62
   254
  6
CONTINUOUS
  0
ENDTAB
  0
TABLE
  2
STYLE
 70
     4
  0
STYLE
  2
STANDARD
 70
     0
 40
0.0
 41
0.8
 50
0.0
 71
     0
 42
3.5
  3
simplex.shx
  4

  0
STYLE
  2

 70
     1
 40
0.0
 41
1.0
 50
0.0
 71
     0
 42
3.5
  3
ltypeshp.shx
  4

  0
ENDTAB
  0
TABLE
  2
VIEW
 70
     1
  0
ENDTAB
  0
TABLE
  2
UCS
 70
     0
  0
ENDTAB
  0
TABLE
  2
APPID
 70
    21
  0
APPID
  2
ACAD
 70
     0
  0
APPID
  2
ACAD_NAV_VCDISPLAY
 70
     0
  0
APPID
  2
ACAD_PSEXT
 70
     0
  0
APPID
  2
ACAECLAYERSTANDARD
 70
     0
  0
APPID
  2
ACCMTRANSPARENCY
 70
     0
  0
APPID
  2
ACAD_STEPID
 70
     0
  0
APPID
  2
ACAD_EXEMPT_FROM_CAD_STANDARDS
 70
     0
  0
APPID
  2
ACADANNOPO
 70
     0
  0
APPID
  2
ACDBDYNAMICBLOCKGUID
 70
     0
  0
APPID
  2
ACSYNERGY
 70
     0
  0
APPID
  2
SYNERGY_BODY_TBR_ID
 70
     0
  0
APPID
  2
ACAD_VIEW_EDGE_ID
 70
     0
  0
APPID
  2
ACSYNERGYSKETCH
 70
     0
  0
APPID
  2
ACADANNOMONITORALERTICONDI
 70
     0
  0
APPID
  2
ACAD_DSTYLE_DIMRADIAL_EXTENSION
 70
     0
  0
APPID
  2
ACAD_MODELDOC_XFORM
 70
     0
  0
APPID
  2
ACAD_DSTYLE_DIMJAG
 70
     0
  0
APPID
  2
ACAD_DSTYLE_DIMBREAK
 70
     0
  0
APPID
  2
PLOTTRANSPARENCY
 70
     0
  0
APPID
  2
ACAD_MLEADERVER
 70
     0
  0
APPID
  2
AcDbAttr
 70
     0
  0
ENDTAB
  0
TABLE
  2
DIMSTYLE
 70
     4
  0
DIMSTYLE
  2
STANDARD
 70
     0
  3

  4

  5

  6

  7

 40
1.0
 41
0.18
 42
0.0625
 43
0.38
 44
0.18
 45
0.0
 46
0.0
 47
0.0
 48
0.0
140
0.18
141
0.09
142
0.0
143
25.3999999999999986
144
1.0
145
0.0
146
1.0
147
0.09
 71
     0
 72
     0
 73
     1
 74
     1
 75
     0
 76
     0
 77
     0
 78
     0
170
     0
171
     2
172
     0
173
     0
174
     0
175
     0
176
     0
177
     0
178
     0
  0
ENDTAB
  0
ENDSEC
  0
SECTION
  2
BLOCKS
  0
BLOCK
  8
0
  2
$MODEL_SPACE
 70
     0
 10
0.0
 20
0.0
 30
0.0
  3
$MODEL_SPACE
  1

  0
ENDBLK
  5
44
  8
0
  0
BLOCK
 67
     1
  8
0
  2
$PAPER_SPACE
 70
     0
 10
0.0
 20
0.0
 30
0.0
  3
$PAPER_SPACE
  1

  0
ENDBLK
  5
42
 67
     1
  8
0
  0
BLOCK
  8
0
  2
*S3
 70
     1
 10
0.0
 20
0.0
 30
0.0
  3
*S3
  1

  0
ENDBLK
  5
43E
  8
0
  0
BLOCK
  8
0
  2
A$C2EA56C86
 70
     0
 10
0.0
 20
0.0
 30
0.0
  3
A$C2EA56C86
  1

  0
ARC
  5
1A67
  8
0
  6
CONTINUOUS
 62
     3
 10
100.0111038767173
 20
54.1068560156146035
 30
0.0
 40
5.9999999999999849
 50
270.0
 51
90.0
  0
LINE
  5
1A68
  8
0
  6
CONTINUOUS
 62
     3
 10
87.0111038767173142
 20
60.1068560156145679
 30
0.0
 11
100.0111038767173
 21
60.1068560156145679
 31
0.0000000000000029
  0
ARC
  5
1A69
  8
0
  6
CONTINUOUS
 62
     3
 10
87.0111038767173142
 20
54.1068560156145821
 30
0.0
 40
6.0
 50
90.0
 51
270.0
  0
LINE
  5
1A6A
  8
0
  6
CONTINUOUS
 62
     3
 10
100.0111038767173
 20
48.1068560156145608
 30
0.0
 11
87.0111038767173142
 21
48.1068560156145608
 31
-0.0000000000000029
  0
LINE
  5
1A6B
  8
0
  6
CONTINUOUS
 62
     3
 10
46.4619937670104974
 20
74.1068560156145963
 30
0.0
 11
113.5111038767191047
 21
74.1068560156145963
 31
0.000000000000015
  0
LINE
  5
1A6C
  8
0
  6
CONTINUOUS
 62
     3
 10
113.5111038767191047
 20
34.1068560156146035
 30
0.0
 11
46.4619937670104974
 21
34.1068560156146035
 31
-0.000000000000015
  0
LINE
  5
1A6D
  8
0
  6
CONTINUOUS
 62
     3
 10
113.5111038767191047
 20
34.1068560156146035
 30
0.0
 11
113.5111038767191047
 21
74.1068560156145963
 31
0.0
  0
ARC
  5
1A6E
  8
0
  6
CONTINUOUS
 62
     3
 10
-55.7595734247096715
 20
54.1068560156146035
 30
0.0
 40
5.9999999999999849
 50
90.0
 51
270.0
  0
LINE
  5
1A6F
  8
0
  6
CONTINUOUS
 62
     3
 10
-42.7595734247096715
 20
48.1068560156145608
 30
0.0
 11
-55.7595734247096715
 21
48.1068560156145608
 31
-0.0000000000000029
  0
ARC
  5
1A70
  8
0
  6
CONTINUOUS
 62
     3
 10
-42.7595734247096715
 20
54.1068560156145821
 30
0.0
 40
6.0
 50
270.0
 51
90.0
  0
LINE
  5
1A71
  8
0
  6
CONTINUOUS
 62
     3
 10
-55.7595734247096715
 20
60.1068560156145679
 30
0.0
 11
-42.7595734247096715
 21
60.1068560156145679
 31
0.0000000000000029
  0
LINE
  5
1A72
  8
0
  6
CONTINUOUS
 62
     3
 10
-2.2104633150028539
 20
74.1068560156145963
 30
0.0
 11
-69.2595734247096715
 21
74.1068560156145963
 31
-0.000000000000015
  0
LINE
  5
1A73
  8
0
  6
CONTINUOUS
 62
     3
 10
-69.2595734247096715
 20
34.1068560156146035
 30
0.0
 11
-2.2104633150028539
 21
34.1068560156146035
 31
0.000000000000015
  0
LINE
  5
1A74
  8
0
  6
CONTINUOUS
 62
     3
 10
-69.2595734247096715
 20
34.1068560156146035
 30
0.0
 11
-69.2595734247096715
 21
74.1068560156145963
 31
0.0
  0
POLYLINE
  8
0
  5
1B2B
  62
3
  66
     1
 10
0.000000
 20
0.000000
 30
0.000000
  70
     8
  0
VERTEX
  8
0
  5
1B2C
 10
-2.87388
 20
54.1271
 30
-6.00000e-16
  70
    32
  0
VERTEX
  8
0
  5
1B2D
 10
-2.87366
 20
54.2148
 30
-5.99999e-16
  70
    32
  0
VERTEX
  8
0
  5
1B2E
 10
-2.87312
 20
54.3025
 30
-5.99996e-16
  70
    32
  0
VERTEX
  8
0
  5
1B2F
 10
-2.87228
 20
54.3902
 30
-5.99986e-16
  70
    32
  0
VERTEX
  8
0
  5
1B30
 10
-2.87113
 20
54.4779
 30
-5.99967e-16
  70
    32
  0
VERTEX
  8
0
  5
1B31
 10
-2.86967
 20
54.5656
 30
-5.99936e-16
  70
    32
  0
VERTEX
  8
0
  5
1B32
 10
-2.86790
 20
54.6533
 30
-5.99890e-16
  70
    32
  0
VERTEX
  8
0
  5
1B33
 10
-2.86583
 20
54.7409
 30
-5.99825e-16
  70
    32
  0
VERTEX
  8
0
  5
1B34
 10
-2.86345
 20
54.8286
 30
-5.99739e-16
  70
    32
  0
VERTEX
  8
0
  5
1B35
 10
-2.86075
 20
54.9163
 30
-5.99628e-16
  70
    32
  0
VERTEX
  8
0
  5
1B36
 10
-2.85776
 20
55.0039
 30
-5.99490e-16
  70
    32
  0
VERTEX
  8
0
  5
1B37
 10
-2.85445
 20
55.0916
 30
-5.99321e-16
  70
    32
  0
VERTEX
  8
0
  5
1B38
 10
-2.85084
 20
55.1792
 30
-5.99118e-16
  70
    32
  0
VERTEX
  8
0
  5
1B39
 10
-2.84692
 20
55.2668
 30
-5.98878e-16
  70
    32
  0
VERTEX
  8
0
  5
1B3A
 10
-2.84269
 20
55.3544
 30
-5.98599e-16
  70
    32
  0
VERTEX
  8
0
  5
1B3B
 10
-2.83815
 20
55.4420
 30
-5.98277e-16
  70
    32
  0
VERTEX
  8
0
  5
1B3C
 10
-2.83331
 20
55.5296
 30
-5.97909e-16
  70
    32
  0
VERTEX
  8
0
  5
1B3D
 10
-2.82816
 20
55.6171
 30
-5.97492e-16
  70
    32
  0
VERTEX
  8
0
  5
1B3E
 10
-2.82271
 20
55.7046
 30
-5.97023e-16
  70
    32
  0
VERTEX
  8
0
  5
1B3F
 10
-2.81694
 20
55.7921
 30
-5.96499e-16
  70
    32
  0
VERTEX
  8
0
  5
1B40
 10
-2.81087
 20
55.8796
 30
-5.95916e-16
  70
    32
  0
VERTEX
  8
0
  5
1B41
 10
-2.80450
 20
55.9671
 30
-5.95273e-16
  70
    32
  0
VERTEX
  8
0
  5
1B42
 10
-2.79781
 20
56.0546
 30
-5.94565e-16
  70
    32
  0
VERTEX
  8
0
  5
1B43
 10
-2.79083
 20
56.1420
 30
-5.93789e-16
  70
    32
  0
VERTEX
  8
0
  5
1B44
 10
-2.78353
 20
56.2294
 30
-5.92943e-16
  70
    32
  0
VERTEX
  8
0
  5
1B45
 10
-2.77593
 20
56.3168
 30
-5.92024e-16
  70
    32
  0
VERTEX
  8
0
  5
1B46
 10
-2.76802
 20
56.4041
 30
-5.91028e-16
  70
    32
  0
VERTEX
  8
0
  5
1B47
 10
-2.75981
 20
56.4914
 30
-5.89952e-16
  70
    32
  0
VERTEX
  8
0
  5
1B48
 10
-2.75129
 20
56.5787
 30
-5.88794e-16
  70
    32
  0
VERTEX
  8
0
  5
1B49
 10
-2.74247
 20
56.6660
 30
-5.87550e-16
  70
    32
  0
VERTEX
  8
0
  5
1B4A
 10
-2.73334
 20
56.7532
 30
-5.86217e-16
  70
    32
  0
VERTEX
  8
0
  5
1B4B
 10
-2.72390
 20
56.8404
 30
-5.84793e-16
  70
    32
  0
VERTEX
  8
0
  5
1B4C
 10
-2.71416
 20
56.9276
 30
-5.83273e-16
  70
    32
  0
VERTEX
  8
0
  5
1B4D
 10
-2.70411
 20
57.0147
 30
-5.81655e-16
  70
    32
  0
VERTEX
  8
0
  5
1B4E
 10
-2.69376
 20
57.1018
 30
-5.79936e-16
  70
    32
  0
VERTEX
  8
0
  5
1B4F
 10
-2.68310
 20
57.1888
 30
-5.78114e-16
  70
    32
  0
VERTEX
  8
0
  5
1B50
 10
-2.67214
 20
57.2759
 30
-5.76183e-16
  70
    32
  0
VERTEX
  8
0
  5
1B51
 10
-2.66088
 20
57.3628
 30
-5.74143e-16
  70
    32
  0
VERTEX
  8
0
  5
1B52
 10
-2.64930
 20
57.4498
 30
-5.71989e-16
  70
    32
  0
VERTEX
  8
0
  5
1B53
 10
-2.63743
 20
57.5367
 30
-5.69719e-16
  70
    32
  0
VERTEX
  8
0
  5
1B54
 10
-2.62525
 20
57.6235
 30
-5.67330e-16
  70
    32
  0
VERTEX
  8
0
  5
1B55
 10
-2.61276
 20
57.7103
 30
-5.64818e-16
  70
    32
  0
VERTEX
  8
0
  5
1B56
 10
-2.59997
 20
57.7971
 30
-5.62180e-16
  70
    32
  0
VERTEX
  8
0
  5
1B57
 10
-2.58688
 20
57.8838
 30
-5.59414e-16
  70
    32
  0
VERTEX
  8
0
  5
1B58
 10
-2.57348
 20
57.9705
 30
-5.56516e-16
  70
    32
  0
VERTEX
  8
0
  5
1B59
 10
-2.55978
 20
58.0571
 30
-5.53483e-16
  70
    32
  0
VERTEX
  8
0
  5
1B5A
 10
-2.54578
 20
58.1437
 30
-5.50313e-16
  70
    32
  0
VERTEX
  8
0
  5
1B5B
 10
-2.53147
 20
58.2302
 30
-5.47001e-16
  70
    32
  0
VERTEX
  8
0
  5
1B5C
 10
-2.51685
 20
58.3167
 30
-5.43546e-16
  70
    32
  0
VERTEX
  8
0
  5
1B5D
 10
-2.50194
 20
58.4032
 30
-5.39944e-16
  70
    32
  0
VERTEX
  8
0
  5
1B5E
 10
-2.48672
 20
58.4895
 30
-5.36191e-16
  70
    32
  0
VERTEX
  8
0
  5
1B5F
 10
-2.47119
 20
58.5759
 30
-5.32286e-16
  70
    32
  0
VERTEX
  8
0
  5
1B60
 10
-2.45537
 20
58.6621
 30
-5.28224e-16
  70
    32
  0
VERTEX
  8
0
  5
1B61
 10
-2.43924
 20
58.7483
 30
-5.24003e-16
  70
    32
  0
VERTEX
  8
0
  5
1B62
 10
-2.42280
 20
58.8345
 30
-5.19619e-16
  70
    32
  0
VERTEX
  8
0
  5
1B63
 10
-2.40607
 20
58.9206
 30
-5.15070e-16
  70
    32
  0
VERTEX
  8
0
  5
1B64
 10
-2.38903
 20
59.0066
 30
-5.10367e-16
  70
    32
  0
VERTEX
  8
0
  5
1B65
 10
-2.37168
 20
59.0926
 30
-5.05642e-16
  70
    32
  0
VERTEX
  8
0
  5
1B66
 10
-2.35404
 20
59.1785
 30
-5.00929e-16
  70
    32
  0
VERTEX
  8
0
  5
1B67
 10
-2.33609
 20
59.2644
 30
-4.96227e-16
  70
    32
  0
VERTEX
  8
0
  5
1B68
 10
-2.31784
 20
59.3501
 30
-4.91534e-16
  70
    32
  0
VERTEX
  8
0
  5
1B69
 10
-2.29929
 20
59.4359
 30
-4.86849e-16
  70
    32
  0
VERTEX
  8
0
  5
1B6A
 10
-2.28044
 20
59.5215
 30
-4.82171e-16
  70
    32
  0
VERTEX
  8
0
  5
1B6B
 10
-2.26128
 20
59.6071
 30
-4.77497e-16
  70
    32
  0
VERTEX
  8
0
  5
1B6C
 10
-2.24183
 20
59.6926
 30
-4.72827e-16
  70
    32
  0
VERTEX
  8
0
  5
1B6D
 10
-2.22207
 20
59.7781
 30
-4.68158e-16
  70
    32
  0
VERTEX
  8
0
  5
1B6E
 10
-2.20202
 20
59.8635
 30
-4.63489e-16
  70
    32
  0
VERTEX
  8
0
  5
1B6F
 10
-2.18166
 20
59.9488
 30
-4.58819e-16
  70
    32
  0
VERTEX
  8
0
  5
1B70
 10
-2.16101
 20
60.0340
 30
-4.54146e-16
  70
    32
  0
VERTEX
  8
0
  5
1B71
 10
-2.14006
 20
60.1192
 30
-4.49468e-16
  70
    32
  0
VERTEX
  8
0
  5
1B72
 10
-2.11880
 20
60.2043
 30
-4.44785e-16
  70
    32
  0
VERTEX
  8
0
  5
1B73
 10
-2.09725
 20
60.2893
 30
-4.40094e-16
  70
    32
  0
VERTEX
  8
0
  5
1B74
 10
-2.07541
 20
60.3742
 30
-4.35394e-16
  70
    32
  0
VERTEX
  8
0
  5
1B75
 10
-2.05326
 20
60.4591
 30
-4.30684e-16
  70
    32
  0
VERTEX
  8
0
  5
1B76
 10
-2.03081
 20
60.5439
 30
-4.25961e-16
  70
    32
  0
VERTEX
  8
0
  5
1B77
 10
-2.00807
 20
60.6286
 30
-4.21225e-16
  70
    32
  0
VERTEX
  8
0
  5
1B78
 10
-1.98504
 20
60.7132
 30
-4.16474e-16
  70
    32
  0
VERTEX
  8
0
  5
1B79
 10
-1.96170
 20
60.7977
 30
-4.11706e-16
  70
    32
  0
VERTEX
  8
0
  5
1B7A
 10
-1.93807
 20
60.8822
 30
-4.06921e-16
  70
    32
  0
VERTEX
  8
0
  5
1B7B
 10
-1.91415
 20
60.9666
 30
-4.02115e-16
  70
    32
  0
VERTEX
  8
0
  5
1B7C
 10
-1.88993
 20
61.0509
 30
-3.97288e-16
  70
    32
  0
VERTEX
  8
0
  5
1B7D
 10
-1.86541
 20
61.1351
 30
-3.92439e-16
  70
    32
  0
VERTEX
  8
0
  5
1B7E
 10
-1.84060
 20
61.2192
 30
-3.87565e-16
  70
    32
  0
VERTEX
  8
0
  5
1B7F
 10
-1.81549
 20
61.3032
 30
-3.82665e-16
  70
    32
  0
VERTEX
  8
0
  5
1B80
 10
-1.79010
 20
61.3872
 30
-3.77738e-16
  70
    32
  0
VERTEX
  8
0
  5
1B81
 10
-1.76440
 20
61.4710
 30
-3.72783e-16
  70
    32
  0
VERTEX
  8
0
  5
1B82
 10
-1.73842
 20
61.5548
 30
-3.67797e-16
  70
    32
  0
VERTEX
  8
0
  5
1B83
 10
-1.71214
 20
61.6385
 30
-3.62779e-16
  70
    32
  0
VERTEX
  8
0
  5
1B84
 10
-1.68557
 20
61.7220
 30
-3.57727e-16
  70
    32
  0
VERTEX
  8
0
  5
1B85
 10
-1.65870
 20
61.8055
 30
-3.52641e-16
  70
    32
  0
VERTEX
  8
0
  5
1B86
 10
-1.63155
 20
61.8889
 30
-3.47518e-16
  70
    32
  0
VERTEX
  8
0
  5
1B87
 10
-1.60410
 20
61.9722
 30
-3.42357e-16
  70
    32
  0
VERTEX
  8
0
  5
1B88
 10
-1.57636
 20
62.0554
 30
-3.37157e-16
  70
    32
  0
VERTEX
  8
0
  5
1B89
 10
-1.54833
 20
62.1385
 30
-3.31916e-16
  70
    32
  0
VERTEX
  8
0
  5
1B8A
 10
-1.52001
 20
62.2215
 30
-3.26632e-16
  70
    32
  0
VERTEX
  8
0
  5
1B8B
 10
-1.49140
 20
62.3044
 30
-3.21304e-16
  70
    32
  0
VERTEX
  8
0
  5
1B8C
 10
-1.46250
 20
62.3872
 30
-3.15930e-16
  70
    32
  0
VERTEX
  8
0
  5
1B8D
 10
-1.43331
 20
62.4699
 30
-3.10509e-16
  70
    32
  0
VERTEX
  8
0
  5
1B8E
 10
-1.40383
 20
62.5525
 30
-3.05040e-16
  70
    32
  0
VERTEX
  8
0
  5
1B8F
 10
-1.37406
 20
62.6350
 30
-2.99520e-16
  70
    32
  0
VERTEX
  8
0
  5
1B90
 10
-1.34401
 20
62.7174
 30
-2.93948e-16
  70
    32
  0
VERTEX
  8
0
  5
1B91
 10
-1.31366
 20
62.7997
 30
-2.88324e-16
  70
    32
  0
VERTEX
  8
0
  5
1B92
 10
-1.28303
 20
62.8819
 30
-2.82644e-16
  70
    32
  0
VERTEX
  8
0
  5
1B93
 10
-1.25211
 20
62.9639
 30
-2.76908e-16
  70
    32
  0
VERTEX
  8
0
  5
1B94
 10
-1.22090
 20
63.0459
 30
-2.71115e-16
  70
    32
  0
VERTEX
  8
0
  5
1B95
 10
-1.18941
 20
63.1278
 30
-2.65262e-16
  70
    32
  0
VERTEX
  8
0
  5
1B96
 10
-1.15762
 20
63.2095
 30
-2.59348e-16
  70
    32
  0
VERTEX
  8
0
  5
1B97
 10
-1.12556
 20
63.2911
 30
-2.53372e-16
  70
    32
  0
VERTEX
  8
0
  5
1B98
 10
-1.09320
 20
63.3726
 30
-2.47331e-16
  70
    32
  0
VERTEX
  8
0
  5
1B99
 10
-1.06057
 20
63.4540
 30
-2.41226e-16
  70
    32
  0
VERTEX
  8
0
  5
1B9A
 10
-1.02764
 20
63.5353
 30
-2.35053e-16
  70
    32
  0
VERTEX
  8
0
  5
1B9B
 10
-0.994433
 20
63.6165
 30
-2.28812e-16
  70
    32
  0
VERTEX
  8
0
  5
1B9C
 10
-0.960940
 20
63.6976
 30
-2.22501e-16
  70
    32
  0
VERTEX
  8
0
  5
1B9D
 10
-0.927163
 20
63.7785
 30
-2.16118e-16
  70
    32
  0
VERTEX
  8
0
  5
1B9E
 10
-0.893102
 20
63.8593
 30
-2.09662e-16
  70
    32
  0
VERTEX
  8
0
  5
1B9F
 10
-0.858758
 20
63.9400
 30
-2.03131e-16
  70
    32
  0
VERTEX
  8
0
  5
1BA0
 10
-0.824130
 20
64.0206
 30
-1.96525e-16
  70
    32
  0
VERTEX
  8
0
  5
1BA1
 10
-0.789220
 20
64.1010
 30
-1.89840e-16
  70
    32
  0
VERTEX
  8
0
  5
1BA2
 10
-0.754027
 20
64.1814
 30
-1.83077e-16
  70
    32
  0
VERTEX
  8
0
  5
1BA3
 10
-0.718552
 20
64.2616
 30
-1.76232e-16
  70
    32
  0
VERTEX
  8
0
  5
1BA4
 10
-0.682796
 20
64.3416
 30
-1.69306e-16
  70
    32
  0
VERTEX
  8
0
  5
1BA5
 10
-0.646757
 20
64.4216
 30
-1.62296e-16
  70
    32
  0
VERTEX
  8
0
  5
1BA6
 10
-0.610438
 20
64.5014
 30
-1.55200e-16
  70
    32
  0
VERTEX
  8
0
  5
1BA7
 10
-0.573838
 20
64.5811
 30
-1.48017e-16
  70
    32
  0
VERTEX
  8
0
  5
1BA8
 10
-0.536958
 20
64.6607
 30
-1.40747e-16
  70
    32
  0
VERTEX
  8
0
  5
1BA9
 10
-0.499797
 20
64.7401
 30
-1.33386e-16
  70
    32
  0
VERTEX
  8
0
  5
1BAA
 10
-0.462357
 20
64.8194
 30
-1.25934e-16
  70
    32
  0
VERTEX
  8
0
  5
1BAB
 10
-0.424637
 20
64.8986
 30
-1.18382e-16
  70
    32
  0
VERTEX
  8
0
  5
1BAC
 10
-0.386639
 20
64.9777
 30
-1.10651e-16
  70
    32
  0
VERTEX
  8
0
  5
1BAD
 10
-0.348364
 20
65.0566
 30
-1.02721e-16
  70
    32
  0
VERTEX
  8
0
  5
1BAE
 10
-0.309811
 20
65.1353
 30
-9.45979e-17
  70
    32
  0
VERTEX
  8
0
  5
1BAF
 10
-0.270981
 20
65.2140
 30
-8.62860e-17
  70
    32
  0
VERTEX
  8
0
  5
1BB0
 10
-0.231875
 20
65.2925
 30
-7.77907e-17
  70
    32
  0
VERTEX
  8
0
  5
1BB1
 10
-0.192494
 20
65.3708
 30
-6.91172e-17
  70
    32
  0
VERTEX
  8
0
  5
1BB2
 10
-0.152838
 20
65.4491
 30
-6.02706e-17
  70
    32
  0
VERTEX
  8
0
  5
1BB3
 10
-0.112908
 20
65.5272
 30
-5.12560e-17
  70
    32
  0
VERTEX
  8
0
  5
1BB4
 10
-0.0727031
 20
65.6051
 30
-4.20786e-17
  70
    32
  0
VERTEX
  8
0
  5
1BB5
 10
-0.0322253
 20
65.6829
 30
-3.27434e-17
  70
    32
  0
VERTEX
  8
0
  5
1BB6
 10
0.00852526
 20
65.7606
 30
-2.32557e-17
  70
    32
  0
VERTEX
  8
0
  5
1BB7
 10
0.0495481
 20
65.8381
 30
-1.36204e-17
  70
    32
  0
VERTEX
  8
0
  5
1BB8
 10
0.0908427
 20
65.9155
 30
-3.84284e-18
  70
    32
  0
VERTEX
  8
0
  5
1BB9
 10
0.132408
 20
65.9927
 30
6.07196e-18
  70
    32
  0
VERTEX
  8
0
  5
1BBA
 10
0.174245
 20
66.0698
 30
1.61189e-17
  70
    32
  0
VERTEX
  8
0
  5
1BBB
 10
0.216351
 20
66.1467
 30
2.62927e-17
  70
    32
  0
VERTEX
  8
0
  5
1BBC
 10
0.258727
 20
66.2235
 30
3.65884e-17
  70
    32
  0
VERTEX
  8
0
  5
1BBD
 10
0.301372
 20
66.3001
 30
4.70008e-17
  70
    32
  0
VERTEX
  8
0
  5
1BBE
 10
0.344285
 20
66.3766
 30
5.75248e-17
  70
    32
  0
VERTEX
  8
0
  5
1BBF
 10
0.387466
 20
66.4530
 30
6.81552e-17
  70
    32
  0
VERTEX
  8
0
  5
1BC0
 10
0.430915
 20
66.5292
 30
7.88870e-17
  70
    32
  0
VERTEX
  8
0
  5
1BC1
 10
0.474630
 20
66.6052
 30
8.97150e-17
  70
    32
  0
VERTEX
  8
0
  5
1BC2
 10
0.518612
 20
66.6811
 30
1.00634e-16
  70
    32
  0
VERTEX
  8
0
  5
1BC3
 10
0.562859
 20
66.7568
 30
1.11639e-16
  70
    32
  0
VERTEX
  8
0
  5
1BC4
 10
0.607371
 20
66.8324
 30
1.22725e-16
  70
    32
  0
VERTEX
  8
0
  5
1BC5
 10
0.652148
 20
66.9078
 30
1.33886e-16
  70
    32
  0
VERTEX
  8
0
  5
1BC6
 10
0.697189
 20
66.9830
 30
1.45118e-16
  70
    32
  0
VERTEX
  8
0
  5
1BC7
 10
0.742494
 20
67.0581
 30
1.56416e-16
  70
    32
  0
VERTEX
  8
0
  5
1BC8
 10
0.788061
 20
67.1331
 30
1.67774e-16
  70
    32
  0
VERTEX
  8
0
  5
1BC9
 10
0.833891
 20
67.2079
 30
1.79187e-16
  70
    32
  0
VERTEX
  8
0
  5
1BCA
 10
0.879982
 20
67.2825
 30
1.90650e-16
  70
    32
  0
VERTEX
  8
0
  5
1BCB
 10
0.926336
 20
67.3569
 30
2.02158e-16
  70
    32
  0
VERTEX
  8
0
  5
1BCC
 10
0.972949
 20
67.4312
 30
2.13706e-16
  70
    32
  0
VERTEX
  8
0
  5
1BCD
 10
1.01982
 20
67.5054
 30
2.25288e-16
  70
    32
  0
VERTEX
  8
0
  5
1BCE
 10
1.06696
 20
67.5793
 30
2.36900e-16
  70
    32
  0
VERTEX
  8
0
  5
1BCF
 10
1.11435
 20
67.6531
 30
2.48537e-16
  70
    32
  0
VERTEX
  8
0
  5
1BD0
 10
1.16200
 20
67.7268
 30
2.60192e-16
  70
    32
  0
VERTEX
  8
0
  5
1BD1
 10
1.20991
 20
67.8002
 30
2.71862e-16
  70
    32
  0
VERTEX
  8
0
  5
1BD2
 10
1.25808
 20
67.8735
 30
2.83541e-16
  70
    32
  0
VERTEX
  8
0
  5
1BD3
 10
1.30650
 20
67.9467
 30
2.95224e-16
  70
    32
  0
VERTEX
  8
0
  5
1BD4
 10
1.35518
 20
68.0196
 30
3.06906e-16
  70
    32
  0
VERTEX
  8
0
  5
1BD5
 10
1.40412
 20
68.0924
 30
3.18581e-16
  70
    32
  0
VERTEX
  8
0
  5
1BD6
 10
1.45331
 20
68.1650
 30
3.30245e-16
  70
    32
  0
VERTEX
  8
0
  5
1BD7
 10
1.50275
 20
68.2375
 30
3.41893e-16
  70
    32
  0
VERTEX
  8
0
  5
1BD8
 10
1.55246
 20
68.3097
 30
3.53518e-16
  70
    32
  0
VERTEX
  8
0
  5
1BD9
 10
1.60241
 20
68.3818
 30
3.65117e-16
  70
    32
  0
VERTEX
  8
0
  5
1BDA
 10
1.65262
 20
68.4537
 30
3.76684e-16
  70
    32
  0
VERTEX
  8
0
  5
1BDB
 10
1.70308
 20
68.5255
 30
3.88220e-16
  70
    32
  0
VERTEX
  8
0
  5
1BDC
 10
1.75379
 20
68.5970
 30
3.99805e-16
  70
    32
  0
VERTEX
  8
0
  5
1BDD
 10
1.80475
 20
68.6684
 30
4.11464e-16
  70
    32
  0
VERTEX
  8
0
  5
1BDE
 10
1.85597
 20
68.7396
 30
4.23196e-16
  70
    32
  0
VERTEX
  8
0
  5
1BDF
 10
1.90743
 20
68.8106
 30
4.35000e-16
  70
    32
  0
VERTEX
  8
0
  5
1BE0
 10
1.95915
 20
68.8815
 30
4.46877e-16
  70
    32
  0
VERTEX
  8
0
  5
1BE1
 10
2.01111
 20
68.9521
 30
4.58824e-16
  70
    32
  0
VERTEX
  8
0
  5
1BE2
 10
2.06333
 20
69.0226
 30
4.70841e-16
  70
    32
  0
VERTEX
  8
0
  5
1BE3
 10
2.11579
 20
69.0929
 30
4.82928e-16
  70
    32
  0
VERTEX
  8
0
  5
1BE4
 10
2.16850
 20
69.1630
 30
4.95083e-16
  70
    32
  0
VERTEX
  8
0
  5
1BE5
 10
2.22145
 20
69.2329
 30
5.07306e-16
  70
    32
  0
VERTEX
  8
0
  5
1BE6
 10
2.27465
 20
69.3026
 30
5.19597e-16
  70
    32
  0
VERTEX
  8
0
  5
1BE7
 10
2.32809
 20
69.3721
 30
5.31953e-16
  70
    32
  0
VERTEX
  8
0
  5
1BE8
 10
2.38178
 20
69.4415
 30
5.44375e-16
  70
    32
  0
VERTEX
  8
0
  5
1BE9
 10
2.43571
 20
69.5107
 30
5.56861e-16
  70
    32
  0
VERTEX
  8
0
  5
1BEA
 10
2.48988
 20
69.5796
 30
5.69412e-16
  70
    32
  0
VERTEX
  8
0
  5
1BEB
 10
2.54430
 20
69.6484
 30
5.82026e-16
  70
    32
  0
VERTEX
  8
0
  5
1BEC
 10
2.59895
 20
69.7170
 30
5.94702e-16
  70
    32
  0
VERTEX
  8
0
  5
1BED
 10
2.65385
 20
69.7854
 30
6.07439e-16
  70
    32
  0
VERTEX
  8
0
  5
1BEE
 10
2.70898
 20
69.8536
 30
6.20238e-16
  70
    32
  0
VERTEX
  8
0
  5
1BEF
 10
2.76436
 20
69.9216
 30
6.33096e-16
  70
    32
  0
VERTEX
  8
0
  5
1BF0
 10
2.81997
 20
69.9894
 30
6.46014e-16
  70
    32
  0
VERTEX
  8
0
  5
1BF1
 10
2.87582
 20
70.0570
 30
6.58990e-16
  70
    32
  0
VERTEX
  8
0
  5
1BF2
 10
2.93190
 20
70.1245
 30
6.72024e-16
  70
    32
  0
VERTEX
  8
0
  5
1BF3
 10
2.98823
 20
70.1917
 30
6.85115e-16
  70
    32
  0
VERTEX
  8
0
  5
1BF4
 10
3.04478
 20
70.2587
 30
6.98262e-16
  70
    32
  0
VERTEX
  8
0
  5
1BF5
 10
3.10157
 20
70.3256
 30
7.11464e-16
  70
    32
  0
VERTEX
  8
0
  5
1BF6
 10
3.15860
 20
70.3922
 30
7.24721e-16
  70
    32
  0
VERTEX
  8
0
  5
1BF7
 10
3.21585
 20
70.4586
 30
7.38032e-16
  70
    32
  0
VERTEX
  8
0
  5
1BF8
 10
3.27334
 20
70.5248
 30
7.51396e-16
  70
    32
  0
VERTEX
  8
0
  5
1BF9
 10
3.33107
 20
70.5909
 30
7.64812e-16
  70
    32
  0
VERTEX
  8
0
  5
1BFA
 10
3.38902
 20
70.6567
 30
7.78280e-16
  70
    32
  0
VERTEX
  8
0
  5
1BFB
 10
3.44720
 20
70.7223
 30
7.91799e-16
  70
    32
  0
VERTEX
  8
0
  5
1BFC
 10
3.50561
 20
70.7877
 30
8.05367e-16
  70
    32
  0
VERTEX
  8
0
  5
1BFD
 10
3.56425
 20
70.8530
 30
8.18985e-16
  70
    32
  0
VERTEX
  8
0
  5
1BFE
 10
3.62311
 20
70.9180
 30
8.32651e-16
  70
    32
  0
VERTEX
  8
0
  5
1BFF
 10
3.68221
 20
70.9828
 30
8.46364e-16
  70
    32
  0
VERTEX
  8
0
  5
1C00
 10
3.74153
 20
71.0474
 30
8.60125e-16
  70
    32
  0
VERTEX
  8
0
  5
1C01
 10
3.80107
 20
71.1118
 30
8.73932e-16
  70
    32
  0
VERTEX
  8
0
  5
1C02
 10
3.86084
 20
71.1759
 30
8.87783e-16
  70
    32
  0
VERTEX
  8
0
  5
1C03
 10
3.92084
 20
71.2399
 30
9.01680e-16
  70
    32
  0
VERTEX
  8
0
  5
1C04
 10
3.98105
 20
71.3037
 30
9.15620e-16
  70
    32
  0
VERTEX
  8
0
  5
1C05
 10
4.04149
 20
71.3672
 30
9.29603e-16
  70
    32
  0
VERTEX
  8
0
  5
1C06
 10
4.10216
 20
71.4306
 30
9.43629e-16
  70
    32
  0
VERTEX
  8
0
  5
1C07
 10
4.16304
 20
71.4937
 30
9.57695e-16
  70
    32
  0
VERTEX
  8
0
  5
1C08
 10
4.22414
 20
71.5566
 30
9.71803e-16
  70
    32
  0
VERTEX
  8
0
  5
1C09
 10
4.28546
 20
71.6193
 30
9.85950e-16
  70
    32
  0
VERTEX
  8
0
  5
1C0A
 10
4.34701
 20
71.6818
 30
1.00014e-15
  70
    32
  0
VERTEX
  8
0
  5
1C0B
 10
4.40876
 20
71.7440
 30
1.01436e-15
  70
    32
  0
VERTEX
  8
0
  5
1C0C
 10
4.47074
 20
71.8061
 30
1.02862e-15
  70
    32
  0
VERTEX
  8
0
  5
1C0D
 10
4.53294
 20
71.8679
 30
1.04292e-15
  70
    32
  0
VERTEX
  8
0
  5
1C0E
 10
4.59534
 20
71.9295
 30
1.05726e-15
  70
    32
  0
VERTEX
  8
0
  5
1C0F
 10
4.65797
 20
71.9909
 30
1.07163e-15
  70
    32
  0
VERTEX
  8
0
  5
1C10
 10
4.72081
 20
72.0521
 30
1.08603e-15
  70
    32
  0
VERTEX
  8
0
  5
1C11
 10
4.78386
 20
72.1131
 30
1.10047e-15
  70
    32
  0
VERTEX
  8
0
  5
1C12
 10
4.84713
 20
72.1738
 30
1.11494e-15
  70
    32
  0
VERTEX
  8
0
  5
1C13
 10
4.91061
 20
72.2343
 30
1.12945e-15
  70
    32
  0
VERTEX
  8
0
  5
1C14
 10
4.97429
 20
72.2946
 30
1.14398e-15
  70
    32
  0
VERTEX
  8
0
  5
1C15
 10
5.03820
 20
72.3547
 30
1.15855e-15
  70
    32
  0
VERTEX
  8
0
  5
1C16
 10
5.10231
 20
72.4145
 30
1.17314e-15
  70
    32
  0
VERTEX
  8
0
  5
1C17
 10
5.16663
 20
72.4741
 30
1.18776e-15
  70
    32
  0
VERTEX
  8
0
  5
1C18
 10
5.23115
 20
72.5335
 30
1.20242e-15
  70
    32
  0
VERTEX
  8
0
  5
1C19
 10
5.29589
 20
72.5927
 30
1.21710e-15
  70
    32
  0
VERTEX
  8
0
  5
1C1A
 10
5.36083
 20
72.6516
 30
1.23180e-15
  70
    32
  0
VERTEX
  8
0
  5
1C1B
 10
5.42598
 20
72.7103
 30
1.24653e-15
  70
    32
  0
VERTEX
  8
0
  5
1C1C
 10
5.49134
 20
72.7688
 30
1.26129e-15
  70
    32
  0
VERTEX
  8
0
  5
1C1D
 10
5.55690
 20
72.8271
 30
1.27607e-15
  70
    32
  0
VERTEX
  8
0
  5
1C1E
 10
5.62266
 20
72.8851
 30
1.29088e-15
  70
    32
  0
VERTEX
  8
0
  5
1C1F
 10
5.68863
 20
72.9429
 30
1.30571e-15
  70
    32
  0
VERTEX
  8
0
  5
1C20
 10
5.75480
 20
73.0005
 30
1.32056e-15
  70
    32
  0
VERTEX
  8
0
  5
1C21
 10
5.82117
 20
73.0578
 30
1.33543e-15
  70
    32
  0
VERTEX
  8
0
  5
1C22
 10
5.88774
 20
73.1149
 30
1.35032e-15
  70
    32
  0
VERTEX
  8
0
  5
1C23
 10
5.95452
 20
73.1717
 30
1.36523e-15
  70
    32
  0
VERTEX
  8
0
  5
1C24
 10
6.02149
 20
73.2284
 30
1.38016e-15
  70
    32
  0
VERTEX
  8
0
  5
1C25
 10
6.08866
 20
73.2847
 30
1.39511e-15
  70
    32
  0
VERTEX
  8
0
  5
1C26
 10
6.15603
 20
73.3409
 30
1.41008e-15
  70
    32
  0
VERTEX
  8
0
  5
1C27
 10
6.22360
 20
73.3968
 30
1.42506e-15
  70
    32
  0
VERTEX
  8
0
  5
1C28
 10
6.29137
 20
73.4525
 30
1.44006e-15
  70
    32
  0
VERTEX
  8
0
  5
1C29
 10
6.35933
 20
73.5079
 30
1.45507e-15
  70
    32
  0
VERTEX
  8
0
  5
1C2A
 10
6.42748
 20
73.5631
 30
1.47010e-15
  70
    32
  0
VERTEX
  8
0
  5
1C2B
 10
6.49583
 20
73.6181
 30
1.48514e-15
  70
    32
  0
VERTEX
  8
0
  5
1C2C
 10
6.56438
 20
73.6728
 30
1.50020e-15
  70
    32
  0
VERTEX
  8
0
  5
1C2D
 10
6.63312
 20
73.7273
 30
1.51526e-15
  70
    32
  0
VERTEX
  8
0
  5
1C2E
 10
6.70205
 20
73.7815
 30
1.53034e-15
  70
    32
  0
VERTEX
  8
0
  5
1C2F
 10
6.77117
 20
73.8355
 30
1.54543e-15
  70
    32
  0
VERTEX
  8
0
  5
1C30
 10
6.84048
 20
73.8892
 30
1.56054e-15
  70
    32
  0
VERTEX
  8
0
  5
1C31
 10
6.90998
 20
73.9427
 30
1.57566e-15
  70
    32
  0
VERTEX
  8
0
  5
1C32
 10
6.97966
 20
73.9960
 30
1.59080e-15
  70
    32
  0
VERTEX
  8
0
  5
1C33
 10
7.04954
 20
74.0490
 30
1.60595e-15
  70
    32
  0
VERTEX
  8
0
  5
1C34
 10
7.11960
 20
74.1017
 30
1.62112e-15
  70
    32
  0
VERTEX
  8
0
  5
1C35
 10
7.18984
 20
74.1543
 30
1.63631e-15
  70
    32
  0
VERTEX
  8
0
  5
1C36
 10
7.26027
 20
74.2065
 30
1.65152e-15
  70
    32
  0
VERTEX
  8
0
  5
1C37
 10
7.33089
 20
74.2585
 30
1.66674e-15
  70
    32
  0
VERTEX
  8
0
  5
1C38
 10
7.40168
 20
74.3103
 30
1.68199e-15
  70
    32
  0
VERTEX
  8
0
  5
1C39
 10
7.47266
 20
74.3618
 30
1.69725e-15
  70
    32
  0
VERTEX
  8
0
  5
1C3A
 10
7.54382
 20
74.4131
 30
1.71254e-15
  70
    32
  0
VERTEX
  8
0
  5
1C3B
 10
7.61516
 20
74.4641
 30
1.72785e-15
  70
    32
  0
VERTEX
  8
0
  5
1C3C
 10
7.68667
 20
74.5149
 30
1.74318e-15
  70
    32
  0
VERTEX
  8
0
  5
1C3D
 10
7.75837
 20
74.5654
 30
1.75853e-15
  70
    32
  0
VERTEX
  8
0
  5
1C3E
 10
7.83024
 20
74.6157
 30
1.77391e-15
  70
    32
  0
VERTEX
  8
0
  5
1C3F
 10
7.90228
 20
74.6657
 30
1.78931e-15
  70
    32
  0
VERTEX
  8
0
  5
1C40
 10
7.97451
 20
74.7155
 30
1.80474e-15
  70
    32
  0
VERTEX
  8
0
  5
1C41
 10
8.04690
 20
74.7650
 30
1.82020e-15
  70
    32
  0
VERTEX
  8
0
  5
1C42
 10
8.11947
 20
74.8142
 30
1.83568e-15
  70
    32
  0
VERTEX
  8
0
  5
1C43
 10
8.19221
 20
74.8632
 30
1.85118e-15
  70
    32
  0
VERTEX
  8
0
  5
1C44
 10
8.26513
 20
74.9120
 30
1.86672e-15
  70
    32
  0
VERTEX
  8
0
  5
1C45
 10
8.33821
 20
74.9605
 30
1.88228e-15
  70
    32
  0
VERTEX
  8
0
  5
1C46
 10
8.41146
 20
75.0087
 30
1.89788e-15
  70
    32
  0
VERTEX
  8
0
  5
1C47
 10
8.48488
 20
75.0567
 30
1.91350e-15
  70
    32
  0
VERTEX
  8
0
  5
1C48
 10
8.55847
 20
75.1044
 30
1.92915e-15
  70
    32
  0
VERTEX
  8
0
  5
1C49
 10
8.63222
 20
75.1519
 30
1.94484e-15
  70
    32
  0
VERTEX
  8
0
  5
1C4A
 10
8.70614
 20
75.1991
 30
1.96056e-15
  70
    32
  0
VERTEX
  8
0
  5
1C4B
 10
8.78023
 20
75.2460
 30
1.97631e-15
  70
    32
  0
VERTEX
  8
0
  5
1C4C
 10
8.85448
 20
75.2927
 30
1.99209e-15
  70
    32
  0
VERTEX
  8
0
  5
1C4D
 10
8.92889
 20
75.3391
 30
2.00791e-15
  70
    32
  0
VERTEX
  8
0
  5
1C4E
 10
9.00346
 20
75.3853
 30
2.02376e-15
  70
    32
  0
VERTEX
  8
0
  5
1C4F
 10
9.07820
 20
75.4312
 30
2.03965e-15
  70
    32
  0
VERTEX
  8
0
  5
1C50
 10
9.15309
 20
75.4768
 30
2.05557e-15
  70
    32
  0
VERTEX
  8
0
  5
1C51
 10
9.22815
 20
75.5222
 30
2.07153e-15
  70
    32
  0
VERTEX
  8
0
  5
1C52
 10
9.30336
 20
75.5673
 30
2.08753e-15
  70
    32
  0
VERTEX
  8
0
  5
1C53
 10
9.37873
 20
75.6122
 30
2.10356e-15
  70
    32
  0
VERTEX
  8
0
  5
1C54
 10
9.45426
 20
75.6567
 30
2.11964e-15
  70
    32
  0
VERTEX
  8
0
  5
1C55
 10
9.52994
 20
75.7011
 30
2.13575e-15
  70
    32
  0
VERTEX
  8
0
  5
1C56
 10
9.60577
 20
75.7451
 30
2.15191e-15
  70
    32
  0
VERTEX
  8
0
  5
1C57
 10
9.68176
 20
75.7889
 30
2.16810e-15
  70
    32
  0
VERTEX
  8
0
  5
1C58
 10
9.75790
 20
75.8325
 30
2.18434e-15
  70
    32
  0
VERTEX
  8
0
  5
1C59
 10
9.83420
 20
75.8757
 30
2.20062e-15
  70
    32
  0
VERTEX
  8
0
  5
1C5A
 10
9.91064
 20
75.9187
 30
2.21694e-15
  70
    32
  0
VERTEX
  8
0
  5
1C5B
 10
9.98724
 20
75.9614
 30
2.23331e-15
  70
    32
  0
VERTEX
  8
0
  5
1C5C
 10
10.0640
 20
76.0039
 30
2.24972e-15
  70
    32
  0
VERTEX
  8
0
  5
1C5D
 10
10.1409
 20
76.0461
 30
2.26617e-15
  70
    32
  0
VERTEX
  8
0
  5
1C5E
 10
10.2179
 20
76.0880
 30
2.28267e-15
  70
    32
  0
VERTEX
  8
0
  5
1C5F
 10
10.2951
 20
76.1296
 30
2.29922e-15
  70
    32
  0
VERTEX
  8
0
  5
1C60
 10
10.3724
 20
76.1710
 30
2.31581e-15
  70
    32
  0
VERTEX
  8
0
  5
1C61
 10
10.4499
 20
76.2121
 30
2.33245e-15
  70
    32
  0
VERTEX
  8
0
  5
1C62
 10
10.5275
 20
76.2530
 30
2.34914e-15
  70
    32
  0
VERTEX
  8
0
  5
1C63
 10
10.6053
 20
76.2935
 30
2.36588e-15
  70
    32
  0
VERTEX
  8
0
  5
1C64
 10
10.6832
 20
76.3338
 30
2.38267e-15
  70
    32
  0
VERTEX
  8
0
  5
1C65
 10
10.7612
 20
76.3738
 30
2.39951e-15
  70
    32
  0
VERTEX
  8
0
  5
1C66
 10
10.8394
 20
76.4136
 30
2.41640e-15
  70
    32
  0
VERTEX
  8
0
  5
1C67
 10
10.9177
 20
76.4531
 30
2.43334e-15
  70
    32
  0
VERTEX
  8
0
  5
1C68
 10
10.9962
 20
76.4922
 30
2.45034e-15
  70
    32
  0
VERTEX
  8
0
  5
1C69
 10
11.0748
 20
76.5312
 30
2.46738e-15
  70
    32
  0
VERTEX
  8
0
  5
1C6A
 10
11.1535
 20
76.5698
 30
2.48448e-15
  70
    32
  0
VERTEX
  8
0
  5
1C6B
 10
11.2324
 20
76.6082
 30
2.50164e-15
  70
    32
  0
VERTEX
  8
0
  5
1C6C
 10
11.3114
 20
76.6463
 30
2.51885e-15
  70
    32
  0
VERTEX
  8
0
  5
1C6D
 10
11.3905
 20
76.6841
 30
2.53612e-15
  70
    32
  0
VERTEX
  8
0
  5
1C6E
 10
11.4698
 20
76.7216
 30
2.55344e-15
  70
    32
  0
VERTEX
  8
0
  5
1C6F
 10
11.5491
 20
76.7589
 30
2.57082e-15
  70
    32
  0
VERTEX
  8
0
  5
1C70
 10
11.6287
 20
76.7958
 30
2.58826e-15
  70
    32
  0
VERTEX
  8
0
  5
1C71
 10
11.7083
 20
76.8325
 30
2.60575e-15
  70
    32
  0
VERTEX
  8
0
  5
1C72
 10
11.7881
 20
76.8690
 30
2.62331e-15
  70
    32
  0
VERTEX
  8
0
  5
1C73
 10
11.8680
 20
76.9051
 30
2.64093e-15
  70
    32
  0
VERTEX
  8
0
  5
1C74
 10
11.9481
 20
76.9409
 30
2.65860e-15
  70
    32
  0
VERTEX
  8
0
  5
1C75
 10
12.0282
 20
76.9765
 30
2.67634e-15
  70
    32
  0
VERTEX
  8
0
  5
1C76
 10
12.1085
 20
77.0118
 30
2.69414e-15
  70
    32
  0
VERTEX
  8
0
  5
1C77
 10
12.1889
 20
77.0468
 30
2.71200e-15
  70
    32
  0
VERTEX
  8
0
  5
1C78
 10
12.2695
 20
77.0815
 30
2.72993e-15
  70
    32
  0
VERTEX
  8
0
  5
1C79
 10
12.3501
 20
77.1160
 30
2.74792e-15
  70
    32
  0
VERTEX
  8
0
  5
1C7A
 10
12.4309
 20
77.1501
 30
2.76597e-15
  70
    32
  0
VERTEX
  8
0
  5
1C7B
 10
12.5118
 20
77.1840
 30
2.78412e-15
  70
    32
  0
VERTEX
  8
0
  5
1C7C
 10
12.5928
 20
77.2176
 30
2.80240e-15
  70
    32
  0
VERTEX
  8
0
  5
1C7D
 10
12.6739
 20
77.2509
 30
2.82079e-15
  70
    32
  0
VERTEX
  8
0
  5
1C7E
 10
12.7552
 20
77.2839
 30
2.83930e-15
  70
    32
  0
VERTEX
  8
0
  5
1C7F
 10
12.8365
 20
77.3166
 30
2.85792e-15
  70
    32
  0
VERTEX
  8
0
  5
1C80
 10
12.9180
 20
77.3490
 30
2.87664e-15
  70
    32
  0
VERTEX
  8
0
  5
1C81
 10
12.9996
 20
77.3812
 30
2.89548e-15
  70
    32
  0
VERTEX
  8
0
  5
1C82
 10
13.0813
 20
77.4131
 30
2.91441e-15
  70
    32
  0
VERTEX
  8
0
  5
1C83
 10
13.1631
 20
77.4447
 30
2.93343e-15
  70
    32
  0
VERTEX
  8
0
  5
1C84
 10
13.2451
 20
77.4759
 30
2.95256e-15
  70
    32
  0
VERTEX
  8
0
  5
1C85
 10
13.3271
 20
77.5069
 30
2.97177e-15
  70
    32
  0
VERTEX
  8
0
  5
1C86
 10
13.4093
 20
77.5377
 30
2.99106e-15
  70
    32
  0
VERTEX
  8
0
  5
1C87
 10
13.4915
 20
77.5681
 30
3.01044e-15
  70
    32
  0
VERTEX
  8
0
  5
1C88
 10
13.5739
 20
77.5982
 30
3.02990e-15
  70
    32
  0
VERTEX
  8
0
  5
1C89
 10
13.6563
 20
77.6281
 30
3.04944e-15
  70
    32
  0
VERTEX
  8
0
  5
1C8A
 10
13.7389
 20
77.6577
 30
3.06905e-15
  70
    32
  0
VERTEX
  8
0
  5
1C8B
 10
13.8216
 20
77.6869
 30
3.08873e-15
  70
    32
  0
VERTEX
  8
0
  5
1C8C
 10
13.9043
 20
77.7159
 30
3.10847e-15
  70
    32
  0
VERTEX
  8
0
  5
1C8D
 10
13.9872
 20
77.7446
 30
3.12827e-15
  70
    32
  0
VERTEX
  8
0
  5
1C8E
 10
14.0702
 20
77.7730
 30
3.14813e-15
  70
    32
  0
VERTEX
  8
0
  5
1C8F
 10
14.1533
 20
77.8011
 30
3.16805e-15
  70
    32
  0
VERTEX
  8
0
  5
1C90
 10
14.2364
 20
77.8289
 30
3.18802e-15
  70
    32
  0
VERTEX
  8
0
  5
1C91
 10
14.3197
 20
77.8565
 30
3.20803e-15
  70
    32
  0
VERTEX
  8
0
  5
1C92
 10
14.4031
 20
77.8837
 30
3.22809e-15
  70
    32
  0
VERTEX
  8
0
  5
1C93
 10
14.4865
 20
77.9106
 30
3.24819e-15
  70
    32
  0
VERTEX
  8
0
  5
1C94
 10
14.5701
 20
77.9373
 30
3.26833e-15
  70
    32
  0
VERTEX
  8
0
  5
1C95
 10
14.6538
 20
77.9637
 30
3.28850e-15
  70
    32
  0
VERTEX
  8
0
  5
1C96
 10
14.7375
 20
77.9897
 30
3.30870e-15
  70
    32
  0
VERTEX
  8
0
  5
1C97
 10
14.8213
 20
78.0155
 30
3.32892e-15
  70
    32
  0
VERTEX
  8
0
  5
1C98
 10
14.9052
 20
78.0410
 30
3.34917e-15
  70
    32
  0
VERTEX
  8
0
  5
1C99
 10
14.9893
 20
78.0662
 30
3.36944e-15
  70
    32
  0
VERTEX
  8
0
  5
1C9A
 10
15.0734
 20
78.0911
 30
3.38972e-15
  70
    32
  0
VERTEX
  8
0
  5
1C9B
 10
15.1575
 20
78.1156
 30
3.41002e-15
  70
    32
  0
VERTEX
  8
0
  5
1C9C
 10
15.2418
 20
78.1400
 30
3.43032e-15
  70
    32
  0
VERTEX
  8
0
  5
1C9D
 10
15.3262
 20
78.1640
 30
3.45063e-15
  70
    32
  0
VERTEX
  8
0
  5
1C9E
 10
15.4106
 20
78.1877
 30
3.47095e-15
  70
    32
  0
VERTEX
  8
0
  5
1C9F
 10
15.4951
 20
78.2111
 30
3.49125e-15
  70
    32
  0
VERTEX
  8
0
  5
1CA0
 10
15.5797
 20
78.2342
 30
3.51156e-15
  70
    32
  0
VERTEX
  8
0
  5
1CA1
 10
15.6644
 20
78.2570
 30
3.53185e-15
  70
    32
  0
VERTEX
  8
0
  5
1CA2
 10
15.7492
 20
78.2795
 30
3.55214e-15
  70
    32
  0
VERTEX
  8
0
  5
1CA3
 10
15.8340
 20
78.3018
 30
3.57240e-15
  70
    32
  0
VERTEX
  8
0
  5
1CA4
 10
15.9189
 20
78.3237
 30
3.59265e-15
  70
    32
  0
VERTEX
  8
0
  5
1CA5
 10
16.0039
 20
78.3453
 30
3.61288e-15
  70
    32
  0
VERTEX
  8
0
  5
1CA6
 10
16.0890
 20
78.3667
 30
3.63307e-15
  70
    32
  0
VERTEX
  8
0
  5
1CA7
 10
16.1742
 20
78.3877
 30
3.65324e-15
  70
    32
  0
VERTEX
  8
0
  5
1CA8
 10
16.2594
 20
78.4084
 30
3.67337e-15
  70
    32
  0
VERTEX
  8
0
  5
1CA9
 10
16.3447
 20
78.4289
 30
3.69347e-15
  70
    32
  0
VERTEX
  8
0
  5
1CAA
 10
16.4300
 20
78.4490
 30
3.71353e-15
  70
    32
  0
VERTEX
  8
0
  5
1CAB
 10
16.5155
 20
78.4688
 30
3.73354e-15
  70
    32
  0
VERTEX
  8
0
  5
1CAC
 10
16.6010
 20
78.4884
 30
3.75350e-15
  70
    32
  0
VERTEX
  8
0
  5
1CAD
 10
16.6865
 20
78.5076
 30
3.77341e-15
  70
    32
  0
VERTEX
  8
0
  5
1CAE
 10
16.7722
 20
78.5266
 30
3.79327e-15
  70
    32
  0
VERTEX
  8
0
  5
1CAF
 10
16.8579
 20
78.5452
 30
3.81307e-15
  70
    32
  0
VERTEX
  8
0
  5
1CB0
 10
16.9437
 20
78.5635
 30
3.83281e-15
  70
    32
  0
VERTEX
  8
0
  5
1CB1
 10
17.0295
 20
78.5816
 30
3.85248e-15
  70
    32
  0
VERTEX
  8
0
  5
1CB2
 10
17.1154
 20
78.5993
 30
3.87209e-15
  70
    32
  0
VERTEX
  8
0
  5
1CB3
 10
17.2013
 20
78.6167
 30
3.89166e-15
  70
    32
  0
VERTEX
  8
0
  5
1CB4
 10
17.2874
 20
78.6338
 30
3.91119e-15
  70
    32
  0
VERTEX
  8
0
  5
1CB5
 10
17.3734
 20
78.6506
 30
3.93070e-15
  70
    32
  0
VERTEX
  8
0
  5
1CB6
 10
17.4596
 20
78.6672
 30
3.95017e-15
  70
    32
  0
VERTEX
  8
0
  5
1CB7
 10
17.5458
 20
78.6834
 30
3.96962e-15
  70
    32
  0
VERTEX
  8
0
  5
1CB8
 10
17.6320
 20
78.6993
 30
3.98904e-15
  70
    32
  0
VERTEX
  8
0
  5
1CB9
 10
17.7183
 20
78.7149
 30
4.00843e-15
  70
    32
  0
VERTEX
  8
0
  5
1CBA
 10
17.8047
 20
78.7302
 30
4.02779e-15
  70
    32
  0
VERTEX
  8
0
  5
1CBB
 10
17.8911
 20
78.7452
 30
4.04713e-15
  70
    32
  0
VERTEX
  8
0
  5
1CBC
 10
17.9776
 20
78.7599
 30
4.06644e-15
  70
    32
  0
VERTEX
  8
0
  5
1CBD
 10
18.0641
 20
78.7743
 30
4.08572e-15
  70
    32
  0
VERTEX
  8
0
  5
1CBE
 10
18.1507
 20
78.7883
 30
4.10498e-15
  70
    32
  0
VERTEX
  8
0
  5
1CBF
 10
18.2373
 20
78.8021
 30
4.12422e-15
  70
    32
  0
VERTEX
  8
0
  5
1CC0
 10
18.3239
 20
78.8156
 30
4.14343e-15
  70
    32
  0
VERTEX
  8
0
  5
1CC1
 10
18.4106
 20
78.8288
 30
4.16262e-15
  70
    32
  0
VERTEX
  8
0
  5
1CC2
 10
18.4974
 20
78.8416
 30
4.18179e-15
  70
    32
  0
VERTEX
  8
0
  5
1CC3
 10
18.5842
 20
78.8542
 30
4.20094e-15
  70
    32
  0
VERTEX
  8
0
  5
1CC4
 10
18.6710
 20
78.8664
 30
4.22006e-15
  70
    32
  0
VERTEX
  8
0
  5
1CC5
 10
18.7579
 20
78.8784
 30
4.23917e-15
  70
    32
  0
VERTEX
  8
0
  5
1CC6
 10
18.8448
 20
78.8900
 30
4.25826e-15
  70
    32
  0
VERTEX
  8
0
  5
1CC7
 10
18.9318
 20
78.9014
 30
4.27733e-15
  70
    32
  0
VERTEX
  8
0
  5
1CC8
 10
19.0188
 20
78.9124
 30
4.29638e-15
  70
    32
  0
VERTEX
  8
0
  5
1CC9
 10
19.1059
 20
78.9231
 30
4.31542e-15
  70
    32
  0
VERTEX
  8
0
  5
1CCA
 10
19.1929
 20
78.9336
 30
4.33444e-15
  70
    32
  0
VERTEX
  8
0
  5
1CCB
 10
19.2801
 20
78.9437
 30
4.35344e-15
  70
    32
  0
VERTEX
  8
0
  5
1CCC
 10
19.3672
 20
78.9535
 30
4.37243e-15
  70
    32
  0
VERTEX
  8
0
  5
1CCD
 10
19.4544
 20
78.9630
 30
4.39140e-15
  70
    32
  0
VERTEX
  8
0
  5
1CCE
 10
19.5416
 20
78.9722
 30
4.41036e-15
  70
    32
  0
VERTEX
  8
0
  5
1CCF
 10
19.6289
 20
78.9811
 30
4.42931e-15
  70
    32
  0
VERTEX
  8
0
  5
1CD0
 10
19.7161
 20
78.9897
 30
4.44825e-15
  70
    32
  0
VERTEX
  8
0
  5
1CD1
 10
19.8034
 20
78.9980
 30
4.46717e-15
  70
    32
  0
VERTEX
  8
0
  5
1CD2
 10
19.8908
 20
79.0060
 30
4.48609e-15
  70
    32
  0
VERTEX
  8
0
  5
1CD3
 10
19.9782
 20
79.0137
 30
4.50499e-15
  70
    32
  0
VERTEX
  8
0
  5
1CD4
 10
20.0655
 20
79.0211
 30
4.52389e-15
  70
    32
  0
VERTEX
  8
0
  5
1CD5
 10
20.1530
 20
79.0281
 30
4.54278e-15
  70
    32
  0
VERTEX
  8
0
  5
1CD6
 10
20.2404
 20
79.0349
 30
4.56166e-15
  70
    32
  0
VERTEX
  8
0
  5
1CD7
 10
20.3279
 20
79.0413
 30
4.58053e-15
  70
    32
  0
VERTEX
  8
0
  5
1CD8
 10
20.4153
 20
79.0475
 30
4.59939e-15
  70
    32
  0
VERTEX
  8
0
  5
1CD9
 10
20.5029
 20
79.0533
 30
4.61825e-15
  70
    32
  0
VERTEX
  8
0
  5
1CDA
 10
20.5904
 20
79.0589
 30
4.63711e-15
  70
    32
  0
VERTEX
  8
0
  5
1CDB
 10
20.6779
 20
79.0641
 30
4.65596e-15
  70
    32
  0
VERTEX
  8
0
  5
1CDC
 10
20.7655
 20
79.0690
 30
4.67480e-15
  70
    32
  0
VERTEX
  8
0
  5
1CDD
 10
20.8531
 20
79.0737
 30
4.69365e-15
  70
    32
  0
VERTEX
  8
0
  5
1CDE
 10
20.9407
 20
79.0780
 30
4.71249e-15
  70
    32
  0
VERTEX
  8
0
  5
1CDF
 10
21.0283
 20
79.0820
 30
4.73133e-15
  70
    32
  0
VERTEX
  8
0
  5
1CE0
 10
21.1159
 20
79.0857
 30
4.75017e-15
  70
    32
  0
VERTEX
  8
0
  5
1CE1
 10
21.2035
 20
79.0891
 30
4.76901e-15
  70
    32
  0
VERTEX
  8
0
  5
1CE2
 10
21.2912
 20
79.0922
 30
4.78784e-15
  70
    32
  0
VERTEX
  8
0
  5
1CE3
 10
21.3788
 20
79.0949
 30
4.80668e-15
  70
    32
  0
VERTEX
  8
0
  5
1CE4
 10
21.4665
 20
79.0974
 30
4.82553e-15
  70
    32
  0
VERTEX
  8
0
  5
1CE5
 10
21.5542
 20
79.0996
 30
4.84437e-15
  70
    32
  0
VERTEX
  8
0
  5
1CE6
 10
21.6419
 20
79.1015
 30
4.86322e-15
  70
    32
  0
VERTEX
  8
0
  5
1CE7
 10
21.7295
 20
79.1030
 30
4.88207e-15
  70
    32
  0
VERTEX
  8
0
  5
1CE8
 10
21.8172
 20
79.1043
 30
4.90093e-15
  70
    32
  0
VERTEX
  8
0
  5
1CE9
 10
21.9049
 20
79.1052
 30
4.91979e-15
  70
    32
  0
VERTEX
  8
0
  5
1CEA
 10
21.9926
 20
79.1058
 30
4.93866e-15
  70
    32
  0
VERTEX
  8
0
  5
1CEB
 10
22.0803
 20
79.1062
 30
4.95753e-15
  70
    32
  0
VERTEX
  8
0
  5
1CEC
 10
22.1680
 20
79.1062
 30
4.97642e-15
  70
    32
  0
VERTEX
  8
0
  5
1CED
 10
22.2557
 20
79.1059
 30
4.99531e-15
  70
    32
  0
VERTEX
  8
0
  5
1CEE
 10
22.3434
 20
79.1053
 30
5.01421e-15
  70
    32
  0
VERTEX
  8
0
  5
1CEF
 10
22.4311
 20
79.1044
 30
5.03311e-15
  70
    32
  0
VERTEX
  8
0
  5
1CF0
 10
22.5188
 20
79.1032
 30
5.05203e-15
  70
    32
  0
VERTEX
  8
0
  5
1CF1
 10
22.6065
 20
79.1017
 30
5.07096e-15
  70
    32
  0
VERTEX
  8
0
  5
1CF2
 10
22.6942
 20
79.0998
 30
5.08991e-15
  70
    32
  0
VERTEX
  8
0
  5
1CF3
 10
22.7819
 20
79.0977
 30
5.10886e-15
  70
    32
  0
VERTEX
  8
0
  5
1CF4
 10
22.8695
 20
79.0953
 30
5.12783e-15
  70
    32
  0
VERTEX
  8
0
  5
1CF5
 10
22.9572
 20
79.0925
 30
5.14681e-15
  70
    32
  0
VERTEX
  8
0
  5
1CF6
 10
23.0448
 20
79.0895
 30
5.16580e-15
  70
    32
  0
VERTEX
  8
0
  5
1CF7
 10
23.1325
 20
79.0861
 30
5.18481e-15
  70
    32
  0
VERTEX
  8
0
  5
1CF8
 10
23.2201
 20
79.0824
 30
5.20384e-15
  70
    32
  0
VERTEX
  8
0
  5
1CF9
 10
23.3077
 20
79.0785
 30
5.22288e-15
  70
    32
  0
VERTEX
  8
0
  5
1CFA
 10
23.3953
 20
79.0742
 30
5.24194e-15
  70
    32
  0
VERTEX
  8
0
  5
1CFB
 10
23.4829
 20
79.0696
 30
5.26102e-15
  70
    32
  0
VERTEX
  8
0
  5
1CFC
 10
23.5705
 20
79.0647
 30
5.28012e-15
  70
    32
  0
VERTEX
  8
0
  5
1CFD
 10
23.6580
 20
79.0595
 30
5.29923e-15
  70
    32
  0
VERTEX
  8
0
  5
1CFE
 10
23.7455
 20
79.0540
 30
5.31837e-15
  70
    32
  0
VERTEX
  8
0
  5
1CFF
 10
23.8330
 20
79.0481
 30
5.33753e-15
  70
    32
  0
VERTEX
  8
0
  5
1D00
 10
23.9205
 20
79.0420
 30
5.35671e-15
  70
    32
  0
VERTEX
  8
0
  5
1D01
 10
24.0080
 20
79.0355
 30
5.37591e-15
  70
    32
  0
VERTEX
  8
0
  5
1D02
 10
24.0954
 20
79.0288
 30
5.39513e-15
  70
    32
  0
VERTEX
  8
0
  5
1D03
 10
24.1829
 20
79.0217
 30
5.41437e-15
  70
    32
  0
VERTEX
  8
0
  5
1D04
 10
24.2702
 20
79.0144
 30
5.43365e-15
  70
    32
  0
VERTEX
  8
0
  5
1D05
 10
24.3576
 20
79.0067
 30
5.45300e-15
  70
    32
  0
VERTEX
  8
0
  5
1D06
 10
24.4450
 20
78.9987
 30
5.47243e-15
  70
    32
  0
VERTEX
  8
0
  5
1D07
 10
24.5323
 20
78.9904
 30
5.49194e-15
  70
    32
  0
VERTEX
  8
0
  5
1D08
 10
24.6195
 20
78.9818
 30
5.51152e-15
  70
    32
  0
VERTEX
  8
0
  5
1D09
 10
24.7068
 20
78.9729
 30
5.53118e-15
  70
    32
  0
VERTEX
  8
0
  5
1D0A
 10
24.7940
 20
78.9637
 30
5.55089e-15
  70
    32
  0
VERTEX
  8
0
  5
1D0B
 10
24.8812
 20
78.9542
 30
5.57065e-15
  70
    32
  0
VERTEX
  8
0
  5
1D0C
 10
24.9684
 20
78.9444
 30
5.59047e-15
  70
    32
  0
VERTEX
  8
0
  5
1D0D
 10
25.0555
 20
78.9342
 30
5.61033e-15
  70
    32
  0
VERTEX
  8
0
  5
1D0E
 10
25.1426
 20
78.9238
 30
5.63022e-15
  70
    32
  0
VERTEX
  8
0
  5
1D0F
 10
25.2296
 20
78.9131
 30
5.65015e-15
  70
    32
  0
VERTEX
  8
0
  5
1D10
 10
25.3166
 20
78.9020
 30
5.67010e-15
  70
    32
  0
VERTEX
  8
0
  5
1D11
 10
25.4036
 20
78.8907
 30
5.69007e-15
  70
    32
  0
VERTEX
  8
0
  5
1D12
 10
25.4905
 20
78.8790
 30
5.71005e-15
  70
    32
  0
VERTEX
  8
0
  5
1D13
 10
25.5774
 20
78.8671
 30
5.73003e-15
  70
    32
  0
VERTEX
  8
0
  5
1D14
 10
25.6642
 20
78.8548
 30
5.75002e-15
  70
    32
  0
VERTEX
  8
0
  5
1D15
 10
25.7510
 20
78.8422
 30
5.77000e-15
  70
    32
  0
VERTEX
  8
0
  5
1D16
 10
25.8378
 20
78.8294
 30
5.78998e-15
  70
    32
  0
VERTEX
  8
0
  5
1D17
 10
25.9245
 20
78.8162
 30
5.80993e-15
  70
    32
  0
VERTEX
  8
0
  5
1D18
 10
26.0112
 20
78.8027
 30
5.82986e-15
  70
    32
  0
VERTEX
  8
0
  5
1D19
 10
26.0978
 20
78.7889
 30
5.84976e-15
  70
    32
  0
VERTEX
  8
0
  5
1D1A
 10
26.1844
 20
78.7748
 30
5.86962e-15
  70
    32
  0
VERTEX
  8
0
  5
1D1B
 10
26.2709
 20
78.7604
 30
5.88945e-15
  70
    32
  0
VERTEX
  8
0
  5
1D1C
 10
26.3574
 20
78.7457
 30
5.90922e-15
  70
    32
  0
VERTEX
  8
0
  5
1D1D
 10
26.4438
 20
78.7307
 30
5.92894e-15
  70
    32
  0
VERTEX
  8
0
  5
1D1E
 10
26.5301
 20
78.7154
 30
5.94861e-15
  70
    32
  0
VERTEX
  8
0
  5
1D1F
 10
26.6164
 20
78.6998
 30
5.96820e-15
  70
    32
  0
VERTEX
  8
0
  5
1D20
 10
26.7027
 20
78.6839
 30
5.98773e-15
  70
    32
  0
VERTEX
  8
0
  5
1D21
 10
26.7889
 20
78.6677
 30
6.00717e-15
  70
    32
  0
VERTEX
  8
0
  5
1D22
 10
26.8750
 20
78.6512
 30
6.02654e-15
  70
    32
  0
VERTEX
  8
0
  5
1D23
 10
26.9611
 20
78.6344
 30
6.04581e-15
  70
    32
  0
VERTEX
  8
0
  5
1D24
 10
27.0471
 20
78.6173
 30
6.06499e-15
  70
    32
  0
VERTEX
  8
0
  5
1D25
 10
27.1331
 20
78.5999
 30
6.08406e-15
  70
    32
  0
VERTEX
  8
0
  5
1D26
 10
27.2190
 20
78.5822
 30
6.10303e-15
  70
    32
  0
VERTEX
  8
0
  5
1D27
 10
27.3048
 20
78.5642
 30
6.12188e-15
  70
    32
  0
VERTEX
  8
0
  5
1D28
 10
27.3906
 20
78.5458
 30
6.14062e-15
  70
    32
  0
VERTEX
  8
0
  5
1D29
 10
27.4763
 20
78.5272
 30
6.15923e-15
  70
    32
  0
VERTEX
  8
0
  5
1D2A
 10
27.5620
 20
78.5083
 30
6.17770e-15
  70
    32
  0
VERTEX
  8
0
  5
1D2B
 10
27.6475
 20
78.4891
 30
6.19604e-15
  70
    32
  0
VERTEX
  8
0
  5
1D2C
 10
27.7330
 20
78.4696
 30
6.21423e-15
  70
    32
  0
VERTEX
  8
0
  5
1D2D
 10
27.8185
 20
78.4497
 30
6.23228e-15
  70
    32
  0
VERTEX
  8
0
  5
1D2E
 10
27.9038
 20
78.4296
 30
6.25017e-15
  70
    32
  0
VERTEX
  8
0
  5
1D2F
 10
27.9891
 20
78.4092
 30
6.26798e-15
  70
    32
  0
VERTEX
  8
0
  5
1D30
 10
28.0744
 20
78.3885
 30
6.28583e-15
  70
    32
  0
VERTEX
  8
0
  5
1D31
 10
28.1595
 20
78.3674
 30
6.30371e-15
  70
    32
  0
VERTEX
  8
0
  5
1D32
 10
28.2446
 20
78.3461
 30
6.32162e-15
  70
    32
  0
VERTEX
  8
0
  5
1D33
 10
28.3296
 20
78.3245
 30
6.33957e-15
  70
    32
  0
VERTEX
  8
0
  5
1D34
 10
28.4145
 20
78.3026
 30
6.35755e-15
  70
    32
  0
VERTEX
  8
0
  5
1D35
 10
28.4993
 20
78.2803
 30
6.37556e-15
  70
    32
  0
VERTEX
  8
0
  5
1D36
 10
28.5841
 20
78.2578
 30
6.39361e-15
  70
    32
  0
VERTEX
  8
0
  5
1D37
 10
28.6688
 20
78.2350
 30
6.41168e-15
  70
    32
  0
VERTEX
  8
0
  5
1D38
 10
28.7534
 20
78.2119
 30
6.42978e-15
  70
    32
  0
VERTEX
  8
0
  5
1D39
 10
28.8379
 20
78.1885
 30
6.44791e-15
  70
    32
  0
VERTEX
  8
0
  5
1D3A
 10
28.9223
 20
78.1647
 30
6.46606e-15
  70
    32
  0
VERTEX
  8
0
  5
1D3B
 10
29.0067
 20
78.1407
 30
6.48424e-15
  70
    32
  0
VERTEX
  8
0
  5
1D3C
 10
29.0910
 20
78.1164
 30
6.50245e-15
  70
    32
  0
VERTEX
  8
0
  5
1D3D
 10
29.1751
 20
78.0918
 30
6.52068e-15
  70
    32
  0
VERTEX
  8
0
  5
1D3E
 10
29.2592
 20
78.0669
 30
6.53893e-15
  70
    32
  0
VERTEX
  8
0
  5
1D3F
 10
29.3432
 20
78.0417
 30
6.55721e-15
  70
    32
  0
VERTEX
  8
0
  5
1D40
 10
29.4272
 20
78.0162
 30
6.57551e-15
  70
    32
  0
VERTEX
  8
0
  5
1D41
 10
29.5110
 20
77.9905
 30
6.59383e-15
  70
    32
  0
VERTEX
  8
0
  5
1D42
 10
29.5947
 20
77.9644
 30
6.61217e-15
  70
    32
  0
VERTEX
  8
0
  5
1D43
 10
29.6784
 20
77.9380
 30
6.63053e-15
  70
    32
  0
VERTEX
  8
0
  5
1D44
 10
29.7619
 20
77.9113
 30
6.64890e-15
  70
    32
  0
VERTEX
  8
0
  5
1D45
 10
29.8454
 20
77.8844
 30
6.66730e-15
  70
    32
  0
VERTEX
  8
0
  5
1D46
 10
29.9287
 20
77.8571
 30
6.68571e-15
  70
    32
  0
VERTEX
  8
0
  5
1D47
 10
30.0120
 20
77.8296
 30
6.70414e-15
  70
    32
  0
VERTEX
  8
0
  5
1D48
 10
30.0951
 20
77.8018
 30
6.72259e-15
  70
    32
  0
VERTEX
  8
0
  5
1D49
 10
30.1782
 20
77.7736
 30
6.74105e-15
  70
    32
  0
VERTEX
  8
0
  5
1D4A
 10
30.2612
 20
77.7452
 30
6.75952e-15
  70
    32
  0
VERTEX
  8
0
  5
1D4B
 10
30.3441
 20
77.7165
 30
6.77800e-15
  70
    32
  0
VERTEX
  8
0
  5
1D4C
 10
30.4268
 20
77.6875
 30
6.79650e-15
  70
    32
  0
VERTEX
  8
0
  5
1D4D
 10
30.5095
 20
77.6582
 30
6.81501e-15
  70
    32
  0
VERTEX
  8
0
  5
1D4E
 10
30.5921
 20
77.6287
 30
6.83353e-15
  70
    32
  0
VERTEX
  8
0
  5
1D4F
 10
30.6745
 20
77.5988
 30
6.85206e-15
  70
    32
  0
VERTEX
  8
0
  5
1D50
 10
30.7569
 20
77.5687
 30
6.87059e-15
  70
    32
  0
VERTEX
  8
0
  5
1D51
 10
30.8391
 20
77.5382
 30
6.88914e-15
  70
    32
  0
VERTEX
  8
0
  5
1D52
 10
30.9213
 20
77.5075
 30
6.90769e-15
  70
    32
  0
VERTEX
  8
0
  5
1D53
 10
31.0033
 20
77.4765
 30
6.92625e-15
  70
    32
  0
VERTEX
  8
0
  5
1D54
 10
31.0852
 20
77.4452
 30
6.94481e-15
  70
    32
  0
VERTEX
  8
0
  5
1D55
 10
31.1670
 20
77.4136
 30
6.96338e-15
  70
    32
  0
VERTEX
  8
0
  5
1D56
 10
31.2487
 20
77.3817
 30
6.98195e-15
  70
    32
  0
VERTEX
  8
0
  5
1D57
 10
31.3303
 20
77.3496
 30
7.00053e-15
  70
    32
  0
VERTEX
  8
0
  5
1D58
 10
31.4118
 20
77.3171
 30
7.01910e-15
  70
    32
  0
VERTEX
  8
0
  5
1D59
 10
31.4932
 20
77.2844
 30
7.03768e-15
  70
    32
  0
VERTEX
  8
0
  5
1D5A
 10
31.5744
 20
77.2514
 30
7.05626e-15
  70
    32
  0
VERTEX
  8
0
  5
1D5B
 10
31.6556
 20
77.2181
 30
7.07483e-15
  70
    32
  0
VERTEX
  8
0
  5
1D5C
 10
31.7366
 20
77.1845
 30
7.09341e-15
  70
    32
  0
VERTEX
  8
0
  5
1D5D
 10
31.8175
 20
77.1507
 30
7.11198e-15
  70
    32
  0
VERTEX
  8
0
  5
1D5E
 10
31.8983
 20
77.1165
 30
7.13055e-15
  70
    32
  0
VERTEX
  8
0
  5
1D5F
 10
31.9789
 20
77.0821
 30
7.14912e-15
  70
    32
  0
VERTEX
  8
0
  5
1D60
 10
32.0595
 20
77.0474
 30
7.16768e-15
  70
    32
  0
VERTEX
  8
0
  5
1D61
 10
32.1399
 20
77.0124
 30
7.18624e-15
  70
    32
  0
VERTEX
  8
0
  5
1D62
 10
32.2202
 20
76.9772
 30
7.20479e-15
  70
    32
  0
VERTEX
  8
0
  5
1D63
 10
32.3004
 20
76.9416
 30
7.22333e-15
  70
    32
  0
VERTEX
  8
0
  5
1D64
 10
32.3804
 20
76.9058
 30
7.24187e-15
  70
    32
  0
VERTEX
  8
0
  5
1D65
 10
32.4604
 20
76.8697
 30
7.26040e-15
  70
    32
  0
VERTEX
  8
0
  5
1D66
 10
32.5401
 20
76.8333
 30
7.27891e-15
  70
    32
  0
VERTEX
  8
0
  5
1D67
 10
32.6198
 20
76.7966
 30
7.29742e-15
  70
    32
  0
VERTEX
  8
0
  5
1D68
 10
32.6994
 20
76.7597
 30
7.31592e-15
  70
    32
  0
VERTEX
  8
0
  5
1D69
 10
32.7788
 20
76.7225
 30
7.33440e-15
  70
    32
  0
VERTEX
  8
0
  5
1D6A
 10
32.8581
 20
76.6850
 30
7.35287e-15
  70
    32
  0
VERTEX
  8
0
  5
1D6B
 10
32.9372
 20
76.6472
 30
7.37132e-15
  70
    32
  0
VERTEX
  8
0
  5
1D6C
 10
33.0162
 20
76.6091
 30
7.38977e-15
  70
    32
  0
VERTEX
  8
0
  5
1D6D
 10
33.0951
 20
76.5708
 30
7.40819e-15
  70
    32
  0
VERTEX
  8
0
  5
1D6E
 10
33.1738
 20
76.5322
 30
7.42660e-15
  70
    32
  0
VERTEX
  8
0
  5
1D6F
 10
33.2525
 20
76.4933
 30
7.44500e-15
  70
    32
  0
VERTEX
  8
0
  5
1D70
 10
33.3309
 20
76.4542
 30
7.46337e-15
  70
    32
  0
VERTEX
  8
0
  5
1D71
 10
33.4093
 20
76.4148
 30
7.48173e-15
  70
    32
  0
VERTEX
  8
0
  5
1D72
 10
33.4875
 20
76.3751
 30
7.50006e-15
  70
    32
  0
VERTEX
  8
0
  5
1D73
 10
33.5655
 20
76.3351
 30
7.51838e-15
  70
    32
  0
VERTEX
  8
0
  5
1D74
 10
33.6435
 20
76.2948
 30
7.53667e-15
  70
    32
  0
VERTEX
  8
0
  5
1D75
 10
33.7212
 20
76.2543
 30
7.55494e-15
  70
    32
  0
VERTEX
  8
0
  5
1D76
 10
33.7989
 20
76.2135
 30
7.57319e-15
  70
    32
  0
VERTEX
  8
0
  5
1D77
 10
33.8764
 20
76.1725
 30
7.59142e-15
  70
    32
  0
VERTEX
  8
0
  5
1D78
 10
33.9537
 20
76.1311
 30
7.60962e-15
  70
    32
  0
VERTEX
  8
0
  5
1D79
 10
34.0309
 20
76.0895
 30
7.62780e-15
  70
    32
  0
VERTEX
  8
0
  5
1D7A
 10
34.1080
 20
76.0476
 30
7.64595e-15
  70
    32
  0
VERTEX
  8
0
  5
1D7B
 10
34.1849
 20
76.0055
 30
7.66407e-15
  70
    32
  0
VERTEX
  8
0
  5
1D7C
 10
34.2616
 20
75.9631
 30
7.68216e-15
  70
    32
  0
VERTEX
  8
0
  5
1D7D
 10
34.3383
 20
75.9204
 30
7.70023e-15
  70
    32
  0
VERTEX
  8
0
  5
1D7E
 10
34.4147
 20
75.8774
 30
7.71826e-15
  70
    32
  0
VERTEX
  8
0
  5
1D7F
 10
34.4910
 20
75.8342
 30
7.73627e-15
  70
    32
  0
VERTEX
  8
0
  5
1D80
 10
34.5672
 20
75.7907
 30
7.75424e-15
  70
    32
  0
VERTEX
  8
0
  5
1D81
 10
34.6432
 20
75.7469
 30
7.77219e-15
  70
    32
  0
VERTEX
  8
0
  5
1D82
 10
34.7190
 20
75.7029
 30
7.79010e-15
  70
    32
  0
VERTEX
  8
0
  5
1D83
 10
34.7947
 20
75.6586
 30
7.80797e-15
  70
    32
  0
VERTEX
  8
0
  5
1D84
 10
34.8703
 20
75.6140
 30
7.82581e-15
  70
    32
  0
VERTEX
  8
0
  5
1D85
 10
34.9456
 20
75.5692
 30
7.84362e-15
  70
    32
  0
VERTEX
  8
0
  5
1D86
 10
35.0209
 20
75.5241
 30
7.86139e-15
  70
    32
  0
VERTEX
  8
0
  5
1D87
 10
35.0959
 20
75.4787
 30
7.87912e-15
  70
    32
  0
VERTEX
  8
0
  5
1D88
 10
35.1708
 20
75.4331
 30
7.89681e-15
  70
    32
  0
VERTEX
  8
0
  5
1D89
 10
35.2456
 20
75.3872
 30
7.91447e-15
  70
    32
  0
VERTEX
  8
0
  5
1D8A
 10
35.3201
 20
75.3410
 30
7.93208e-15
  70
    32
  0
VERTEX
  8
0
  5
1D8B
 10
35.3946
 20
75.2946
 30
7.94965e-15
  70
    32
  0
VERTEX
  8
0
  5
1D8C
 10
35.4688
 20
75.2479
 30
7.96714e-15
  70
    32
  0
VERTEX
  8
0
  5
1D8D
 10
35.5429
 20
75.2010
 30
7.98453e-15
  70
    32
  0
VERTEX
  8
0
  5
1D8E
 10
35.6168
 20
75.1538
 30
8.00183e-15
  70
    32
  0
VERTEX
  8
0
  5
1D8F
 10
35.6906
 20
75.1063
 30
8.01904e-15
  70
    32
  0
VERTEX
  8
0
  5
1D90
 10
35.7642
 20
75.0586
 30
8.03616e-15
  70
    32
  0
VERTEX
  8
0
  5
1D91
 10
35.8376
 20
75.0106
 30
8.05318e-15
  70
    32
  0
VERTEX
  8
0
  5
1D92
 10
35.9108
 20
74.9624
 30
8.07012e-15
  70
    32
  0
VERTEX
  8
0
  5
1D93
 10
35.9839
 20
74.9139
 30
8.08697e-15
  70
    32
  0
VERTEX
  8
0
  5
1D94
 10
36.0568
 20
74.8651
 30
8.10372e-15
  70
    32
  0
VERTEX
  8
0
  5
1D95
 10
36.1296
 20
74.8161
 30
8.12039e-15
  70
    32
  0
VERTEX
  8
0
  5
1D96
 10
36.2021
 20
74.7669
 30
8.13698e-15
  70
    32
  0
VERTEX
  8
0
  5
1D97
 10
36.2745
 20
74.7174
 30
8.15347e-15
  70
    32
  0
VERTEX
  8
0
  5
1D98
 10
36.3467
 20
74.6676
 30
8.16988e-15
  70
    32
  0
VERTEX
  8
0
  5
1D99
 10
36.4188
 20
74.6176
 30
8.18620e-15
  70
    32
  0
VERTEX
  8
0
  5
1D9A
 10
36.4906
 20
74.5673
 30
8.20243e-15
  70
    32
  0
VERTEX
  8
0
  5
1D9B
 10
36.5623
 20
74.5168
 30
8.21858e-15
  70
    32
  0
VERTEX
  8
0
  5
1D9C
 10
36.6338
 20
74.4660
 30
8.23465e-15
  70
    32
  0
VERTEX
  8
0
  5
1D9D
 10
36.7052
 20
74.4150
 30
8.25063e-15
  70
    32
  0
VERTEX
  8
0
  5
1D9E
 10
36.7763
 20
74.3637
 30
8.26653e-15
  70
    32
  0
VERTEX
  8
0
  5
1D9F
 10
36.8473
 20
74.3121
 30
8.28234e-15
  70
    32
  0
VERTEX
  8
0
  5
1DA0
 10
36.9181
 20
74.2604
 30
8.29807e-15
  70
    32
  0
VERTEX
  8
0
  5
1DA1
 10
36.9887
 20
74.2083
 30
8.31372e-15
  70
    32
  0
VERTEX
  8
0
  5
1DA2
 10
37.0591
 20
74.1561
 30
8.32929e-15
  70
    32
  0
VERTEX
  8
0
  5
1DA3
 10
37.1294
 20
74.1036
 30
8.34477e-15
  70
    32
  0
VERTEX
  8
0
  5
1DA4
 10
37.1994
 20
74.0508
 30
8.36018e-15
  70
    32
  0
VERTEX
  8
0
  5
1DA5
 10
37.2693
 20
73.9978
 30
8.37550e-15
  70
    32
  0
VERTEX
  8
0
  5
1DA6
 10
37.3390
 20
73.9445
 30
8.39075e-15
  70
    32
  0
VERTEX
  8
0
  5
1DA7
 10
37.4085
 20
73.8910
 30
8.40592e-15
  70
    32
  0
VERTEX
  8
0
  5
1DA8
 10
37.4778
 20
73.8373
 30
8.42101e-15
  70
    32
  0
VERTEX
  8
0
  5
1DA9
 10
37.5469
 20
73.7833
 30
8.43602e-15
  70
    32
  0
VERTEX
  8
0
  5
1DAA
 10
37.6159
 20
73.7291
 30
8.45095e-15
  70
    32
  0
VERTEX
  8
0
  5
1DAB
 10
37.6846
 20
73.6746
 30
8.46581e-15
  70
    32
  0
VERTEX
  8
0
  5
1DAC
 10
37.7532
 20
73.6199
 30
8.48059e-15
  70
    32
  0
VERTEX
  8
0
  5
1DAD
 10
37.8215
 20
73.5650
 30
8.49529e-15
  70
    32
  0
VERTEX
  8
0
  5
1DAE
 10
37.8897
 20
73.5098
 30
8.50992e-15
  70
    32
  0
VERTEX
  8
0
  5
1DAF
 10
37.9577
 20
73.4544
 30
8.52447e-15
  70
    32
  0
VERTEX
  8
0
  5
1DB0
 10
38.0255
 20
73.3987
 30
8.53895e-15
  70
    32
  0
VERTEX
  8
0
  5
1DB1
 10
38.0930
 20
73.3428
 30
8.55336e-15
  70
    32
  0
VERTEX
  8
0
  5
1DB2
 10
38.1604
 20
73.2867
 30
8.56769e-15
  70
    32
  0
VERTEX
  8
0
  5
1DB3
 10
38.2276
 20
73.2303
 30
8.58195e-15
  70
    32
  0
VERTEX
  8
0
  5
1DB4
 10
38.2946
 20
73.1737
 30
8.59614e-15
  70
    32
  0
VERTEX
  8
0
  5
1DB5
 10
38.3614
 20
73.1169
 30
8.61025e-15
  70
    32
  0
VERTEX
  8
0
  5
1DB6
 10
38.4280
 20
73.0598
 30
8.62430e-15
  70
    32
  0
VERTEX
  8
0
  5
1DB7
 10
38.4944
 20
73.0025
 30
8.63827e-15
  70
    32
  0
VERTEX
  8
0
  5
1DB8
 10
38.5606
 20
72.9450
 30
8.65218e-15
  70
    32
  0
VERTEX
  8
0
  5
1DB9
 10
38.6266
 20
72.8872
 30
8.66601e-15
  70
    32
  0
VERTEX
  8
0
  5
1DBA
 10
38.6924
 20
72.8292
 30
8.67978e-15
  70
    32
  0
VERTEX
  8
0
  5
1DBB
 10
38.7579
 20
72.7710
 30
8.69348e-15
  70
    32
  0
VERTEX
  8
0
  5
1DBC
 10
38.8233
 20
72.7125
 30
8.70711e-15
  70
    32
  0
VERTEX
  8
0
  5
1DBD
 10
38.8885
 20
72.6539
 30
8.72067e-15
  70
    32
  0
VERTEX
  8
0
  5
1DBE
 10
38.9535
 20
72.5949
 30
8.73417e-15
  70
    32
  0
VERTEX
  8
0
  5
1DBF
 10
39.0182
 20
72.5358
 30
8.74759e-15
  70
    32
  0
VERTEX
  8
0
  5
1DC0
 10
39.0828
 20
72.4764
 30
8.76096e-15
  70
    32
  0
VERTEX
  8
0
  5
1DC1
 10
39.1471
 20
72.4168
 30
8.77426e-15
  70
    32
  0
VERTEX
  8
0
  5
1DC2
 10
39.2112
 20
72.3570
 30
8.78749e-15
  70
    32
  0
VERTEX
  8
0
  5
1DC3
 10
39.2752
 20
72.2970
 30
8.80066e-15
  70
    32
  0
VERTEX
  8
0
  5
1DC4
 10
39.3389
 20
72.2367
 30
8.81376e-15
  70
    32
  0
VERTEX
  8
0
  5
1DC5
 10
39.4024
 20
72.1762
 30
8.82681e-15
  70
    32
  0
VERTEX
  8
0
  5
1DC6
 10
39.4657
 20
72.1155
 30
8.83978e-15
  70
    32
  0
VERTEX
  8
0
  5
1DC7
 10
39.5287
 20
72.0546
 30
8.85270e-15
  70
    32
  0
VERTEX
  8
0
  5
1DC8
 10
39.5916
 20
71.9934
 30
8.86557e-15
  70
    32
  0
VERTEX
  8
0
  5
1DC9
 10
39.6542
 20
71.9320
 30
8.87850e-15
  70
    32
  0
VERTEX
  8
0
  5
1DCA
 10
39.7166
 20
71.8704
 30
8.89155e-15
  70
    32
  0
VERTEX
  8
0
  5
1DCB
 10
39.7788
 20
71.8086
 30
8.90471e-15
  70
    32
  0
VERTEX
  8
0
  5
1DCC
 10
39.8408
 20
71.7466
 30
8.91796e-15
  70
    32
  0
VERTEX
  8
0
  5
1DCD
 10
39.9026
 20
71.6843
 30
8.93132e-15
  70
    32
  0
VERTEX
  8
0
  5
1DCE
 10
39.9641
 20
71.6218
 30
8.94476e-15
  70
    32
  0
VERTEX
  8
0
  5
1DCF
 10
40.0255
 20
71.5591
 30
8.95830e-15
  70
    32
  0
VERTEX
  8
0
  5
1DD0
 10
40.0866
 20
71.4962
 30
8.97191e-15
  70
    32
  0
VERTEX
  8
0
  5
1DD1
 10
40.1475
 20
71.4331
 30
8.98559e-15
  70
    32
  0
VERTEX
  8
0
  5
1DD2
 10
40.2081
 20
71.3698
 30
8.99935e-15
  70
    32
  0
VERTEX
  8
0
  5
1DD3
 10
40.2686
 20
71.3062
 30
9.01317e-15
  70
    32
  0
VERTEX
  8
0
  5
1DD4
 10
40.3288
 20
71.2425
 30
9.02705e-15
  70
    32
  0
VERTEX
  8
0
  5
1DD5
 10
40.3888
 20
71.1785
 30
9.04098e-15
  70
    32
  0
VERTEX
  8
0
  5
1DD6
 10
40.4486
 20
71.1143
 30
9.05496e-15
  70
    32
  0
VERTEX
  8
0
  5
1DD7
 10
40.5081
 20
71.0499
 30
9.06899e-15
  70
    32
  0
VERTEX
  8
0
  5
1DD8
 10
40.5675
 20
70.9853
 30
9.08305e-15
  70
    32
  0
VERTEX
  8
0
  5
1DD9
 10
40.6266
 20
70.9205
 30
9.09714e-15
  70
    32
  0
VERTEX
  8
0
  5
1DDA
 10
40.6854
 20
70.8555
 30
9.11126e-15
  70
    32
  0
VERTEX
  8
0
  5
1DDB
 10
40.7441
 20
70.7903
 30
9.12540e-15
  70
    32
  0
VERTEX
  8
0
  5
1DDC
 10
40.8025
 20
70.7249
 30
9.13955e-15
  70
    32
  0
VERTEX
  8
0
  5
1DDD
 10
40.8607
 20
70.6593
 30
9.15372e-15
  70
    32
  0
VERTEX
  8
0
  5
1DDE
 10
40.9186
 20
70.5934
 30
9.16789e-15
  70
    32
  0
VERTEX
  8
0
  5
1DDF
 10
40.9763
 20
70.5274
 30
9.18206e-15
  70
    32
  0
VERTEX
  8
0
  5
1DE0
 10
41.0338
 20
70.4612
 30
9.19622e-15
  70
    32
  0
VERTEX
  8
0
  5
1DE1
 10
41.0911
 20
70.3947
 30
9.21037e-15
  70
    32
  0
VERTEX
  8
0
  5
1DE2
 10
41.1481
 20
70.3281
 30
9.22451e-15
  70
    32
  0
VERTEX
  8
0
  5
1DE3
 10
41.2049
 20
70.2613
 30
9.23862e-15
  70
    32
  0
VERTEX
  8
0
  5
1DE4
 10
41.2614
 20
70.1942
 30
9.25270e-15
  70
    32
  0
VERTEX
  8
0
  5
1DE5
 10
41.3178
 20
70.1270
 30
9.26675e-15
  70
    32
  0
VERTEX
  8
0
  5
1DE6
 10
41.3738
 20
70.0596
 30
9.28076e-15
  70
    32
  0
VERTEX
  8
0
  5
1DE7
 10
41.4297
 20
69.9920
 30
9.29473e-15
  70
    32
  0
VERTEX
  8
0
  5
1DE8
 10
41.4853
 20
69.9241
 30
9.30865e-15
  70
    32
  0
VERTEX
  8
0
  5
1DE9
 10
41.5407
 20
69.8561
 30
9.32252e-15
  70
    32
  0
VERTEX
  8
0
  5
1DEA
 10
41.5958
 20
69.7879
 30
9.33632e-15
  70
    32
  0
VERTEX
  8
0
  5
1DEB
 10
41.6507
 20
69.7195
 30
9.35006e-15
  70
    32
  0
VERTEX
  8
0
  5
1DEC
 10
41.7054
 20
69.6509
 30
9.36373e-15
  70
    32
  0
VERTEX
  8
0
  5
1DED
 10
41.7598
 20
69.5821
 30
9.37732e-15
  70
    32
  0
VERTEX
  8
0
  5
1DEE
 10
41.8140
 20
69.5132
 30
9.39083e-15
  70
    32
  0
VERTEX
  8
0
  5
1DEF
 10
41.8679
 20
69.4440
 30
9.40425e-15
  70
    32
  0
VERTEX
  8
0
  5
1DF0
 10
41.9216
 20
69.3747
 30
9.41758e-15
  70
    32
  0
VERTEX
  8
0
  5
1DF1
 10
41.9750
 20
69.3051
 30
9.43081e-15
  70
    32
  0
VERTEX
  8
0
  5
1DF2
 10
42.0282
 20
69.2354
 30
9.44393e-15
  70
    32
  0
VERTEX
  8
0
  5
1DF3
 10
42.0812
 20
69.1655
 30
9.45695e-15
  70
    32
  0
VERTEX
  8
0
  5
1DF4
 10
42.1339
 20
69.0954
 30
9.46986e-15
  70
    32
  0
VERTEX
  8
0
  5
1DF5
 10
42.1864
 20
69.0251
 30
9.48264e-15
  70
    32
  0
VERTEX
  8
0
  5
1DF6
 10
42.2386
 20
68.9546
 30
9.49530e-15
  70
    32
  0
VERTEX
  8
0
  5
1DF7
 10
42.2905
 20
68.8840
 30
9.50783e-15
  70
    32
  0
VERTEX
  8
0
  5
1DF8
 10
42.3423
 20
68.8131
 30
9.52022e-15
  70
    32
  0
VERTEX
  8
0
  5
1DF9
 10
42.3937
 20
68.7421
 30
9.53247e-15
  70
    32
  0
VERTEX
  8
0
  5
1DFA
 10
42.4450
 20
68.6709
 30
9.54458e-15
  70
    32
  0
VERTEX
  8
0
  5
1DFB
 10
42.4959
 20
68.5996
 30
9.55653e-15
  70
    32
  0
VERTEX
  8
0
  5
1DFC
 10
42.5467
 20
68.5280
 30
9.56833e-15
  70
    32
  0
VERTEX
  8
0
  5
1DFD
 10
42.5971
 20
68.4563
 30
9.57996e-15
  70
    32
  0
VERTEX
  8
0
  5
1DFE
 10
42.6473
 20
68.3844
 30
9.59142e-15
  70
    32
  0
VERTEX
  8
0
  5
1DFF
 10
42.6973
 20
68.3123
 30
9.60271e-15
  70
    32
  0
VERTEX
  8
0
  5
1E00
 10
42.7470
 20
68.2400
 30
9.61384e-15
  70
    32
  0
VERTEX
  8
0
  5
1E01
 10
42.7965
 20
68.1676
 30
9.62488e-15
  70
    32
  0
VERTEX
  8
0
  5
1E02
 10
42.8457
 20
68.0950
 30
9.63583e-15
  70
    32
  0
VERTEX
  8
0
  5
1E03
 10
42.8946
 20
68.0222
 30
9.64669e-15
  70
    32
  0
VERTEX
  8
0
  5
1E04
 10
42.9433
 20
67.9492
 30
9.65746e-15
  70
    32
  0
VERTEX
  8
0
  5
1E05
 10
42.9917
 20
67.8761
 30
9.66815e-15
  70
    32
  0
VERTEX
  8
0
  5
1E06
 10
43.0399
 20
67.8028
 30
9.67876e-15
  70
    32
  0
VERTEX
  8
0
  5
1E07
 10
43.0878
 20
67.7294
 30
9.68928e-15
  70
    32
  0
VERTEX
  8
0
  5
1E08
 10
43.1355
 20
67.6557
 30
9.69973e-15
  70
    32
  0
VERTEX
  8
0
  5
1E09
 10
43.1829
 20
67.5819
 30
9.71009e-15
  70
    32
  0
VERTEX
  8
0
  5
1E0A
 10
43.2300
 20
67.5080
 30
9.72037e-15
  70
    32
  0
VERTEX
  8
0
  5
1E0B
 10
43.2769
 20
67.4339
 30
9.73057e-15
  70
    32
  0
VERTEX
  8
0
  5
1E0C
 10
43.3235
 20
67.3596
 30
9.74070e-15
  70
    32
  0
VERTEX
  8
0
  5
1E0D
 10
43.3698
 20
67.2851
 30
9.75075e-15
  70
    32
  0
VERTEX
  8
0
  5
1E0E
 10
43.4159
 20
67.2105
 30
9.76072e-15
  70
    32
  0
VERTEX
  8
0
  5
1E0F
 10
43.4617
 20
67.1357
 30
9.77062e-15
  70
    32
  0
VERTEX
  8
0
  5
1E10
 10
43.5073
 20
67.0608
 30
9.78044e-15
  70
    32
  0
VERTEX
  8
0
  5
1E11
 10
43.5526
 20
66.9857
 30
9.79020e-15
  70
    32
  0
VERTEX
  8
0
  5
1E12
 10
43.5976
 20
66.9104
 30
9.79988e-15
  70
    32
  0
VERTEX
  8
0
  5
1E13
 10
43.6424
 20
66.8350
 30
9.80949e-15
  70
    32
  0
VERTEX
  8
0
  5
1E14
 10
43.6869
 20
66.7594
 30
9.81903e-15
  70
    32
  0
VERTEX
  8
0
  5
1E15
 10
43.7312
 20
66.6837
 30
9.82851e-15
  70
    32
  0
VERTEX
  8
0
  5
1E16
 10
43.7752
 20
66.6078
 30
9.83792e-15
  70
    32
  0
VERTEX
  8
0
  5
1E17
 10
43.8189
 20
66.5318
 30
9.84726e-15
  70
    32
  0
VERTEX
  8
0
  5
1E18
 10
43.8623
 20
66.4556
 30
9.85654e-15
  70
    32
  0
VERTEX
  8
0
  5
1E19
 10
43.9055
 20
66.3793
 30
9.86575e-15
  70
    32
  0
VERTEX
  8
0
  5
1E1A
 10
43.9484
 20
66.3028
 30
9.87490e-15
  70
    32
  0
VERTEX
  8
0
  5
1E1B
 10
43.9910
 20
66.2261
 30
9.88399e-15
  70
    32
  0
VERTEX
  8
0
  5
1E1C
 10
44.0334
 20
66.1494
 30
9.89301e-15
  70
    32
  0
VERTEX
  8
0
  5
1E1D
 10
44.0755
 20
66.0724
 30
9.90198e-15
  70
    32
  0
VERTEX
  8
0
  5
1E1E
 10
44.1173
 20
65.9953
 30
9.91089e-15
  70
    32
  0
VERTEX
  8
0
  5
1E1F
 10
44.1589
 20
65.9181
 30
9.91974e-15
  70
    32
  0
VERTEX
  8
0
  5
1E20
 10
44.2002
 20
65.8407
 30
9.92854e-15
  70
    32
  0
VERTEX
  8
0
  5
1E21
 10
44.2412
 20
65.7632
 30
9.93728e-15
  70
    32
  0
VERTEX
  8
0
  5
1E22
 10
44.2820
 20
65.6856
 30
9.94596e-15
  70
    32
  0
VERTEX
  8
0
  5
1E23
 10
44.3225
 20
65.6078
 30
9.95459e-15
  70
    32
  0
VERTEX
  8
0
  5
1E24
 10
44.3627
 20
65.5298
 30
9.96317e-15
  70
    32
  0
VERTEX
  8
0
  5
1E25
 10
44.4026
 20
65.4517
 30
9.97170e-15
  70
    32
  0
VERTEX
  8
0
  5
1E26
 10
44.4423
 20
65.3735
 30
9.98018e-15
  70
    32
  0
VERTEX
  8
0
  5
1E27
 10
44.4817
 20
65.2952
 30
9.98860e-15
  70
    32
  0
VERTEX
  8
0
  5
1E28
 10
44.5208
 20
65.2167
 30
9.99698e-15
  70
    32
  0
VERTEX
  8
0
  5
1E29
 10
44.5596
 20
65.1380
 30
1.00053e-14
  70
    32
  0
VERTEX
  8
0
  5
1E2A
 10
44.5982
 20
65.0593
 30
1.00136e-14
  70
    32
  0
VERTEX
  8
0
  5
1E2B
 10
44.6365
 20
64.9804
 30
1.00218e-14
  70
    32
  0
VERTEX
  8
0
  5
1E2C
 10
44.6745
 20
64.9013
 30
1.00300e-14
  70
    32
  0
VERTEX
  8
0
  5
1E2D
 10
44.7122
 20
64.8222
 30
1.00382e-14
  70
    32
  0
VERTEX
  8
0
  5
1E2E
 10
44.7497
 20
64.7429
 30
1.00463e-14
  70
    32
  0
VERTEX
  8
0
  5
1E2F
 10
44.7868
 20
64.6634
 30
1.00544e-14
  70
    32
  0
VERTEX
  8
0
  5
1E30
 10
44.8237
 20
64.5839
 30
1.00624e-14
  70
    32
  0
VERTEX
  8
0
  5
1E31
 10
44.8604
 20
64.5042
 30
1.00704e-14
  70
    32
  0
VERTEX
  8
0
  5
1E32
 10
44.8967
 20
64.4244
 30
1.00784e-14
  70
    32
  0
VERTEX
  8
0
  5
1E33
 10
44.9328
 20
64.3444
 30
1.00863e-14
  70
    32
  0
VERTEX
  8
0
  5
1E34
 10
44.9686
 20
64.2643
 30
1.00942e-14
  70
    32
  0
VERTEX
  8
0
  5
1E35
 10
45.0041
 20
64.1842
 30
1.01020e-14
  70
    32
  0
VERTEX
  8
0
  5
1E36
 10
45.0393
 20
64.1038
 30
1.01098e-14
  70
    32
  0
VERTEX
  8
0
  5
1E37
 10
45.0742
 20
64.0234
 30
1.01176e-14
  70
    32
  0
VERTEX
  8
0
  5
1E38
 10
45.1089
 20
63.9428
 30
1.01254e-14
  70
    32
  0
VERTEX
  8
0
  5
1E39
 10
45.1433
 20
63.8622
 30
1.01331e-14
  70
    32
  0
VERTEX
  8
0
  5
1E3A
 10
45.1774
 20
63.7814
 30
1.01408e-14
  70
    32
  0
VERTEX
  8
0
  5
1E3B
 10
45.2112
 20
63.7004
 30
1.01484e-14
  70
    32
  0
VERTEX
  8
0
  5
1E3C
 10
45.2447
 20
63.6194
 30
1.01561e-14
  70
    32
  0
VERTEX
  8
0
  5
1E3D
 10
45.2779
 20
63.5382
 30
1.01637e-14
  70
    32
  0
VERTEX
  8
0
  5
1E3E
 10
45.3109
 20
63.4570
 30
1.01713e-14
  70
    32
  0
VERTEX
  8
0
  5
1E3F
 10
45.3436
 20
63.3756
 30
1.01788e-14
  70
    32
  0
VERTEX
  8
0
  5
1E40
 10
45.3760
 20
63.2941
 30
1.01864e-14
  70
    32
  0
VERTEX
  8
0
  5
1E41
 10
45.4080
 20
63.2125
 30
1.01939e-14
  70
    32
  0
VERTEX
  8
0
  5
1E42
 10
45.4399
 20
63.1307
 30
1.02014e-14
  70
    32
  0
VERTEX
  8
0
  5
1E43
 10
45.4714
 20
63.0489
 30
1.02089e-14
  70
    32
  0
VERTEX
  8
0
  5
1E44
 10
45.5026
 20
62.9669
 30
1.02163e-14
  70
    32
  0
VERTEX
  8
0
  5
1E45
 10
45.5336
 20
62.8849
 30
1.02237e-14
  70
    32
  0
VERTEX
  8
0
  5
1E46
 10
45.5642
 20
62.8027
 30
1.02312e-14
  70
    32
  0
VERTEX
  8
0
  5
1E47
 10
45.5946
 20
62.7204
 30
1.02386e-14
  70
    32
  0
VERTEX
  8
0
  5
1E48
 10
45.6247
 20
62.6381
 30
1.02460e-14
  70
    32
  0
VERTEX
  8
0
  5
1E49
 10
45.6545
 20
62.5556
 30
1.02533e-14
  70
    32
  0
VERTEX
  8
0
  5
1E4A
 10
45.6840
 20
62.4730
 30
1.02607e-14
  70
    32
  0
VERTEX
  8
0
  5
1E4B
 10
45.7132
 20
62.3903
 30
1.02681e-14
  70
    32
  0
VERTEX
  8
0
  5
1E4C
 10
45.7421
 20
62.3075
 30
1.02754e-14
  70
    32
  0
VERTEX
  8
0
  5
1E4D
 10
45.7707
 20
62.2246
 30
1.02827e-14
  70
    32
  0
VERTEX
  8
0
  5
1E4E
 10
45.7991
 20
62.1416
 30
1.02901e-14
  70
    32
  0
VERTEX
  8
0
  5
1E4F
 10
45.8271
 20
62.0585
 30
1.02973e-14
  70
    32
  0
VERTEX
  8
0
  5
1E50
 10
45.8549
 20
61.9753
 30
1.03043e-14
  70
    32
  0
VERTEX
  8
0
  5
1E51
 10
45.8823
 20
61.8920
 30
1.03109e-14
  70
    32
  0
VERTEX
  8
0
  5
1E52
 10
45.9095
 20
61.8086
 30
1.03172e-14
  70
    32
  0
VERTEX
  8
0
  5
1E53
 10
45.9364
 20
61.7251
 30
1.03233e-14
  70
    32
  0
VERTEX
  8
0
  5
1E54
 10
45.9629
 20
61.6415
 30
1.03291e-14
  70
    32
  0
VERTEX
  8
0
  5
1E55
 10
45.9892
 20
61.5579
 30
1.03346e-14
  70
    32
  0
VERTEX
  8
0
  5
1E56
 10
46.0152
 20
61.4741
 30
1.03398e-14
  70
    32
  0
VERTEX
  8
0
  5
1E57
 10
46.0409
 20
61.3902
 30
1.03448e-14
  70
    32
  0
VERTEX
  8
0
  5
1E58
 10
46.0663
 20
61.3063
 30
1.03496e-14
  70
    32
  0
VERTEX
  8
0
  5
1E59
 10
46.0914
 20
61.2223
 30
1.03542e-14
  70
    32
  0
VERTEX
  8
0
  5
1E5A
 10
46.1162
 20
61.1381
 30
1.03586e-14
  70
    32
  0
VERTEX
  8
0
  5
1E5B
 10
46.1408
 20
61.0539
 30
1.03627e-14
  70
    32
  0
VERTEX
  8
0
  5
1E5C
 10
46.1650
 20
60.9696
 30
1.03667e-14
  70
    32
  0
VERTEX
  8
0
  5
1E5D
 10
46.1889
 20
60.8853
 30
1.03706e-14
  70
    32
  0
VERTEX
  8
0
  5
1E5E
 10
46.2125
 20
60.8008
 30
1.03742e-14
  70
    32
  0
VERTEX
  8
0
  5
1E5F
 10
46.2359
 20
60.7163
 30
1.03778e-14
  70
    32
  0
VERTEX
  8
0
  5
1E60
 10
46.2589
 20
60.6316
 30
1.03812e-14
  70
    32
  0
VERTEX
  8
0
  5
1E61
 10
46.2816
 20
60.5469
 30
1.03844e-14
  70
    32
  0
VERTEX
  8
0
  5
1E62
 10
46.3041
 20
60.4621
 30
1.03876e-14
  70
    32
  0
VERTEX
  8
0
  5
1E63
 10
46.3262
 20
60.3773
 30
1.03907e-14
  70
    32
  0
VERTEX
  8
0
  5
1E64
 10
46.3481
 20
60.2923
 30
1.03937e-14
  70
    32
  0
VERTEX
  8
0
  5
1E65
 10
46.3696
 20
60.2073
 30
1.03966e-14
  70
    32
  0
VERTEX
  8
0
  5
1E66
 10
46.3909
 20
60.1222
 30
1.03995e-14
  70
    32
  0
VERTEX
  8
0
  5
1E67
 10
46.4118
 20
60.0370
 30
1.04023e-14
  70
    32
  0
VERTEX
  8
0
  5
1E68
 10
46.4325
 20
59.9518
 30
1.04051e-14
  70
    32
  0
VERTEX
  8
0
  5
1E69
 10
46.4529
 20
59.8665
 30
1.04079e-14
  70
    32
  0
VERTEX
  8
0
  5
1E6A
 10
46.4729
 20
59.7811
 30
1.04106e-14
  70
    32
  0
VERTEX
  8
0
  5
1E6B
 10
46.4927
 20
59.6957
 30
1.04134e-14
  70
    32
  0
VERTEX
  8
0
  5
1E6C
 10
46.5121
 20
59.6101
 30
1.04162e-14
  70
    32
  0
VERTEX
  8
0
  5
1E6D
 10
46.5313
 20
59.5245
 30
1.04190e-14
  70
    32
  0
VERTEX
  8
0
  5
1E6E
 10
46.5502
 20
59.4389
 30
1.04218e-14
  70
    32
  0
VERTEX
  8
0
  5
1E6F
 10
46.5687
 20
59.3532
 30
1.04247e-14
  70
    32
  0
VERTEX
  8
0
  5
1E70
 10
46.5870
 20
59.2674
 30
1.04277e-14
  70
    32
  0
VERTEX
  8
0
  5
1E71
 10
46.6049
 20
59.1815
 30
1.04307e-14
  70
    32
  0
VERTEX
  8
0
  5
1E72
 10
46.6226
 20
59.0956
 30
1.04338e-14
  70
    32
  0
VERTEX
  8
0
  5
1E73
 10
46.6399
 20
59.0097
 30
1.04371e-14
  70
    32
  0
VERTEX
  8
0
  5
1E74
 10
46.6570
 20
58.9236
 30
1.04404e-14
  70
    32
  0
VERTEX
  8
0
  5
1E75
 10
46.6737
 20
58.8375
 30
1.04439e-14
  70
    32
  0
VERTEX
  8
0
  5
1E76
 10
46.6902
 20
58.7514
 30
1.04475e-14
  70
    32
  0
VERTEX
  8
0
  5
1E77
 10
46.7063
 20
58.6652
 30
1.04512e-14
  70
    32
  0
VERTEX
  8
0
  5
1E78
 10
46.7222
 20
58.5789
 30
1.04551e-14
  70
    32
  0
VERTEX
  8
0
  5
1E79
 10
46.7377
 20
58.4926
 30
1.04592e-14
  70
    32
  0
VERTEX
  8
0
  5
1E7A
 10
46.7530
 20
58.4062
 30
1.04635e-14
  70
    32
  0
VERTEX
  8
0
  5
1E7B
 10
46.7679
 20
58.3198
 30
1.04679e-14
  70
    32
  0
VERTEX
  8
0
  5
1E7C
 10
46.7825
 20
58.2333
 30
1.04722e-14
  70
    32
  0
VERTEX
  8
0
  5
1E7D
 10
46.7968
 20
58.1468
 30
1.04764e-14
  70
    32
  0
VERTEX
  8
0
  5
1E7E
 10
46.8108
 20
58.0602
 30
1.04805e-14
  70
    32
  0
VERTEX
  8
0
  5
1E7F
 10
46.8246
 20
57.9736
 30
1.04846e-14
  70
    32
  0
VERTEX
  8
0
  5
1E80
 10
46.8380
 20
57.8869
 30
1.04885e-14
  70
    32
  0
VERTEX
  8
0
  5
1E81
 10
46.8510
 20
57.8002
 30
1.04923e-14
  70
    32
  0
VERTEX
  8
0
  5
1E82
 10
46.8638
 20
57.7134
 30
1.04961e-14
  70
    32
  0
VERTEX
  8
0
  5
1E83
 10
46.8763
 20
57.6266
 30
1.04997e-14
  70
    32
  0
VERTEX
  8
0
  5
1E84
 10
46.8885
 20
57.5397
 30
1.05032e-14
  70
    32
  0
VERTEX
  8
0
  5
1E85
 10
46.9004
 20
57.4528
 30
1.05067e-14
  70
    32
  0
VERTEX
  8
0
  5
1E86
 10
46.9119
 20
57.3659
 30
1.05100e-14
  70
    32
  0
VERTEX
  8
0
  5
1E87
 10
46.9232
 20
57.2789
 30
1.05133e-14
  70
    32
  0
VERTEX
  8
0
  5
1E88
 10
46.9342
 20
57.1919
 30
1.05165e-14
  70
    32
  0
VERTEX
  8
0
  5
1E89
 10
46.9448
 20
57.1049
 30
1.05195e-14
  70
    32
  0
VERTEX
  8
0
  5
1E8A
 10
46.9552
 20
57.0178
 30
1.05225e-14
  70
    32
  0
VERTEX
  8
0
  5
1E8B
 10
46.9652
 20
56.9307
 30
1.05254e-14
  70
    32
  0
VERTEX
  8
0
  5
1E8C
 10
46.9749
 20
56.8435
 30
1.05282e-14
  70
    32
  0
VERTEX
  8
0
  5
1E8D
 10
46.9843
 20
56.7563
 30
1.05309e-14
  70
    32
  0
VERTEX
  8
0
  5
1E8E
 10
46.9935
 20
56.6691
 30
1.05335e-14
  70
    32
  0
VERTEX
  8
0
  5
1E8F
 10
47.0023
 20
56.5818
 30
1.05360e-14
  70
    32
  0
VERTEX
  8
0
  5
1E90
 10
47.0108
 20
56.4945
 30
1.05384e-14
  70
    32
  0
VERTEX
  8
0
  5
1E91
 10
47.0190
 20
56.4072
 30
1.05407e-14
  70
    32
  0
VERTEX
  8
0
  5
1E92
 10
47.0269
 20
56.3199
 30
1.05429e-14
  70
    32
  0
VERTEX
  8
0
  5
1E93
 10
47.0345
 20
56.2325
 30
1.05451e-14
  70
    32
  0
VERTEX
  8
0
  5
1E94
 10
47.0417
 20
56.1451
 30
1.05471e-14
  70
    32
  0
VERTEX
  8
0
  5
1E95
 10
47.0487
 20
56.0577
 30
1.05490e-14
  70
    32
  0
VERTEX
  8
0
  5
1E96
 10
47.0554
 20
55.9702
 30
1.05509e-14
  70
    32
  0
VERTEX
  8
0
  5
1E97
 10
47.0618
 20
55.8828
 30
1.05526e-14
  70
    32
  0
VERTEX
  8
0
  5
1E98
 10
47.0678
 20
55.7953
 30
1.05543e-14
  70
    32
  0
VERTEX
  8
0
  5
1E99
 10
47.0736
 20
55.7078
 30
1.05559e-14
  70
    32
  0
VERTEX
  8
0
  5
1E9A
 10
47.0790
 20
55.6202
 30
1.05573e-14
  70
    32
  0
VERTEX
  8
0
  5
1E9B
 10
47.0842
 20
55.5327
 30
1.05587e-14
  70
    32
  0
VERTEX
  8
0
  5
1E9C
 10
47.0890
 20
55.4451
 30
1.05600e-14
  70
    32
  0
VERTEX
  8
0
  5
1E9D
 10
47.0935
 20
55.3575
 30
1.05612e-14
  70
    32
  0
VERTEX
  8
0
  5
1E9E
 10
47.0977
 20
55.2699
 30
1.05623e-14
  70
    32
  0
VERTEX
  8
0
  5
1E9F
 10
47.1017
 20
55.1823
 30
1.05633e-14
  70
    32
  0
VERTEX
  8
0
  5
1EA0
 10
47.1053
 20
55.0947
 30
1.05643e-14
  70
    32
  0
VERTEX
  8
0
  5
1EA1
 10
47.1086
 20
55.0070
 30
1.05651e-14
  70
    32
  0
VERTEX
  8
0
  5
1EA2
 10
47.1116
 20
54.9194
 30
1.05658e-14
  70
    32
  0
VERTEX
  8
0
  5
1EA3
 10
47.1142
 20
54.8317
 30
1.05665e-14
  70
    32
  0
VERTEX
  8
0
  5
1EA4
 10
47.1166
 20
54.7441
 30
1.05670e-14
  70
    32
  0
VERTEX
  8
0
  5
1EA5
 10
47.1187
 20
54.6564
 30
1.05675e-14
  70
    32
  0
VERTEX
  8
0
  5
1EA6
 10
47.1205
 20
54.5687
 30
1.05679e-14
  70
    32
  0
VERTEX
  8
0
  5
1EA7
 10
47.1219
 20
54.4810
 30
1.05682e-14
  70
    32
  0
VERTEX
  8
0
  5
1EA8
 10
47.1231
 20
54.3933
 30
1.05684e-14
  70
    32
  0
VERTEX
  8
0
  5
1EA9
 10
47.1240
 20
54.3056
 30
1.05685e-14
  70
    32
  0
VERTEX
  8
0
  5
1EAA
 10
47.1245
 20
54.2179
 30
1.05685e-14
  70
    32
  0
VERTEX
  8
0
  5
1EAB
 10
47.1247
 20
54.1302
 30
1.05684e-14
  70
    32
  0
VERTEX
  8
0
  5
1EAC
 10
47.1247
 20
54.0425
 30
1.05682e-14
  70
    32
  0
VERTEX
  8
0
  5
1EAD
 10
47.1243
 20
53.9548
 30
1.05680e-14
  70
    32
  0
VERTEX
  8
0
  5
1EAE
 10
47.1236
 20
53.8671
 30
1.05676e-14
  70
    32
  0
VERTEX
  8
0
  5
1EAF
 10
47.1226
 20
53.7794
 30
1.05672e-14
  70
    32
  0
VERTEX
  8
0
  5
1EB0
 10
47.1213
 20
53.6917
 30
1.05667e-14
  70
    32
  0
VERTEX
  8
0
  5
1EB1
 10
47.1197
 20
53.6041
 30
1.05660e-14
  70
    32
  0
VERTEX
  8
0
  5
1EB2
 10
47.1178
 20
53.5164
 30
1.05653e-14
  70
    32
  0
VERTEX
  8
0
  5
1EB3
 10
47.1156
 20
53.4287
 30
1.05645e-14
  70
    32
  0
VERTEX
  8
0
  5
1EB4
 10
47.1131
 20
53.3410
 30
1.05637e-14
  70
    32
  0
VERTEX
  8
0
  5
1EB5
 10
47.1103
 20
53.2534
 30
1.05627e-14
  70
    32
  0
VERTEX
  8
0
  5
1EB6
 10
47.1071
 20
53.1657
 30
1.05616e-14
  70
    32
  0
VERTEX
  8
0
  5
1EB7
 10
47.1037
 20
53.0781
 30
1.05605e-14
  70
    32
  0
VERTEX
  8
0
  5
1EB8
 10
47.1000
 20
52.9905
 30
1.05592e-14
  70
    32
  0
VERTEX
  8
0
  5
1EB9
 10
47.0959
 20
52.9029
 30
1.05579e-14
  70
    32
  0
VERTEX
  8
0
  5
1EBA
 10
47.0915
 20
52.8153
 30
1.05565e-14
  70
    32
  0
VERTEX
  8
0
  5
1EBB
 10
47.0869
 20
52.7277
 30
1.05550e-14
  70
    32
  0
VERTEX
  8
0
  5
1EBC
 10
47.0819
 20
52.6401
 30
1.05534e-14
  70
    32
  0
VERTEX
  8
0
  5
1EBD
 10
47.0766
 20
52.5526
 30
1.05517e-14
  70
    32
  0
VERTEX
  8
0
  5
1EBE
 10
47.0711
 20
52.4651
 30
1.05499e-14
  70
    32
  0
VERTEX
  8
0
  5
1EBF
 10
47.0652
 20
52.3776
 30
1.05481e-14
  70
    32
  0
VERTEX
  8
0
  5
1EC0
 10
47.0590
 20
52.2901
 30
1.05461e-14
  70
    32
  0
VERTEX
  8
0
  5
1EC1
 10
47.0525
 20
52.2026
 30
1.05441e-14
  70
    32
  0
VERTEX
  8
0
  5
1EC2
 10
47.0456
 20
52.1152
 30
1.05420e-14
  70
    32
  0
VERTEX
  8
0
  5
1EC3
 10
47.0385
 20
52.0278
 30
1.05398e-14
  70
    32
  0
VERTEX
  8
0
  5
1EC4
 10
47.0311
 20
51.9404
 30
1.05375e-14
  70
    32
  0
VERTEX
  8
0
  5
1EC5
 10
47.0234
 20
51.8530
 30
1.05351e-14
  70
    32
  0
VERTEX
  8
0
  5
1EC6
 10
47.0153
 20
51.7657
 30
1.05326e-14
  70
    32
  0
VERTEX
  8
0
  5
1EC7
 10
47.0070
 20
51.6784
 30
1.05301e-14
  70
    32
  0
VERTEX
  8
0
  5
1EC8
 10
46.9983
 20
51.5911
 30
1.05274e-14
  70
    32
  0
VERTEX
  8
0
  5
1EC9
 10
46.9894
 20
51.5039
 30
1.05247e-14
  70
    32
  0
VERTEX
  8
0
  5
1ECA
 10
46.9801
 20
51.4167
 30
1.05219e-14
  70
    32
  0
VERTEX
  8
0
  5
1ECB
 10
46.9705
 20
51.3295
 30
1.05190e-14
  70
    32
  0
VERTEX
  8
0
  5
1ECC
 10
46.9607
 20
51.2424
 30
1.05160e-14
  70
    32
  0
VERTEX
  8
0
  5
1ECD
 10
46.9505
 20
51.1552
 30
1.05129e-14
  70
    32
  0
VERTEX
  8
0
  5
1ECE
 10
46.9400
 20
51.0682
 30
1.05098e-14
  70
    32
  0
VERTEX
  8
0
  5
1ECF
 10
46.9292
 20
50.9811
 30
1.05066e-14
  70
    32
  0
VERTEX
  8
0
  5
1ED0
 10
46.9181
 20
50.8941
 30
1.05032e-14
  70
    32
  0
VERTEX
  8
0
  5
1ED1
 10
46.9067
 20
50.8072
 30
1.04998e-14
  70
    32
  0
VERTEX
  8
0
  5
1ED2
 10
46.8950
 20
50.7203
 30
1.04963e-14
  70
    32
  0
VERTEX
  8
0
  5
1ED3
 10
46.8829
 20
50.6334
 30
1.04927e-14
  70
    32
  0
VERTEX
  8
0
  5
1ED4
 10
46.8706
 20
50.5465
 30
1.04891e-14
  70
    32
  0
VERTEX
  8
0
  5
1ED5
 10
46.8580
 20
50.4598
 30
1.04853e-14
  70
    32
  0
VERTEX
  8
0
  5
1ED6
 10
46.8450
 20
50.3730
 30
1.04815e-14
  70
    32
  0
VERTEX
  8
0
  5
1ED7
 10
46.8318
 20
50.2863
 30
1.04776e-14
  70
    32
  0
VERTEX
  8
0
  5
1ED8
 10
46.8182
 20
50.1997
 30
1.04737e-14
  70
    32
  0
VERTEX
  8
0
  5
1ED9
 10
46.8043
 20
50.1130
 30
1.04697e-14
  70
    32
  0
VERTEX
  8
0
  5
1EDA
 10
46.7902
 20
50.0265
 30
1.04658e-14
  70
    32
  0
VERTEX
  8
0
  5
1EDB
 10
46.7757
 20
49.9400
 30
1.04618e-14
  70
    32
  0
VERTEX
  8
0
  5
1EDC
 10
46.7609
 20
49.8535
 30
1.04578e-14
  70
    32
  0
VERTEX
  8
0
  5
1EDD
 10
46.7458
 20
49.7671
 30
1.04537e-14
  70
    32
  0
VERTEX
  8
0
  5
1EDE
 10
46.7305
 20
49.6808
 30
1.04496e-14
  70
    32
  0
VERTEX
  8
0
  5
1EDF
 10
46.7148
 20
49.5945
 30
1.04455e-14
  70
    32
  0
VERTEX
  8
0
  5
1EE0
 10
46.6988
 20
49.5083
 30
1.04413e-14
  70
    32
  0
VERTEX
  8
0
  5
1EE1
 10
46.6825
 20
49.4221
 30
1.04371e-14
  70
    32
  0
VERTEX
  8
0
  5
1EE2
 10
46.6659
 20
49.3360
 30
1.04329e-14
  70
    32
  0
VERTEX
  8
0
  5
1EE3
 10
46.6490
 20
49.2499
 30
1.04286e-14
  70
    32
  0
VERTEX
  8
0
  5
1EE4
 10
46.6318
 20
49.1639
 30
1.04243e-14
  70
    32
  0
VERTEX
  8
0
  5
1EE5
 10
46.6143
 20
49.0779
 30
1.04199e-14
  70
    32
  0
VERTEX
  8
0
  5
1EE6
 10
46.5965
 20
48.9921
 30
1.04155e-14
  70
    32
  0
VERTEX
  8
0
  5
1EE7
 10
46.5784
 20
48.9063
 30
1.04111e-14
  70
    32
  0
VERTEX
  8
0
  5
1EE8
 10
46.5600
 20
48.8205
 30
1.04066e-14
  70
    32
  0
VERTEX
  8
0
  5
1EE9
 10
46.5413
 20
48.7348
 30
1.04020e-14
  70
    32
  0
VERTEX
  8
0
  5
1EEA
 10
46.5223
 20
48.6492
 30
1.03975e-14
  70
    32
  0
VERTEX
  8
0
  5
1EEB
 10
46.5030
 20
48.5636
 30
1.03928e-14
  70
    32
  0
VERTEX
  8
0
  5
1EEC
 10
46.4834
 20
48.4781
 30
1.03882e-14
  70
    32
  0
VERTEX
  8
0
  5
1EED
 10
46.4635
 20
48.3927
 30
1.03835e-14
  70
    32
  0
VERTEX
  8
0
  5
1EEE
 10
46.4433
 20
48.3074
 30
1.03787e-14
  70
    32
  0
VERTEX
  8
0
  5
1EEF
 10
46.4228
 20
48.2221
 30
1.03739e-14
  70
    32
  0
VERTEX
  8
0
  5
1EF0
 10
46.4020
 20
48.1369
 30
1.03690e-14
  70
    32
  0
VERTEX
  8
0
  5
1EF1
 10
46.3809
 20
48.0518
 30
1.03641e-14
  70
    32
  0
VERTEX
  8
0
  5
1EF2
 10
46.3595
 20
47.9667
 30
1.03591e-14
  70
    32
  0
VERTEX
  8
0
  5
1EF3
 10
46.3378
 20
47.8817
 30
1.03541e-14
  70
    32
  0
VERTEX
  8
0
  5
1EF4
 10
46.3158
 20
47.7968
 30
1.03490e-14
  70
    32
  0
VERTEX
  8
0
  5
1EF5
 10
46.2935
 20
47.7120
 30
1.03439e-14
  70
    32
  0
VERTEX
  8
0
  5
1EF6
 10
46.2709
 20
47.6273
 30
1.03387e-14
  70
    32
  0
VERTEX
  8
0
  5
1EF7
 10
46.2481
 20
47.5426
 30
1.03334e-14
  70
    32
  0
VERTEX
  8
0
  5
1EF8
 10
46.2249
 20
47.4580
 30
1.03281e-14
  70
    32
  0
VERTEX
  8
0
  5
1EF9
 10
46.2014
 20
47.3735
 30
1.03227e-14
  70
    32
  0
VERTEX
  8
0
  5
1EFA
 10
46.1776
 20
47.2891
 30
1.03173e-14
  70
    32
  0
VERTEX
  8
0
  5
1EFB
 10
46.1536
 20
47.2047
 30
1.03118e-14
  70
    32
  0
VERTEX
  8
0
  5
1EFC
 10
46.1292
 20
47.1205
 30
1.03063e-14
  70
    32
  0
VERTEX
  8
0
  5
1EFD
 10
46.1046
 20
47.0363
 30
1.03006e-14
  70
    32
  0
VERTEX
  8
0
  5
1EFE
 10
46.0796
 20
46.9522
 30
1.02950e-14
  70
    32
  0
VERTEX
  8
0
  5
1EFF
 10
46.0544
 20
46.8682
 30
1.02892e-14
  70
    32
  0
VERTEX
  8
0
  5
1F00
 10
46.0288
 20
46.7843
 30
1.02834e-14
  70
    32
  0
VERTEX
  8
0
  5
1F01
 10
46.0030
 20
46.7005
 30
1.02775e-14
  70
    32
  0
VERTEX
  8
0
  5
1F02
 10
45.9769
 20
46.6168
 30
1.02715e-14
  70
    32
  0
VERTEX
  8
0
  5
1F03
 10
45.9505
 20
46.5332
 30
1.02655e-14
  70
    32
  0
VERTEX
  8
0
  5
1F04
 10
45.9238
 20
46.4496
 30
1.02594e-14
  70
    32
  0
VERTEX
  8
0
  5
1F05
 10
45.8968
 20
46.3662
 30
1.02533e-14
  70
    32
  0
VERTEX
  8
0
  5
1F06
 10
45.8695
 20
46.2828
 30
1.02470e-14
  70
    32
  0
VERTEX
  8
0
  5
1F07
 10
45.8419
 20
46.1996
 30
1.02407e-14
  70
    32
  0
VERTEX
  8
0
  5
1F08
 10
45.8140
 20
46.1164
 30
1.02343e-14
  70
    32
  0
VERTEX
  8
0
  5
1F09
 10
45.7858
 20
46.0334
 30
1.02279e-14
  70
    32
  0
VERTEX
  8
0
  5
1F0A
 10
45.7574
 20
45.9504
 30
1.02213e-14
  70
    32
  0
VERTEX
  8
0
  5
1F0B
 10
45.7286
 20
45.8676
 30
1.02147e-14
  70
    32
  0
VERTEX
  8
0
  5
1F0C
 10
45.6996
 20
45.7848
 30
1.02080e-14
  70
    32
  0
VERTEX
  8
0
  5
1F0D
 10
45.6702
 20
45.7022
 30
1.02012e-14
  70
    32
  0
VERTEX
  8
0
  5
1F0E
 10
45.6406
 20
45.6196
 30
1.01944e-14
  70
    32
  0
VERTEX
  8
0
  5
1F0F
 10
45.6107
 20
45.5372
 30
1.01874e-14
  70
    32
  0
VERTEX
  8
0
  5
1F10
 10
45.5805
 20
45.4549
 30
1.01804e-14
  70
    32
  0
VERTEX
  8
0
  5
1F11
 10
45.5500
 20
45.3726
 30
1.01733e-14
  70
    32
  0
VERTEX
  8
0
  5
1F12
 10
45.5192
 20
45.2905
 30
1.01661e-14
  70
    32
  0
VERTEX
  8
0
  5
1F13
 10
45.4882
 20
45.2085
 30
1.01589e-14
  70
    32
  0
VERTEX
  8
0
  5
1F14
 10
45.4568
 20
45.1266
 30
1.01515e-14
  70
    32
  0
VERTEX
  8
0
  5
1F15
 10
45.4252
 20
45.0448
 30
1.01440e-14
  70
    32
  0
VERTEX
  8
0
  5
1F16
 10
45.3932
 20
44.9631
 30
1.01365e-14
  70
    32
  0
VERTEX
  8
0
  5
1F17
 10
45.3610
 20
44.8816
 30
1.01291e-14
  70
    32
  0
VERTEX
  8
0
  5
1F18
 10
45.3285
 20
44.8001
 30
1.01217e-14
  70
    32
  0
VERTEX
  8
0
  5
1F19
 10
45.2957
 20
44.7188
 30
1.01143e-14
  70
    32
  0
VERTEX
  8
0
  5
1F1A
 10
45.2626
 20
44.6375
 30
1.01070e-14
  70
    32
  0
VERTEX
  8
0
  5
1F1B
 10
45.2293
 20
44.5564
 30
1.00998e-14
  70
    32
  0
VERTEX
  8
0
  5
1F1C
 10
45.1956
 20
44.4754
 30
1.00927e-14
  70
    32
  0
VERTEX
  8
0
  5
1F1D
 10
45.1617
 20
44.3946
 30
1.00855e-14
  70
    32
  0
VERTEX
  8
0
  5
1F1E
 10
45.1275
 20
44.3138
 30
1.00784e-14
  70
    32
  0
VERTEX
  8
0
  5
1F1F
 10
45.0930
 20
44.2332
 30
1.00714e-14
  70
    32
  0
VERTEX
  8
0
  5
1F20
 10
45.0582
 20
44.1527
 30
1.00644e-14
  70
    32
  0
VERTEX
  8
0
  5
1F21
 10
45.0231
 20
44.0723
 30
1.00574e-14
  70
    32
  0
VERTEX
  8
0
  5
1F22
 10
44.9878
 20
43.9920
 30
1.00504e-14
  70
    32
  0
VERTEX
  8
0
  5
1F23
 10
44.9521
 20
43.9119
 30
1.00434e-14
  70
    32
  0
VERTEX
  8
0
  5
1F24
 10
44.9162
 20
43.8319
 30
1.00365e-14
  70
    32
  0
VERTEX
  8
0
  5
1F25
 10
44.8800
 20
43.7520
 30
1.00295e-14
  70
    32
  0
VERTEX
  8
0
  5
1F26
 10
44.8436
 20
43.6722
 30
1.00226e-14
  70
    32
  0
VERTEX
  8
0
  5
1F27
 10
44.8068
 20
43.5926
 30
1.00156e-14
  70
    32
  0
VERTEX
  8
0
  5
1F28
 10
44.7698
 20
43.5131
 30
1.00086e-14
  70
    32
  0
VERTEX
  8
0
  5
1F29
 10
44.7325
 20
43.4337
 30
1.00016e-14
  70
    32
  0
VERTEX
  8
0
  5
1F2A
 10
44.6949
 20
43.3545
 30
9.99464e-15
  70
    32
  0
VERTEX
  8
0
  5
1F2B
 10
44.6570
 20
43.2754
 30
9.98761e-15
  70
    32
  0
VERTEX
  8
0
  5
1F2C
 10
44.6189
 20
43.1964
 30
9.98054e-15
  70
    32
  0
VERTEX
  8
0
  5
1F2D
 10
44.5805
 20
43.1176
 30
9.97344e-15
  70
    32
  0
VERTEX
  8
0
  5
1F2E
 10
44.5418
 20
43.0389
 30
9.96629e-15
  70
    32
  0
VERTEX
  8
0
  5
1F2F
 10
44.5028
 20
42.9603
 30
9.95910e-15
  70
    32
  0
VERTEX
  8
0
  5
1F30
 10
44.4636
 20
42.8819
 30
9.95186e-15
  70
    32
  0
VERTEX
  8
0
  5
1F31
 10
44.4240
 20
42.8036
 30
9.94456e-15
  70
    32
  0
VERTEX
  8
0
  5
1F32
 10
44.3843
 20
42.7254
 30
9.93720e-15
  70
    32
  0
VERTEX
  8
0
  5
1F33
 10
44.3442
 20
42.6474
 30
9.92977e-15
  70
    32
  0
VERTEX
  8
0
  5
1F34
 10
44.3039
 20
42.5695
 30
9.92227e-15
  70
    32
  0
VERTEX
  8
0
  5
1F35
 10
44.2632
 20
42.4918
 30
9.91469e-15
  70
    32
  0
VERTEX
  8
0
  5
1F36
 10
44.2224
 20
42.4142
 30
9.90703e-15
  70
    32
  0
VERTEX
  8
0
  5
1F37
 10
44.1812
 20
42.3367
 30
9.89929e-15
  70
    32
  0
VERTEX
  8
0
  5
1F38
 10
44.1398
 20
42.2594
 30
9.89145e-15
  70
    32
  0
VERTEX
  8
0
  5
1F39
 10
44.0981
 20
42.1823
 30
9.88351e-15
  70
    32
  0
VERTEX
  8
0
  5
1F3A
 10
44.0561
 20
42.1052
 30
9.87547e-15
  70
    32
  0
VERTEX
  8
0
  5
1F3B
 10
44.0139
 20
42.0284
 30
9.86733e-15
  70
    32
  0
VERTEX
  8
0
  5
1F3C
 10
43.9714
 20
41.9517
 30
9.85907e-15
  70
    32
  0
VERTEX
  8
0
  5
1F3D
 10
43.9286
 20
41.8751
 30
9.85069e-15
  70
    32
  0
VERTEX
  8
0
  5
1F3E
 10
43.8856
 20
41.7987
 30
9.84219e-15
  70
    32
  0
VERTEX
  8
0
  5
1F3F
 10
43.8422
 20
41.7224
 30
9.83356e-15
  70
    32
  0
VERTEX
  8
0
  5
1F40
 10
43.7987
 20
41.6463
 30
9.82480e-15
  70
    32
  0
VERTEX
  8
0
  5
1F41
 10
43.7548
 20
41.5703
 30
9.81591e-15
  70
    32
  0
VERTEX
  8
0
  5
1F42
 10
43.7107
 20
41.4945
 30
9.80686e-15
  70
    32
  0
VERTEX
  8
0
  5
1F43
 10
43.6663
 20
41.4189
 30
9.79767e-15
  70
    32
  0
VERTEX
  8
0
  5
1F44
 10
43.6217
 20
41.3434
 30
9.78833e-15
  70
    32
  0
VERTEX
  8
0
  5
1F45
 10
43.5768
 20
41.2680
 30
9.77883e-15
  70
    32
  0
VERTEX
  8
0
  5
1F46
 10
43.5316
 20
41.1929
 30
9.76917e-15
  70
    32
  0
VERTEX
  8
0
  5
1F47
 10
43.4862
 20
41.1178
 30
9.75934e-15
  70
    32
  0
VERTEX
  8
0
  5
1F48
 10
43.4405
 20
41.0430
 30
9.74933e-15
  70
    32
  0
VERTEX
  8
0
  5
1F49
 10
43.3945
 20
40.9683
 30
9.73915e-15
  70
    32
  0
VERTEX
  8
0
  5
1F4A
 10
43.3483
 20
40.8937
 30
9.72878e-15
  70
    32
  0
VERTEX
  8
0
  5
1F4B
 10
43.3018
 20
40.8194
 30
9.71822e-15
  70
    32
  0
VERTEX
  8
0
  5
1F4C
 10
43.2551
 20
40.7452
 30
9.70747e-15
  70
    32
  0
VERTEX
  8
0
  5
1F4D
 10
43.2081
 20
40.6711
 30
9.69652e-15
  70
    32
  0
VERTEX
  8
0
  5
1F4E
 10
43.1608
 20
40.5972
 30
9.68543e-15
  70
    32
  0
VERTEX
  8
0
  5
1F4F
 10
43.1133
 20
40.5235
 30
9.67433e-15
  70
    32
  0
VERTEX
  8
0
  5
1F50
 10
43.0655
 20
40.4500
 30
9.66322e-15
  70
    32
  0
VERTEX
  8
0
  5
1F51
 10
43.0174
 20
40.3766
 30
9.65210e-15
  70
    32
  0
VERTEX
  8
0
  5
1F52
 10
42.9691
 20
40.3034
 30
9.64097e-15
  70
    32
  0
VERTEX
  8
0
  5
1F53
 10
42.9206
 20
40.2304
 30
9.62983e-15
  70
    32
  0
VERTEX
  8
0
  5
1F54
 10
42.8718
 20
40.1575
 30
9.61867e-15
  70
    32
  0
VERTEX
  8
0
  5
1F55
 10
42.8227
 20
40.0848
 30
9.60749e-15
  70
    32
  0
VERTEX
  8
0
  5
1F56
 10
42.7734
 20
40.0123
 30
9.59629e-15
  70
    32
  0
VERTEX
  8
0
  5
1F57
 10
42.7238
 20
39.9399
 30
9.58507e-15
  70
    32
  0
VERTEX
  8
0
  5
1F58
 10
42.6739
 20
39.8678
 30
9.57383e-15
  70
    32
  0
VERTEX
  8
0
  5
1F59
 10
42.6238
 20
39.7958
 30
9.56257e-15
  70
    32
  0
VERTEX
  8
0
  5
1F5A
 10
42.5735
 20
39.7240
 30
9.55128e-15
  70
    32
  0
VERTEX
  8
0
  5
1F5B
 10
42.5229
 20
39.6523
 30
9.53996e-15
  70
    32
  0
VERTEX
  8
0
  5
1F5C
 10
42.4721
 20
39.5809
 30
9.52861e-15
  70
    32
  0
VERTEX
  8
0
  5
1F5D
 10
42.4210
 20
39.5096
 30
9.51723e-15
  70
    32
  0
VERTEX
  8
0
  5
1F5E
 10
42.3696
 20
39.4385
 30
9.50582e-15
  70
    32
  0
VERTEX
  8
0
  5
1F5F
 10
42.3180
 20
39.3676
 30
9.49437e-15
  70
    32
  0
VERTEX
  8
0
  5
1F60
 10
42.2662
 20
39.2968
 30
9.48289e-15
  70
    32
  0
VERTEX
  8
0
  5
1F61
 10
42.2141
 20
39.2263
 30
9.47137e-15
  70
    32
  0
VERTEX
  8
0
  5
1F62
 10
42.1617
 20
39.1559
 30
9.45981e-15
  70
    32
  0
VERTEX
  8
0
  5
1F63
 10
42.1091
 20
39.0857
 30
9.44821e-15
  70
    32
  0
VERTEX
  8
0
  5
1F64
 10
42.0563
 20
39.0157
 30
9.43656e-15
  70
    32
  0
VERTEX
  8
0
  5
1F65
 10
42.0032
 20
38.9459
 30
9.42487e-15
  70
    32
  0
VERTEX
  8
0
  5
1F66
 10
41.9499
 20
38.8763
 30
9.41313e-15
  70
    32
  0
VERTEX
  8
0
  5
1F67
 10
41.8964
 20
38.8068
 30
9.40134e-15
  70
    32
  0
VERTEX
  8
0
  5
1F68
 10
41.8426
 20
38.7376
 30
9.38951e-15
  70
    32
  0
VERTEX
  8
0
  5
1F69
 10
41.7885
 20
38.6685
 30
9.37762e-15
  70
    32
  0
VERTEX
  8
0
  5
1F6A
 10
41.7342
 20
38.5996
 30
9.36568e-15
  70
    32
  0
VERTEX
  8
0
  5
1F6B
 10
41.6797
 20
38.5309
 30
9.35368e-15
  70
    32
  0
VERTEX
  8
0
  5
1F6C
 10
41.6249
 20
38.4624
 30
9.34162e-15
  70
    32
  0
VERTEX
  8
0
  5
1F6D
 10
41.5699
 20
38.3941
 30
9.32951e-15
  70
    32
  0
VERTEX
  8
0
  5
1F6E
 10
41.5147
 20
38.3260
 30
9.31733e-15
  70
    32
  0
VERTEX
  8
0
  5
1F6F
 10
41.4592
 20
38.2581
 30
9.30509e-15
  70
    32
  0
VERTEX
  8
0
  5
1F70
 10
41.4034
 20
38.1904
 30
9.29279e-15
  70
    32
  0
VERTEX
  8
0
  5
1F71
 10
41.3475
 20
38.1228
 30
9.28042e-15
  70
    32
  0
VERTEX
  8
0
  5
1F72
 10
41.2913
 20
38.0555
 30
9.26799e-15
  70
    32
  0
VERTEX
  8
0
  5
1F73
 10
41.2349
 20
37.9884
 30
9.25548e-15
  70
    32
  0
VERTEX
  8
0
  5
1F74
 10
41.1782
 20
37.9214
 30
9.24291e-15
  70
    32
  0
VERTEX
  8
0
  5
1F75
 10
41.1213
 20
37.8547
 30
9.23026e-15
  70
    32
  0
VERTEX
  8
0
  5
1F76
 10
41.0642
 20
37.7881
 30
9.21753e-15
  70
    32
  0
VERTEX
  8
0
  5
1F77
 10
41.0068
 20
37.7218
 30
9.20473e-15
  70
    32
  0
VERTEX
  8
0
  5
1F78
 10
40.9492
 20
37.6557
 30
9.19185e-15
  70
    32
  0
VERTEX
  8
0
  5
1F79
 10
40.8914
 20
37.5897
 30
9.17889e-15
  70
    32
  0
VERTEX
  8
0
  5
1F7A
 10
40.8333
 20
37.5240
 30
9.16585e-15
  70
    32
  0
VERTEX
  8
0
  5
1F7B
 10
40.7750
 20
37.4585
 30
9.15273e-15
  70
    32
  0
VERTEX
  8
0
  5
1F7C
 10
40.7165
 20
37.3931
 30
9.13952e-15
  70
    32
  0
VERTEX
  8
0
  5
1F7D
 10
40.6578
 20
37.3280
 30
9.12623e-15
  70
    32
  0
VERTEX
  8
0
  5
1F7E
 10
40.5988
 20
37.2631
 30
9.11284e-15
  70
    32
  0
VERTEX
  8
0
  5
1F7F
 10
40.5396
 20
37.1984
 30
9.09937e-15
  70
    32
  0
VERTEX
  8
0
  5
1F80
 10
40.4802
 20
37.1339
 30
9.08580e-15
  70
    32
  0
VERTEX
  8
0
  5
1F81
 10
40.4205
 20
37.0696
 30
9.07214e-15
  70
    32
  0
VERTEX
  8
0
  5
1F82
 10
40.3607
 20
37.0055
 30
9.05838e-15
  70
    32
  0
VERTEX
  8
0
  5
1F83
 10
40.3006
 20
36.9416
 30
9.04453e-15
  70
    32
  0
VERTEX
  8
0
  5
1F84
 10
40.2402
 20
36.8780
 30
9.03058e-15
  70
    32
  0
VERTEX
  8
0
  5
1F85
 10
40.1797
 20
36.8145
 30
9.01652e-15
  70
    32
  0
VERTEX
  8
0
  5
1F86
 10
40.1189
 20
36.7513
 30
9.00237e-15
  70
    32
  0
VERTEX
  8
0
  5
1F87
 10
40.0580
 20
36.6883
 30
8.98811e-15
  70
    32
  0
VERTEX
  8
0
  5
1F88
 10
39.9967
 20
36.6255
 30
8.97374e-15
  70
    32
  0
VERTEX
  8
0
  5
1F89
 10
39.9353
 20
36.5629
 30
8.95927e-15
  70
    32
  0
VERTEX
  8
0
  5
1F8A
 10
39.8737
 20
36.5005
 30
8.94468e-15
  70
    32
  0
VERTEX
  8
0
  5
1F8B
 10
39.8118
 20
36.4383
 30
8.92999e-15
  70
    32
  0
VERTEX
  8
0
  5
1F8C
 10
39.7497
 20
36.3764
 30
8.91518e-15
  70
    32
  0
VERTEX
  8
0
  5
1F8D
 10
39.6874
 20
36.3146
 30
8.90026e-15
  70
    32
  0
VERTEX
  8
0
  5
1F8E
 10
39.6249
 20
36.2531
 30
8.88522e-15
  70
    32
  0
VERTEX
  8
0
  5
1F8F
 10
39.5622
 20
36.1918
 30
8.87006e-15
  70
    32
  0
VERTEX
  8
0
  5
1F90
 10
39.4992
 20
36.1308
 30
8.85479e-15
  70
    32
  0
VERTEX
  8
0
  5
1F91
 10
39.4361
 20
36.0699
 30
8.83939e-15
  70
    32
  0
VERTEX
  8
0
  5
1F92
 10
39.3727
 20
36.0093
 30
8.82387e-15
  70
    32
  0
VERTEX
  8
0
  5
1F93
 10
39.3091
 20
35.9489
 30
8.80822e-15
  70
    32
  0
VERTEX
  8
0
  5
1F94
 10
39.2453
 20
35.8887
 30
8.79244e-15
  70
    32
  0
VERTEX
  8
0
  5
1F95
 10
39.1813
 20
35.8288
 30
8.77654e-15
  70
    32
  0
VERTEX
  8
0
  5
1F96
 10
39.1171
 20
35.7690
 30
8.76051e-15
  70
    32
  0
VERTEX
  8
0
  5
1F97
 10
39.0527
 20
35.7095
 30
8.74434e-15
  70
    32
  0
VERTEX
  8
0
  5
1F98
 10
38.9880
 20
35.6503
 30
8.72804e-15
  70
    32
  0
VERTEX
  8
0
  5
1F99
 10
38.9232
 20
35.5912
 30
8.71161e-15
  70
    32
  0
VERTEX
  8
0
  5
1F9A
 10
38.8581
 20
35.5324
 30
8.69504e-15
  70
    32
  0
VERTEX
  8
0
  5
1F9B
 10
38.7929
 20
35.4738
 30
8.67833e-15
  70
    32
  0
VERTEX
  8
0
  5
1F9C
 10
38.7274
 20
35.4155
 30
8.66148e-15
  70
    32
  0
VERTEX
  8
0
  5
1F9D
 10
38.6617
 20
35.3573
 30
8.64449e-15
  70
    32
  0
VERTEX
  8
0
  5
1F9E
 10
38.5958
 20
35.2994
 30
8.62756e-15
  70
    32
  0
VERTEX
  8
0
  5
1F9F
 10
38.5298
 20
35.2418
 30
8.61077e-15
  70
    32
  0
VERTEX
  8
0
  5
1FA0
 10
38.4635
 20
35.1843
 30
8.59413e-15
  70
    32
  0
VERTEX
  8
0
  5
1FA1
 10
38.3970
 20
35.1271
 30
8.57762e-15
  70
    32
  0
VERTEX
  8
0
  5
1FA2
 10
38.3303
 20
35.0702
 30
8.56123e-15
  70
    32
  0
VERTEX
  8
0
  5
1FA3
 10
38.2634
 20
35.0134
 30
8.54497e-15
  70
    32
  0
VERTEX
  8
0
  5
1FA4
 10
38.1963
 20
34.9569
 30
8.52883e-15
  70
    32
  0
VERTEX
  8
0
  5
1FA5
 10
38.1291
 20
34.9007
 30
8.51280e-15
  70
    32
  0
VERTEX
  8
0
  5
1FA6
 10
38.0616
 20
34.8447
 30
8.49688e-15
  70
    32
  0
VERTEX
  8
0
  5
1FA7
 10
37.9939
 20
34.7889
 30
8.48106e-15
  70
    32
  0
VERTEX
  8
0
  5
1FA8
 10
37.9260
 20
34.7333
 30
8.46534e-15
  70
    32
  0
VERTEX
  8
0
  5
1FA9
 10
37.8580
 20
34.6780
 30
8.44971e-15
  70
    32
  0
VERTEX
  8
0
  5
1FAA
 10
37.7897
 20
34.6229
 30
8.43417e-15
  70
    32
  0
VERTEX
  8
0
  5
1FAB
 10
37.7212
 20
34.5681
 30
8.41870e-15
  70
    32
  0
VERTEX
  8
0
  5
1FAC
 10
37.6526
 20
34.5135
 30
8.40331e-15
  70
    32
  0
VERTEX
  8
0
  5
1FAD
 10
37.5838
 20
34.4592
 30
8.38800e-15
  70
    32
  0
VERTEX
  8
0
  5
1FAE
 10
37.5147
 20
34.4051
 30
8.37274e-15
  70
    32
  0
VERTEX
  8
0
  5
1FAF
 10
37.4455
 20
34.3512
 30
8.35755e-15
  70
    32
  0
VERTEX
  8
0
  5
1FB0
 10
37.3761
 20
34.2976
 30
8.34241e-15
  70
    32
  0
VERTEX
  8
0
  5
1FB1
 10
37.3065
 20
34.2442
 30
8.32732e-15
  70
    32
  0
VERTEX
  8
0
  5
1FB2
 10
37.2367
 20
34.1911
 30
8.31228e-15
  70
    32
  0
VERTEX
  8
0
  5
1FB3
 10
37.1668
 20
34.1382
 30
8.29727e-15
  70
    32
  0
VERTEX
  8
0
  5
1FB4
 10
37.0966
 20
34.0855
 30
8.28229e-15
  70
    32
  0
VERTEX
  8
0
  5
1FB5
 10
37.0263
 20
34.0331
 30
8.26735e-15
  70
    32
  0
VERTEX
  8
0
  5
1FB6
 10
36.9558
 20
33.9810
 30
8.25242e-15
  70
    32
  0
VERTEX
  8
0
  5
1FB7
 10
36.8851
 20
33.9291
 30
8.23751e-15
  70
    32
  0
VERTEX
  8
0
  5
1FB8
 10
36.8142
 20
33.8774
 30
8.22262e-15
  70
    32
  0
VERTEX
  8
0
  5
1FB9
 10
36.7431
 20
33.8260
 30
8.20773e-15
  70
    32
  0
VERTEX
  8
0
  5
1FBA
 10
36.6719
 20
33.7748
 30
8.19284e-15
  70
    32
  0
VERTEX
  8
0
  5
1FBB
 10
36.6005
 20
33.7239
 30
8.17794e-15
  70
    32
  0
VERTEX
  8
0
  5
1FBC
 10
36.5289
 20
33.6733
 30
8.16304e-15
  70
    32
  0
VERTEX
  8
0
  5
1FBD
 10
36.4571
 20
33.6229
 30
8.14812e-15
  70
    32
  0
VERTEX
  8
0
  5
1FBE
 10
36.3852
 20
33.5727
 30
8.13319e-15
  70
    32
  0
VERTEX
  8
0
  5
1FBF
 10
36.3130
 20
33.5228
 30
8.11822e-15
  70
    32
  0
VERTEX
  8
0
  5
1FC0
 10
36.2407
 20
33.4731
 30
8.10323e-15
  70
    32
  0
VERTEX
  8
0
  5
1FC1
 10
36.1683
 20
33.4238
 30
8.08820e-15
  70
    32
  0
VERTEX
  8
0
  5
1FC2
 10
36.0956
 20
33.3746
 30
8.07313e-15
  70
    32
  0
VERTEX
  8
0
  5
1FC3
 10
36.0228
 20
33.3257
 30
8.05801e-15
  70
    32
  0
VERTEX
  8
0
  5
1FC4
 10
35.9498
 20
33.2771
 30
8.04284e-15
  70
    32
  0
VERTEX
  8
0
  5
1FC5
 10
35.8766
 20
33.2287
 30
8.02761e-15
  70
    32
  0
VERTEX
  8
0
  5
1FC6
 10
35.8033
 20
33.1806
 30
8.01232e-15
  70
    32
  0
VERTEX
  8
0
  5
1FC7
 10
35.7298
 20
33.1328
 30
7.99696e-15
  70
    32
  0
VERTEX
  8
0
  5
1FC8
 10
35.6561
 20
33.0852
 30
7.98153e-15
  70
    32
  0
VERTEX
  8
0
  5
1FC9
 10
35.5823
 20
33.0378
 30
7.96602e-15
  70
    32
  0
VERTEX
  8
0
  5
1FCA
 10
35.5083
 20
32.9907
 30
7.95042e-15
  70
    32
  0
VERTEX
  8
0
  5
1FCB
 10
35.4341
 20
32.9439
 30
7.93473e-15
  70
    32
  0
VERTEX
  8
0
  5
1FCC
 10
35.3598
 20
32.8974
 30
7.91895e-15
  70
    32
  0
VERTEX
  8
0
  5
1FCD
 10
35.2853
 20
32.8511
 30
7.90309e-15
  70
    32
  0
VERTEX
  8
0
  5
1FCE
 10
35.2106
 20
32.8051
 30
7.88715e-15
  70
    32
  0
VERTEX
  8
0
  5
1FCF
 10
35.1358
 20
32.7593
 30
7.87112e-15
  70
    32
  0
VERTEX
  8
0
  5
1FD0
 10
35.0609
 20
32.7138
 30
7.85500e-15
  70
    32
  0
VERTEX
  8
0
  5
1FD1
 10
34.9857
 20
32.6686
 30
7.83881e-15
  70
    32
  0
VERTEX
  8
0
  5
1FD2
 10
34.9104
 20
32.6236
 30
7.82253e-15
  70
    32
  0
VERTEX
  8
0
  5
1FD3
 10
34.8350
 20
32.5789
 30
7.80617e-15
  70
    32
  0
VERTEX
  8
0
  5
1FD4
 10
34.7593
 20
32.5344
 30
7.78974e-15
  70
    32
  0
VERTEX
  8
0
  5
1FD5
 10
34.6836
 20
32.4903
 30
7.77323e-15
  70
    32
  0
VERTEX
  8
0
  5
1FD6
 10
34.6077
 20
32.4464
 30
7.75664e-15
  70
    32
  0
VERTEX
  8
0
  5
1FD7
 10
34.5316
 20
32.4027
 30
7.73997e-15
  70
    32
  0
VERTEX
  8
0
  5
1FD8
 10
34.4554
 20
32.3594
 30
7.72323e-15
  70
    32
  0
VERTEX
  8
0
  5
1FD9
 10
34.3790
 20
32.3163
 30
7.70642e-15
  70
    32
  0
VERTEX
  8
0
  5
1FDA
 10
34.3024
 20
32.2734
 30
7.68954e-15
  70
    32
  0
VERTEX
  8
0
  5
1FDB
 10
34.2258
 20
32.2309
 30
7.67258e-15
  70
    32
  0
VERTEX
  8
0
  5
1FDC
 10
34.1489
 20
32.1886
 30
7.65555e-15
  70
    32
  0
VERTEX
  8
0
  5
1FDD
 10
34.0720
 20
32.1466
 30
7.63845e-15
  70
    32
  0
VERTEX
  8
0
  5
1FDE
 10
33.9948
 20
32.1048
 30
7.62129e-15
  70
    32
  0
VERTEX
  8
0
  5
1FDF
 10
33.9176
 20
32.0633
 30
7.60406e-15
  70
    32
  0
VERTEX
  8
0
  5
1FE0
 10
33.8401
 20
32.0221
 30
7.58676e-15
  70
    32
  0
VERTEX
  8
0
  5
1FE1
 10
33.7626
 20
31.9812
 30
7.56939e-15
  70
    32
  0
VERTEX
  8
0
  5
1FE2
 10
33.6849
 20
31.9405
 30
7.55197e-15
  70
    32
  0
VERTEX
  8
0
  5
1FE3
 10
33.6070
 20
31.9001
 30
7.53447e-15
  70
    32
  0
VERTEX
  8
0
  5
1FE4
 10
33.5291
 20
31.8600
 30
7.51692e-15
  70
    32
  0
VERTEX
  8
0
  5
1FE5
 10
33.4509
 20
31.8201
 30
7.49931e-15
  70
    32
  0
VERTEX
  8
0
  5
1FE6
 10
33.3727
 20
31.7806
 30
7.48163e-15
  70
    32
  0
VERTEX
  8
0
  5
1FE7
 10
33.2943
 20
31.7413
 30
7.46390e-15
  70
    32
  0
VERTEX
  8
0
  5
1FE8
 10
33.2157
 20
31.7022
 30
7.44611e-15
  70
    32
  0
VERTEX
  8
0
  5
1FE9
 10
33.1371
 20
31.6635
 30
7.42826e-15
  70
    32
  0
VERTEX
  8
0
  5
1FEA
 10
33.0583
 20
31.6250
 30
7.41036e-15
  70
    32
  0
VERTEX
  8
0
  5
1FEB
 10
32.9793
 20
31.5868
 30
7.39240e-15
  70
    32
  0
VERTEX
  8
0
  5
1FEC
 10
32.9002
 20
31.5489
 30
7.37438e-15
  70
    32
  0
VERTEX
  8
0
  5
1FED
 10
32.8210
 20
31.5112
 30
7.35632e-15
  70
    32
  0
VERTEX
  8
0
  5
1FEE
 10
32.7417
 20
31.4738
 30
7.33820e-15
  70
    32
  0
VERTEX
  8
0
  5
1FEF
 10
32.6622
 20
31.4368
 30
7.32003e-15
  70
    32
  0
VERTEX
  8
0
  5
1FF0
 10
32.5826
 20
31.3999
 30
7.30182e-15
  70
    32
  0
VERTEX
  8
0
  5
1FF1
 10
32.5029
 20
31.3634
 30
7.28355e-15
  70
    32
  0
VERTEX
  8
0
  5
1FF2
 10
32.4230
 20
31.3271
 30
7.26524e-15
  70
    32
  0
VERTEX
  8
0
  5
1FF3
 10
32.3431
 20
31.2912
 30
7.24688e-15
  70
    32
  0
VERTEX
  8
0
  5
1FF4
 10
32.2629
 20
31.2555
 30
7.22847e-15
  70
    32
  0
VERTEX
  8
0
  5
1FF5
 10
32.1827
 20
31.2200
 30
7.21002e-15
  70
    32
  0
VERTEX
  8
0
  5
1FF6
 10
32.1024
 20
31.1849
 30
7.19153e-15
  70
    32
  0
VERTEX
  8
0
  5
1FF7
 10
32.0219
 20
31.1500
 30
7.17300e-15
  70
    32
  0
VERTEX
  8
0
  5
1FF8
 10
31.9413
 20
31.1155
 30
7.15442e-15
  70
    32
  0
VERTEX
  8
0
  5
1FF9
 10
31.8606
 20
31.0812
 30
7.13580e-15
  70
    32
  0
VERTEX
  8
0
  5
1FFA
 10
31.7797
 20
31.0472
 30
7.11715e-15
  70
    32
  0
VERTEX
  8
0
  5
1FFB
 10
31.6988
 20
31.0134
 30
7.09845e-15
  70
    32
  0
VERTEX
  8
0
  5
1FFC
 10
31.6177
 20
30.9800
 30
7.07972e-15
  70
    32
  0
VERTEX
  8
0
  5
1FFD
 10
31.5365
 20
30.9468
 30
7.06096e-15
  70
    32
  0
VERTEX
  8
0
  5
1FFE
 10
31.4552
 20
30.9139
 30
7.04215e-15
  70
    32
  0
VERTEX
  8
0
  5
1FFF
 10
31.3738
 20
30.8813
 30
7.02332e-15
  70
    32
  0
VERTEX
  8
0
  5
2000
 10
31.2923
 20
30.8490
 30
7.00445e-15
  70
    32
  0
VERTEX
  8
0
  5
2001
 10
31.2106
 20
30.8170
 30
6.98555e-15
  70
    32
  0
VERTEX
  8
0
  5
2002
 10
31.1289
 20
30.7853
 30
6.96662e-15
  70
    32
  0
VERTEX
  8
0
  5
2003
 10
31.0470
 20
30.7538
 30
6.94766e-15
  70
    32
  0
VERTEX
  8
0
  5
2004
 10
30.9650
 20
30.7226
 30
6.92867e-15
  70
    32
  0
VERTEX
  8
0
  5
2005
 10
30.8829
 20
30.6918
 30
6.90965e-15
  70
    32
  0
VERTEX
  8
0
  5
2006
 10
30.8008
 20
30.6612
 30
6.89061e-15
  70
    32
  0
VERTEX
  8
0
  5
2007
 10
30.7185
 20
30.6309
 30
6.87154e-15
  70
    32
  0
VERTEX
  8
0
  5
2008
 10
30.6361
 20
30.6008
 30
6.85244e-15
  70
    32
  0
VERTEX
  8
0
  5
2009
 10
30.5535
 20
30.5711
 30
6.83333e-15
  70
    32
  0
VERTEX
  8
0
  5
200A
 10
30.4709
 20
30.5417
 30
6.81419e-15
  70
    32
  0
VERTEX
  8
0
  5
200B
 10
30.3882
 20
30.5125
 30
6.79502e-15
  70
    32
  0
VERTEX
  8
0
  5
200C
 10
30.3054
 20
30.4837
 30
6.77584e-15
  70
    32
  0
VERTEX
  8
0
  5
200D
 10
30.2225
 20
30.4551
 30
6.75664e-15
  70
    32
  0
VERTEX
  8
0
  5
200E
 10
30.1395
 20
30.4268
 30
6.73742e-15
  70
    32
  0
VERTEX
  8
0
  5
200F
 10
30.0564
 20
30.3988
 30
6.71818e-15
  70
    32
  0
VERTEX
  8
0
  5
2010
 10
29.9731
 20
30.3711
 30
6.69893e-15
  70
    32
  0
VERTEX
  8
0
  5
2011
 10
29.8898
 20
30.3437
 30
6.67966e-15
  70
    32
  0
VERTEX
  8
0
  5
2012
 10
29.8064
 20
30.3166
 30
6.66038e-15
  70
    32
  0
VERTEX
  8
0
  5
2013
 10
29.7229
 20
30.2898
 30
6.64109e-15
  70
    32
  0
VERTEX
  8
0
  5
2014
 10
29.6393
 20
30.2632
 30
6.62178e-15
  70
    32
  0
VERTEX
  8
0
  5
2015
 10
29.5556
 20
30.2370
 30
6.60246e-15
  70
    32
  0
VERTEX
  8
0
  5
2016
 10
29.4719
 20
30.2111
 30
6.58313e-15
  70
    32
  0
VERTEX
  8
0
  5
2017
 10
29.3880
 20
30.1854
 30
6.56379e-15
  70
    32
  0
VERTEX
  8
0
  5
2018
 10
29.3040
 20
30.1601
 30
6.54445e-15
  70
    32
  0
VERTEX
  8
0
  5
2019
 10
29.2200
 20
30.1350
 30
6.52510e-15
  70
    32
  0
VERTEX
  8
0
  5
201A
 10
29.1359
 20
30.1103
 30
6.50574e-15
  70
    32
  0
VERTEX
  8
0
  5
201B
 10
29.0516
 20
30.0858
 30
6.48638e-15
  70
    32
  0
VERTEX
  8
0
  5
201C
 10
28.9673
 20
30.0616
 30
6.46701e-15
  70
    32
  0
VERTEX
  8
0
  5
201D
 10
28.8829
 20
30.0378
 30
6.44764e-15
  70
    32
  0
VERTEX
  8
0
  5
201E
 10
28.7985
 20
30.0142
 30
6.42827e-15
  70
    32
  0
VERTEX
  8
0
  5
201F
 10
28.7139
 20
29.9909
 30
6.40890e-15
  70
    32
  0
VERTEX
  8
0
  5
2020
 10
28.6292
 20
29.9680
 30
6.38953e-15
  70
    32
  0
VERTEX
  8
0
  5
2021
 10
28.5445
 20
29.9453
 30
6.37016e-15
  70
    32
  0
VERTEX
  8
0
  5
2022
 10
28.4597
 20
29.9229
 30
6.35079e-15
  70
    32
  0
VERTEX
  8
0
  5
2023
 10
28.3748
 20
29.9008
 30
6.33143e-15
  70
    32
  0
VERTEX
  8
0
  5
2024
 10
28.2899
 20
29.8791
 30
6.31207e-15
  70
    32
  0
VERTEX
  8
0
  5
2025
 10
28.2048
 20
29.8576
 30
6.29272e-15
  70
    32
  0
VERTEX
  8
0
  5
2026
 10
28.1197
 20
29.8364
 30
6.27338e-15
  70
    32
  0
VERTEX
  8
0
  5
2027
 10
28.0345
 20
29.8155
 30
6.25406e-15
  70
    32
  0
VERTEX
  8
0
  5
2028
 10
27.9493
 20
29.7949
 30
6.23474e-15
  70
    32
  0
VERTEX
  8
0
  5
2029
 10
27.8640
 20
29.7747
 30
6.21543e-15
  70
    32
  0
VERTEX
  8
0
  5
202A
 10
27.7785
 20
29.7547
 30
6.19613e-15
  70
    32
  0
VERTEX
  8
0
  5
202B
 10
27.6931
 20
29.7350
 30
6.17684e-15
  70
    32
  0
VERTEX
  8
0
  5
202C
 10
27.6075
 20
29.7156
 30
6.15755e-15
  70
    32
  0
VERTEX
  8
0
  5
202D
 10
27.5219
 20
29.6966
 30
6.13827e-15
  70
    32
  0
VERTEX
  8
0
  5
202E
 10
27.4363
 20
29.6778
 30
6.11900e-15
  70
    32
  0
VERTEX
  8
0
  5
202F
 10
27.3505
 20
29.6593
 30
6.09973e-15
  70
    32
  0
VERTEX
  8
0
  5
2030
 10
27.2647
 20
29.6411
 30
6.08046e-15
  70
    32
  0
VERTEX
  8
0
  5
2031
 10
27.1789
 20
29.6233
 30
6.06120e-15
  70
    32
  0
VERTEX
  8
0
  5
2032
 10
27.0929
 20
29.6057
 30
6.04194e-15
  70
    32
  0
VERTEX
  8
0
  5
2033
 10
27.0069
 20
29.5884
 30
6.02268e-15
  70
    32
  0
VERTEX
  8
0
  5
2034
 10
26.9209
 20
29.5715
 30
6.00342e-15
  70
    32
  0
VERTEX
  8
0
  5
2035
 10
26.8348
 20
29.5548
 30
5.98416e-15
  70
    32
  0
VERTEX
  8
0
  5
2036
 10
26.7486
 20
29.5384
 30
5.96490e-15
  70
    32
  0
VERTEX
  8
0
  5
2037
 10
26.6624
 20
29.5224
 30
5.94564e-15
  70
    32
  0
VERTEX
  8
0
  5
2038
 10
26.5761
 20
29.5066
 30
5.92638e-15
  70
    32
  0
VERTEX
  8
0
  5
2039
 10
26.4898
 20
29.4912
 30
5.90711e-15
  70
    32
  0
VERTEX
  8
0
  5
203A
 10
26.4034
 20
29.4760
 30
5.88784e-15
  70
    32
  0
VERTEX
  8
0
  5
203B
 10
26.3169
 20
29.4612
 30
5.86856e-15
  70
    32
  0
VERTEX
  8
0
  5
203C
 10
26.2305
 20
29.4466
 30
5.84928e-15
  70
    32
  0
VERTEX
  8
0
  5
203D
 10
26.1439
 20
29.4324
 30
5.82999e-15
  70
    32
  0
VERTEX
  8
0
  5
203E
 10
26.0573
 20
29.4184
 30
5.81069e-15
  70
    32
  0
VERTEX
  8
0
  5
203F
 10
25.9707
 20
29.4048
 30
5.79138e-15
  70
    32
  0
VERTEX
  8
0
  5
2040
 10
25.8840
 20
29.3915
 30
5.77207e-15
  70
    32
  0
VERTEX
  8
0
  5
2041
 10
25.7973
 20
29.3784
 30
5.75274e-15
  70
    32
  0
VERTEX
  8
0
  5
2042
 10
25.7105
 20
29.3657
 30
5.73341e-15
  70
    32
  0
VERTEX
  8
0
  5
2043
 10
25.6237
 20
29.3533
 30
5.71406e-15
  70
    32
  0
VERTEX
  8
0
  5
2044
 10
25.5368
 20
29.3412
 30
5.69470e-15
  70
    32
  0
VERTEX
  8
0
  5
2045
 10
25.4499
 20
29.3293
 30
5.67533e-15
  70
    32
  0
VERTEX
  8
0
  5
2046
 10
25.3630
 20
29.3178
 30
5.65594e-15
  70
    32
  0
VERTEX
  8
0
  5
2047
 10
25.2760
 20
29.3066
 30
5.63654e-15
  70
    32
  0
VERTEX
  8
0
  5
2048
 10
25.1889
 20
29.2957
 30
5.61712e-15
  70
    32
  0
VERTEX
  8
0
  5
2049
 10
25.1019
 20
29.2851
 30
5.59769e-15
  70
    32
  0
VERTEX
  8
0
  5
204A
 10
25.0148
 20
29.2748
 30
5.57824e-15
  70
    32
  0
VERTEX
  8
0
  5
204B
 10
24.9277
 20
29.2649
 30
5.55877e-15
  70
    32
  0
VERTEX
  8
0
  5
204C
 10
24.8405
 20
29.2552
 30
5.53928e-15
  70
    32
  0
VERTEX
  8
0
  5
204D
 10
24.7533
 20
29.2458
 30
5.51977e-15
  70
    32
  0
VERTEX
  8
0
  5
204E
 10
24.6661
 20
29.2367
 30
5.50025e-15
  70
    32
  0
VERTEX
  8
0
  5
204F
 10
24.5788
 20
29.2280
 30
5.48070e-15
  70
    32
  0
VERTEX
  8
0
  5
2050
 10
24.4915
 20
29.2195
 30
5.46113e-15
  70
    32
  0
VERTEX
  8
0
  5
2051
 10
24.4042
 20
29.2114
 30
5.44154e-15
  70
    32
  0
VERTEX
  8
0
  5
2052
 10
24.3168
 20
29.2035
 30
5.42192e-15
  70
    32
  0
VERTEX
  8
0
  5
2053
 10
24.2294
 20
29.1960
 30
5.40228e-15
  70
    32
  0
VERTEX
  8
0
  5
2054
 10
24.1420
 20
29.1887
 30
5.38261e-15
  70
    32
  0
VERTEX
  8
0
  5
2055
 10
24.0546
 20
29.1818
 30
5.36292e-15
  70
    32
  0
VERTEX
  8
0
  5
2056
 10
23.9672
 20
29.1752
 30
5.34320e-15
  70
    32
  0
VERTEX
  8
0
  5
2057
 10
23.8797
 20
29.1689
 30
5.32346e-15
  70
    32
  0
VERTEX
  8
0
  5
2058
 10
23.7922
 20
29.1629
 30
5.30368e-15
  70
    32
  0
VERTEX
  8
0
  5
2059
 10
23.7047
 20
29.1572
 30
5.28388e-15
  70
    32
  0
VERTEX
  8
0
  5
205A
 10
23.6171
 20
29.1518
 30
5.26404e-15
  70
    32
  0
VERTEX
  8
0
  5
205B
 10
23.5296
 20
29.1467
 30
5.24418e-15
  70
    32
  0
VERTEX
  8
0
  5
205C
 10
23.4420
 20
29.1419
 30
5.22428e-15
  70
    32
  0
VERTEX
  8
0
  5
205D
 10
23.3544
 20
29.1374
 30
5.20435e-15
  70
    32
  0
VERTEX
  8
0
  5
205E
 10
23.2668
 20
29.1333
 30
5.18439e-15
  70
    32
  0
VERTEX
  8
0
  5
205F
 10
23.1792
 20
29.1294
 30
5.16440e-15
  70
    32
  0
VERTEX
  8
0
  5
2060
 10
23.0916
 20
29.1259
 30
5.14436e-15
  70
    32
  0
VERTEX
  8
0
  5
2061
 10
23.0039
 20
29.1226
 30
5.12430e-15
  70
    32
  0
VERTEX
  8
0
  5
2062
 10
22.9163
 20
29.1197
 30
5.10420e-15
  70
    32
  0
VERTEX
  8
0
  5
2063
 10
22.8286
 20
29.1171
 30
5.08406e-15
  70
    32
  0
VERTEX
  8
0
  5
2064
 10
22.7410
 20
29.1148
 30
5.06390e-15
  70
    32
  0
VERTEX
  8
0
  5
2065
 10
22.6533
 20
29.1128
 30
5.04387e-15
  70
    32
  0
VERTEX
  8
0
  5
2066
 10
22.5656
 20
29.1111
 30
5.02397e-15
  70
    32
  0
VERTEX
  8
0
  5
2067
 10
22.4779
 20
29.1097
 30
5.00421e-15
  70
    32
  0
VERTEX
  8
0
  5
2068
 10
22.3902
 20
29.1086
 30
4.98457e-15
  70
    32
  0
VERTEX
  8
0
  5
2069
 10
22.3025
 20
29.1078
 30
4.96505e-15
  70
    32
  0
VERTEX
  8
0
  5
206A
 10
22.2148
 20
29.1074
 30
4.94565e-15
  70
    32
  0
VERTEX
  8
0
  5
206B
 10
22.1271
 20
29.1072
 30
4.92636e-15
  70
    32
  0
VERTEX
  8
0
  5
206C
 10
22.0394
 20
29.1074
 30
4.90717e-15
  70
    32
  0
VERTEX
  8
0
  5
206D
 10
21.9517
 20
29.1078
 30
4.88809e-15
  70
    32
  0
VERTEX
  8
0
  5
206E
 10
21.8640
 20
29.1086
 30
4.86910e-15
  70
    32
  0
VERTEX
  8
0
  5
206F
 10
21.7763
 20
29.1097
 30
4.85021e-15
  70
    32
  0
VERTEX
  8
0
  5
2070
 10
21.6886
 20
29.1111
 30
4.83140e-15
  70
    32
  0
VERTEX
  8
0
  5
2071
 10
21.6010
 20
29.1128
 30
4.81267e-15
  70
    32
  0
VERTEX
  8
0
  5
2072
 10
21.5133
 20
29.1148
 30
4.79401e-15
  70
    32
  0
VERTEX
  8
0
  5
2073
 10
21.4256
 20
29.1171
 30
4.77543e-15
  70
    32
  0
VERTEX
  8
0
  5
2074
 10
21.3379
 20
29.1197
 30
4.75691e-15
  70
    32
  0
VERTEX
  8
0
  5
2075
 10
21.2503
 20
29.1226
 30
4.73845e-15
  70
    32
  0
VERTEX
  8
0
  5
2076
 10
21.1626
 20
29.1258
 30
4.72005e-15
  70
    32
  0
VERTEX
  8
0
  5
2077
 10
21.0750
 20
29.1294
 30
4.70170e-15
  70
    32
  0
VERTEX
  8
0
  5
2078
 10
20.9874
 20
29.1332
 30
4.68340e-15
  70
    32
  0
VERTEX
  8
0
  5
2079
 10
20.8998
 20
29.1374
 30
4.66513e-15
  70
    32
  0
VERTEX
  8
0
  5
207A
 10
20.8122
 20
29.1418
 30
4.64690e-15
  70
    32
  0
VERTEX
  8
0
  5
207B
 10
20.7246
 20
29.1466
 30
4.62870e-15
  70
    32
  0
VERTEX
  8
0
  5
207C
 10
20.6371
 20
29.1517
 30
4.61053e-15
  70
    32
  0
VERTEX
  8
0
  5
207D
 10
20.5495
 20
29.1570
 30
4.59238e-15
  70
    32
  0
VERTEX
  8
0
  5
207E
 10
20.4620
 20
29.1627
 30
4.57424e-15
  70
    32
  0
VERTEX
  8
0
  5
207F
 10
20.3745
 20
29.1687
 30
4.55611e-15
  70
    32
  0
VERTEX
  8
0
  5
2080
 10
20.2870
 20
29.1750
 30
4.53799e-15
  70
    32
  0
VERTEX
  8
0
  5
2081
 10
20.1996
 20
29.1816
 30
4.51987e-15
  70
    32
  0
VERTEX
  8
0
  5
2082
 10
20.1121
 20
29.1885
 30
4.50174e-15
  70
    32
  0
VERTEX
  8
0
  5
2083
 10
20.0247
 20
29.1957
 30
4.48360e-15
  70
    32
  0
VERTEX
  8
0
  5
2084
 10
19.9374
 20
29.2033
 30
4.46545e-15
  70
    32
  0
VERTEX
  8
0
  5
2085
 10
19.8500
 20
29.2111
 30
4.44728e-15
  70
    32
  0
VERTEX
  8
0
  5
2086
 10
19.7627
 20
29.2192
 30
4.42908e-15
  70
    32
  0
VERTEX
  8
0
  5
2087
 10
19.6754
 20
29.2277
 30
4.41085e-15
  70
    32
  0
VERTEX
  8
0
  5
2088
 10
19.5881
 20
29.2364
 30
4.39259e-15
  70
    32
  0
VERTEX
  8
0
  5
2089
 10
19.5009
 20
29.2455
 30
4.37428e-15
  70
    32
  0
VERTEX
  8
0
  5
208A
 10
19.4137
 20
29.2548
 30
4.35593e-15
  70
    32
  0
VERTEX
  8
0
  5
208B
 10
19.3265
 20
29.2645
 30
4.33753e-15
  70
    32
  0
VERTEX
  8
0
  5
208C
 10
19.2394
 20
29.2744
 30
4.31908e-15
  70
    32
  0
VERTEX
  8
0
  5
208D
 10
19.1523
 20
29.2847
 30
4.30057e-15
  70
    32
  0
VERTEX
  8
0
  5
208E
 10
19.0652
 20
29.2953
 30
4.28198e-15
  70
    32
  0
VERTEX
  8
0
  5
208F
 10
18.9782
 20
29.3062
 30
4.26333e-15
  70
    32
  0
VERTEX
  8
0
  5
2090
 10
18.8912
 20
29.3174
 30
4.24461e-15
  70
    32
  0
VERTEX
  8
0
  5
2091
 10
18.8042
 20
29.3289
 30
4.22580e-15
  70
    32
  0
VERTEX
  8
0
  5
2092
 10
18.7173
 20
29.3407
 30
4.20691e-15
  70
    32
  0
VERTEX
  8
0
  5
2093
 10
18.6304
 20
29.3528
 30
4.18792e-15
  70
    32
  0
VERTEX
  8
0
  5
2094
 10
18.5436
 20
29.3652
 30
4.16884e-15
  70
    32
  0
VERTEX
  8
0
  5
2095
 10
18.4568
 20
29.3779
 30
4.14966e-15
  70
    32
  0
VERTEX
  8
0
  5
2096
 10
18.3701
 20
29.3909
 30
4.13038e-15
  70
    32
  0
VERTEX
  8
0
  5
2097
 10
18.2834
 20
29.4042
 30
4.11098e-15
  70
    32
  0
VERTEX
  8
0
  5
2098
 10
18.1968
 20
29.4179
 30
4.09147e-15
  70
    32
  0
VERTEX
  8
0
  5
2099
 10
18.1102
 20
29.4318
 30
4.07183e-15
  70
    32
  0
VERTEX
  8
0
  5
209A
 10
18.0236
 20
29.4461
 30
4.05207e-15
  70
    32
  0
VERTEX
  8
0
  5
209B
 10
17.9371
 20
29.4606
 30
4.03218e-15
  70
    32
  0
VERTEX
  8
0
  5
209C
 10
17.8507
 20
29.4754
 30
4.01222e-15
  70
    32
  0
VERTEX
  8
0
  5
209D
 10
17.7643
 20
29.4906
 30
3.99228e-15
  70
    32
  0
VERTEX
  8
0
  5
209E
 10
17.6780
 20
29.5061
 30
3.97236e-15
  70
    32
  0
VERTEX
  8
0
  5
209F
 10
17.5917
 20
29.5218
 30
3.95248e-15
  70
    32
  0
VERTEX
  8
0
  5
20A0
 10
17.5055
 20
29.5379
 30
3.93263e-15
  70
    32
  0
VERTEX
  8
0
  5
20A1
 10
17.4193
 20
29.5542
 30
3.91280e-15
  70
    32
  0
VERTEX
  8
0
  5
20A2
 10
17.3332
 20
29.5709
 30
3.89301e-15
  70
    32
  0
VERTEX
  8
0
  5
20A3
 10
17.2472
 20
29.5879
 30
3.87324e-15
  70
    32
  0
VERTEX
  8
0
  5
20A4
 10
17.1612
 20
29.6052
 30
3.85350e-15
  70
    32
  0
VERTEX
  8
0
  5
20A5
 10
17.0753
 20
29.6228
 30
3.83379e-15
  70
    32
  0
VERTEX
  8
0
  5
20A6
 10
16.9894
 20
29.6406
 30
3.81412e-15
  70
    32
  0
VERTEX
  8
0
  5
20A7
 10
16.9036
 20
29.6588
 30
3.79447e-15
  70
    32
  0
VERTEX
  8
0
  5
20A8
 10
16.8179
 20
29.6773
 30
3.77485e-15
  70
    32
  0
VERTEX
  8
0
  5
20A9
 10
16.7322
 20
29.6961
 30
3.75527e-15
  70
    32
  0
VERTEX
  8
0
  5
20AA
 10
16.6466
 20
29.7152
 30
3.73571e-15
  70
    32
  0
VERTEX
  8
0
  5
20AB
 10
16.5611
 20
29.7346
 30
3.71619e-15
  70
    32
  0
VERTEX
  8
0
  5
20AC
 10
16.4756
 20
29.7542
 30
3.69670e-15
  70
    32
  0
VERTEX
  8
0
  5
20AD
 10
16.3902
 20
29.7742
 30
3.67724e-15
  70
    32
  0
VERTEX
  8
0
  5
20AE
 10
16.3049
 20
29.7945
 30
3.65781e-15
  70
    32
  0
VERTEX
  8
0
  5
20AF
 10
16.2196
 20
29.8151
 30
3.63841e-15
  70
    32
  0
VERTEX
  8
0
  5
20B0
 10
16.1344
 20
29.8360
 30
3.61905e-15
  70
    32
  0
VERTEX
  8
0
  5
20B1
 10
16.0493
 20
29.8572
 30
3.59972e-15
  70
    32
  0
VERTEX
  8
0
  5
20B2
 10
15.9643
 20
29.8786
 30
3.58042e-15
  70
    32
  0
VERTEX
  8
0
  5
20B3
 10
15.8793
 20
29.9004
 30
3.56116e-15
  70
    32
  0
VERTEX
  8
0
  5
20B4
 10
15.7945
 20
29.9225
 30
3.54193e-15
  70
    32
  0
VERTEX
  8
0
  5
20B5
 10
15.7097
 20
29.9449
 30
3.52273e-15
  70
    32
  0
VERTEX
  8
0
  5
20B6
 10
15.6249
 20
29.9675
 30
3.50356e-15
  70
    32
  0
VERTEX
  8
0
  5
20B7
 10
15.5403
 20
29.9905
 30
3.48443e-15
  70
    32
  0
VERTEX
  8
0
  5
20B8
 10
15.4557
 20
30.0138
 30
3.46534e-15
  70
    32
  0
VERTEX
  8
0
  5
20B9
 10
15.3713
 20
30.0373
 30
3.44628e-15
  70
    32
  0
VERTEX
  8
0
  5
20BA
 10
15.2869
 20
30.0612
 30
3.42725e-15
  70
    32
  0
VERTEX
  8
0
  5
20BB
 10
15.2026
 20
30.0853
 30
3.40826e-15
  70
    32
  0
VERTEX
  8
0
  5
20BC
 10
15.1183
 20
30.1098
 30
3.38930e-15
  70
    32
  0
VERTEX
  8
0
  5
20BD
 10
15.0342
 20
30.1345
 30
3.37038e-15
  70
    32
  0
VERTEX
  8
0
  5
20BE
 10
14.9501
 20
30.1595
 30
3.35149e-15
  70
    32
  0
VERTEX
  8
0
  5
20BF
 10
14.8662
 20
30.1849
 30
3.33264e-15
  70
    32
  0
VERTEX
  8
0
  5
20C0
 10
14.7823
 20
30.2105
 30
3.31383e-15
  70
    32
  0
VERTEX
  8
0
  5
20C1
 10
14.6985
 20
30.2364
 30
3.29505e-15
  70
    32
  0
VERTEX
  8
0
  5
20C2
 10
14.6148
 20
30.2626
 30
3.27631e-15
  70
    32
  0
VERTEX
  8
0
  5
20C3
 10
14.5312
 20
30.2891
 30
3.25761e-15
  70
    32
  0
VERTEX
  8
0
  5
20C4
 10
14.4477
 20
30.3159
 30
3.23894e-15
  70
    32
  0
VERTEX
  8
0
  5
20C5
 10
14.3643
 20
30.3430
 30
3.22031e-15
  70
    32
  0
VERTEX
  8
0
  5
20C6
 10
14.2810
 20
30.3703
 30
3.20172e-15
  70
    32
  0
VERTEX
  8
0
  5
20C7
 10
14.1977
 20
30.3980
 30
3.18316e-15
  70
    32
  0
VERTEX
  8
0
  5
20C8
 10
14.1146
 20
30.4260
 30
3.16464e-15
  70
    32
  0
VERTEX
  8
0
  5
20C9
 10
14.0316
 20
30.4542
 30
3.14616e-15
  70
    32
  0
VERTEX
  8
0
  5
20CA
 10
13.9486
 20
30.4827
 30
3.12772e-15
  70
    32
  0
VERTEX
  8
0
  5
20CB
 10
13.8658
 20
30.5116
 30
3.10932e-15
  70
    32
  0
VERTEX
  8
0
  5
20CC
 10
13.7831
 20
30.5407
 30
3.09096e-15
  70
    32
  0
VERTEX
  8
0
  5
20CD
 10
13.7005
 20
30.5701
 30
3.07264e-15
  70
    32
  0
VERTEX
  8
0
  5
20CE
 10
13.6179
 20
30.5998
 30
3.05435e-15
  70
    32
  0
VERTEX
  8
0
  5
20CF
 10
13.5355
 20
30.6297
 30
3.03611e-15
  70
    32
  0
VERTEX
  8
0
  5
20D0
 10
13.4532
 20
30.6600
 30
3.01790e-15
  70
    32
  0
VERTEX
  8
0
  5
20D1
 10
13.3710
 20
30.6906
 30
2.99973e-15
  70
    32
  0
VERTEX
  8
0
  5
20D2
 10
13.2889
 20
30.7214
 30
2.98161e-15
  70
    32
  0
VERTEX
  8
0
  5
20D3
 10
13.2069
 20
30.7526
 30
2.96352e-15
  70
    32
  0
VERTEX
  8
0
  5
20D4
 10
13.1250
 20
30.7840
 30
2.94548e-15
  70
    32
  0
VERTEX
  8
0
  5
20D5
 10
13.0433
 20
30.8157
 30
2.92748e-15
  70
    32
  0
VERTEX
  8
0
  5
20D6
 10
12.9616
 20
30.8477
 30
2.90951e-15
  70
    32
  0
VERTEX
  8
0
  5
20D7
 10
12.8801
 20
30.8799
 30
2.89159e-15
  70
    32
  0
VERTEX
  8
0
  5
20D8
 10
12.7986
 20
30.9125
 30
2.87372e-15
  70
    32
  0
VERTEX
  8
0
  5
20D9
 10
12.7173
 20
30.9454
 30
2.85588e-15
  70
    32
  0
VERTEX
  8
0
  5
20DA
 10
12.6361
 20
30.9785
 30
2.83808e-15
  70
    32
  0
VERTEX
  8
0
  5
20DB
 10
12.5550
 20
31.0119
 30
2.82033e-15
  70
    32
  0
VERTEX
  8
0
  5
20DC
 10
12.4741
 20
31.0456
 30
2.80262e-15
  70
    32
  0
VERTEX
  8
0
  5
20DD
 10
12.3932
 20
31.0796
 30
2.78495e-15
  70
    32
  0
VERTEX
  8
0
  5
20DE
 10
12.3125
 20
31.1139
 30
2.76733e-15
  70
    32
  0
VERTEX
  8
0
  5
20DF
 10
12.2319
 20
31.1484
 30
2.74974e-15
  70
    32
  0
VERTEX
  8
0
  5
20E0
 10
12.1514
 20
31.1833
 30
2.73221e-15
  70
    32
  0
VERTEX
  8
0
  5
20E1
 10
12.0710
 20
31.2184
 30
2.71471e-15
  70
    32
  0
VERTEX
  8
0
  5
20E2
 10
11.9908
 20
31.2538
 30
2.69726e-15
  70
    32
  0
VERTEX
  8
0
  5
20E3
 10
11.9107
 20
31.2895
 30
2.67985e-15
  70
    32
  0
VERTEX
  8
0
  5
20E4
 10
11.8307
 20
31.3254
 30
2.66249e-15
  70
    32
  0
VERTEX
  8
0
  5
20E5
 10
11.7508
 20
31.3617
 30
2.64517e-15
  70
    32
  0
VERTEX
  8
0
  5
20E6
 10
11.6711
 20
31.3982
 30
2.62790e-15
  70
    32
  0
VERTEX
  8
0
  5
20E7
 10
11.5915
 20
31.4350
 30
2.61067e-15
  70
    32
  0
VERTEX
  8
0
  5
20E8
 10
11.5120
 20
31.4721
 30
2.59349e-15
  70
    32
  0
VERTEX
  8
0
  5
20E9
 10
11.4327
 20
31.5095
 30
2.57635e-15
  70
    32
  0
VERTEX
  8
0
  5
20EA
 10
11.3535
 20
31.5471
 30
2.55926e-15
  70
    32
  0
VERTEX
  8
0
  5
20EB
 10
11.2744
 20
31.5851
 30
2.54220e-15
  70
    32
  0
VERTEX
  8
0
  5
20EC
 10
11.1955
 20
31.6233
 30
2.52503e-15
  70
    32
  0
VERTEX
  8
0
  5
20ED
 10
11.1167
 20
31.6618
 30
2.50770e-15
  70
    32
  0
VERTEX
  8
0
  5
20EE
 10
11.0380
 20
31.7005
 30
2.49024e-15
  70
    32
  0
VERTEX
  8
0
  5
20EF
 10
10.9594
 20
31.7396
 30
2.47264e-15
  70
    32
  0
VERTEX
  8
0
  5
20F0
 10
10.8810
 20
31.7789
 30
2.45492e-15
  70
    32
  0
VERTEX
  8
0
  5
20F1
 10
10.8028
 20
31.8185
 30
2.43709e-15
  70
    32
  0
VERTEX
  8
0
  5
20F2
 10
10.7247
 20
31.8583
 30
2.41915e-15
  70
    32
  0
VERTEX
  8
0
  5
20F3
 10
10.6467
 20
31.8985
 30
2.40112e-15
  70
    32
  0
VERTEX
  8
0
  5
20F4
 10
10.5688
 20
31.9389
 30
2.38301e-15
  70
    32
  0
VERTEX
  8
0
  5
20F5
 10
10.4911
 20
31.9796
 30
2.36481e-15
  70
    32
  0
VERTEX
  8
0
  5
20F6
 10
10.4136
 20
32.0205
 30
2.34655e-15
  70
    32
  0
VERTEX
  8
0
  5
20F7
 10
10.3362
 20
32.0617
 30
2.32823e-15
  70
    32
  0
VERTEX
  8
0
  5
20F8
 10
10.2589
 20
32.1032
 30
2.30986e-15
  70
    32
  0
VERTEX
  8
0
  5
20F9
 10
10.1818
 20
32.1450
 30
2.29145e-15
  70
    32
  0
VERTEX
  8
0
  5
20FA
 10
10.1048
 20
32.1871
 30
2.27300e-15
  70
    32
  0
VERTEX
  8
0
  5
20FB
 10
10.0280
 20
32.2294
 30
2.25453e-15
  70
    32
  0
VERTEX
  8
0
  5
20FC
 10
9.95130
 20
32.2719
 30
2.23605e-15
  70
    32
  0
VERTEX
  8
0
  5
20FD
 10
9.87478
 20
32.3148
 30
2.21756e-15
  70
    32
  0
VERTEX
  8
0
  5
20FE
 10
9.79840
 20
32.3579
 30
2.19908e-15
  70
    32
  0
VERTEX
  8
0
  5
20FF
 10
9.72217
 20
32.4013
 30
2.18061e-15
  70
    32
  0
VERTEX
  8
0
  5
2100
 10
9.64610
 20
32.4449
 30
2.16216e-15
  70
    32
  0
VERTEX
  8
0
  5
2101
 10
9.57018
 20
32.4889
 30
2.14374e-15
  70
    32
  0
VERTEX
  8
0
  5
2102
 10
9.49441
 20
32.5330
 30
2.12536e-15
  70
    32
  0
VERTEX
  8
0
  5
2103
 10
9.41880
 20
32.5775
 30
2.10703e-15
  70
    32
  0
VERTEX
  8
0
  5
2104
 10
9.34335
 20
32.6222
 30
2.08875e-15
  70
    32
  0
VERTEX
  8
0
  5
2105
 10
9.26805
 20
32.6672
 30
2.07055e-15
  70
    32
  0
VERTEX
  8
0
  5
2106
 10
9.19291
 20
32.7124
 30
2.05241e-15
  70
    32
  0
VERTEX
  8
0
  5
2107
 10
9.11793
 20
32.7579
 30
2.03437e-15
  70
    32
  0
VERTEX
  8
0
  5
2108
 10
9.04311
 20
32.8037
 30
2.01641e-15
  70
    32
  0
VERTEX
  8
0
  5
2109
 10
8.96845
 20
32.8497
 30
1.99856e-15
  70
    32
  0
VERTEX
  8
0
  5
210A
 10
8.89395
 20
32.8960
 30
1.98082e-15
  70
    32
  0
VERTEX
  8
0
  5
210B
 10
8.81962
 20
32.9425
 30
1.96320e-15
  70
    32
  0
VERTEX
  8
0
  5
210C
 10
8.74544
 20
32.9894
 30
1.94571e-15
  70
    32
  0
VERTEX
  8
0
  5
210D
 10
8.67144
 20
33.0364
 30
1.92836e-15
  70
    32
  0
VERTEX
  8
0
  5
210E
 10
8.59760
 20
33.0838
 30
1.91116e-15
  70
    32
  0
VERTEX
  8
0
  5
210F
 10
8.52392
 20
33.1313
 30
1.89411e-15
  70
    32
  0
VERTEX
  8
0
  5
2110
 10
8.45042
 20
33.1792
 30
1.87722e-15
  70
    32
  0
VERTEX
  8
0
  5
2111
 10
8.37708
 20
33.2273
 30
1.86052e-15
  70
    32
  0
VERTEX
  8
0
  5
2112
 10
8.30391
 20
33.2757
 30
1.84399e-15
  70
    32
  0
VERTEX
  8
0
  5
2113
 10
8.23091
 20
33.3243
 30
1.82766e-15
  70
    32
  0
VERTEX
  8
0
  5
2114
 10
8.15808
 20
33.3732
 30
1.81152e-15
  70
    32
  0
VERTEX
  8
0
  5
2115
 10
8.08543
 20
33.4223
 30
1.79560e-15
  70
    32
  0
VERTEX
  8
0
  5
2116
 10
8.01294
 20
33.4717
 30
1.77990e-15
  70
    32
  0
VERTEX
  8
0
  5
2117
 10
7.94064
 20
33.5213
 30
1.76439e-15
  70
    32
  0
VERTEX
  8
0
  5
2118
 10
7.86851
 20
33.5712
 30
1.74895e-15
  70
    32
  0
VERTEX
  8
0
  5
2119
 10
7.79655
 20
33.6214
 30
1.73356e-15
  70
    32
  0
VERTEX
  8
0
  5
211A
 10
7.72478
 20
33.6718
 30
1.71822e-15
  70
    32
  0
VERTEX
  8
0
  5
211B
 10
7.65318
 20
33.7224
 30
1.70292e-15
  70
    32
  0
VERTEX
  8
0
  5
211C
 10
7.58176
 20
33.7733
 30
1.68768e-15
  70
    32
  0
VERTEX
  8
0
  5
211D
 10
7.51052
 20
33.8245
 30
1.67249e-15
  70
    32
  0
VERTEX
  8
0
  5
211E
 10
7.43947
 20
33.8759
 30
1.65735e-15
  70
    32
  0
VERTEX
  8
0
  5
211F
 10
7.36859
 20
33.9275
 30
1.64225e-15
  70
    32
  0
VERTEX
  8
0
  5
2120
 10
7.29790
 20
33.9795
 30
1.62720e-15
  70
    32
  0
VERTEX
  8
0
  5
2121
 10
7.22739
 20
34.0316
 30
1.61220e-15
  70
    32
  0
VERTEX
  8
0
  5
2122
 10
7.15707
 20
34.0840
 30
1.59724e-15
  70
    32
  0
VERTEX
  8
0
  5
2123
 10
7.08693
 20
34.1367
 30
1.58233e-15
  70
    32
  0
VERTEX
  8
0
  5
2124
 10
7.01698
 20
34.1896
 30
1.56746e-15
  70
    32
  0
VERTEX
  8
0
  5
2125
 10
6.94721
 20
34.2427
 30
1.55263e-15
  70
    32
  0
VERTEX
  8
0
  5
2126
 10
6.87763
 20
34.2961
 30
1.53785e-15
  70
    32
  0
VERTEX
  8
0
  5
2127
 10
6.80824
 20
34.3497
 30
1.52311e-15
  70
    32
  0
VERTEX
  8
0
  5
2128
 10
6.73904
 20
34.4036
 30
1.50841e-15
  70
    32
  0
VERTEX
  8
0
  5
2129
 10
6.67002
 20
34.4577
 30
1.49375e-15
  70
    32
  0
VERTEX
  8
0
  5
212A
 10
6.60120
 20
34.5121
 30
1.47913e-15
  70
    32
  0
VERTEX
  8
0
  5
212B
 10
6.53257
 20
34.5667
 30
1.46455e-15
  70
    32
  0
VERTEX
  8
0
  5
212C
 10
6.46413
 20
34.6215
 30
1.45001e-15
  70
    32
  0
VERTEX
  8
0
  5
212D
 10
6.39588
 20
34.6766
 30
1.43551e-15
  70
    32
  0
VERTEX
  8
0
  5
212E
 10
6.32783
 20
34.7319
 30
1.42104e-15
  70
    32
  0
VERTEX
  8
0
  5
212F
 10
6.25997
 20
34.7875
 30
1.40661e-15
  70
    32
  0
VERTEX
  8
0
  5
2130
 10
6.19231
 20
34.8433
 30
1.39222e-15
  70
    32
  0
VERTEX
  8
0
  5
2131
 10
6.12484
 20
34.8993
 30
1.37786e-15
  70
    32
  0
VERTEX
  8
0
  5
2132
 10
6.05757
 20
34.9556
 30
1.36354e-15
  70
    32
  0
VERTEX
  8
0
  5
2133
 10
5.99049
 20
35.0121
 30
1.34925e-15
  70
    32
  0
VERTEX
  8
0
  5
2134
 10
5.92362
 20
35.0688
 30
1.33499e-15
  70
    32
  0
VERTEX
  8
0
  5
2135
 10
5.85694
 20
35.1258
 30
1.32077e-15
  70
    32
  0
VERTEX
  8
0
  5
2136
 10
5.79047
 20
35.1830
 30
1.30658e-15
  70
    32
  0
VERTEX
  8
0
  5
2137
 10
5.72419
 20
35.2404
 30
1.29242e-15
  70
    32
  0
VERTEX
  8
0
  5
2138
 10
5.65811
 20
35.2981
 30
1.27829e-15
  70
    32
  0
VERTEX
  8
0
  5
2139
 10
5.59224
 20
35.3560
 30
1.26419e-15
  70
    32
  0
VERTEX
  8
0
  5
213A
 10
5.52657
 20
35.4141
 30
1.25011e-15
  70
    32
  0
VERTEX
  8
0
  5
213B
 10
5.46110
 20
35.4725
 30
1.23607e-15
  70
    32
  0
VERTEX
  8
0
  5
213C
 10
5.39584
 20
35.5311
 30
1.22206e-15
  70
    32
  0
VERTEX
  8
0
  5
213D
 10
5.33078
 20
35.5899
 30
1.20807e-15
  70
    32
  0
VERTEX
  8
0
  5
213E
 10
5.26593
 20
35.6489
 30
1.19410e-15
  70
    32
  0
VERTEX
  8
0
  5
213F
 10
5.20129
 20
35.7082
 30
1.18017e-15
  70
    32
  0
VERTEX
  8
0
  5
2140
 10
5.13685
 20
35.7677
 30
1.16626e-15
  70
    32
  0
VERTEX
  8
0
  5
2141
 10
5.07262
 20
35.8274
 30
1.15237e-15
  70
    32
  0
VERTEX
  8
0
  5
2142
 10
5.00860
 20
35.8873
 30
1.13851e-15
  70
    32
  0
VERTEX
  8
0
  5
2143
 10
4.94479
 20
35.9475
 30
1.12466e-15
  70
    32
  0
VERTEX
  8
0
  5
2144
 10
4.88119
 20
36.0079
 30
1.11085e-15
  70
    32
  0
VERTEX
  8
0
  5
2145
 10
4.81780
 20
36.0685
 30
1.09705e-15
  70
    32
  0
VERTEX
  8
0
  5
2146
 10
4.75463
 20
36.1293
 30
1.08327e-15
  70
    32
  0
VERTEX
  8
0
  5
2147
 10
4.69166
 20
36.1904
 30
1.06952e-15
  70
    32
  0
VERTEX
  8
0
  5
2148
 10
4.62891
 20
36.2516
 30
1.05578e-15
  70
    32
  0
VERTEX
  8
0
  5
2149
 10
4.56638
 20
36.3131
 30
1.04206e-15
  70
    32
  0
VERTEX
  8
0
  5
214A
 10
4.50406
 20
36.3748
 30
1.02836e-15
  70
    32
  0
VERTEX
  8
0
  5
214B
 10
4.44195
 20
36.4367
 30
1.01468e-15
  70
    32
  0
VERTEX
  8
0
  5
214C
 10
4.38007
 20
36.4989
 30
1.00102e-15
  70
    32
  0
VERTEX
  8
0
  5
214D
 10
4.31840
 20
36.5612
 30
9.87368e-16
  70
    32
  0
VERTEX
  8
0
  5
214E
 10
4.25694
 20
36.6238
 30
9.73734e-16
  70
    32
  0
VERTEX
  8
0
  5
214F
 10
4.19571
 20
36.6866
 30
9.60115e-16
  70
    32
  0
VERTEX
  8
0
  5
2150
 10
4.13470
 20
36.7496
 30
9.46511e-16
  70
    32
  0
VERTEX
  8
0
  5
2151
 10
4.07391
 20
36.8128
 30
9.32919e-16
  70
    32
  0
VERTEX
  8
0
  5
2152
 10
4.01334
 20
36.8762
 30
9.19340e-16
  70
    32
  0
VERTEX
  8
0
  5
2153
 10
3.95299
 20
36.9399
 30
9.05774e-16
  70
    32
  0
VERTEX
  8
0
  5
2154
 10
3.89286
 20
37.0037
 30
8.92218e-16
  70
    32
  0
VERTEX
  8
0
  5
2155
 10
3.83296
 20
37.0678
 30
8.78673e-16
  70
    32
  0
VERTEX
  8
0
  5
2156
 10
3.77328
 20
37.1320
 30
8.65138e-16
  70
    32
  0
VERTEX
  8
0
  5
2157
 10
3.71383
 20
37.1965
 30
8.51613e-16
  70
    32
  0
VERTEX
  8
0
  5
2158
 10
3.65461
 20
37.2612
 30
8.38096e-16
  70
    32
  0
VERTEX
  8
0
  5
2159
 10
3.59561
 20
37.3261
 30
8.24587e-16
  70
    32
  0
VERTEX
  8
0
  5
215A
 10
3.53684
 20
37.3912
 30
8.11085e-16
  70
    32
  0
VERTEX
  8
0
  5
215B
 10
3.47829
 20
37.4565
 30
7.97589e-16
  70
    32
  0
VERTEX
  8
0
  5
215C
 10
3.41998
 20
37.5220
 30
7.84100e-16
  70
    32
  0
VERTEX
  8
0
  5
215D
 10
3.36190
 20
37.5877
 30
7.70615e-16
  70
    32
  0
VERTEX
  8
0
  5
215E
 10
3.30404
 20
37.6536
 30
7.57135e-16
  70
    32
  0
VERTEX
  8
0
  5
215F
 10
3.24642
 20
37.7197
 30
7.43659e-16
  70
    32
  0
VERTEX
  8
0
  5
2160
 10
3.18903
 20
37.7860
 30
7.30186e-16
  70
    32
  0
VERTEX
  8
0
  5
2161
 10
3.13187
 20
37.8526
 30
7.16716e-16
  70
    32
  0
VERTEX
  8
0
  5
2162
 10
3.07495
 20
37.9193
 30
7.03247e-16
  70
    32
  0
VERTEX
  8
0
  5
2163
 10
3.01826
 20
37.9862
 30
6.89779e-16
  70
    32
  0
VERTEX
  8
0
  5
2164
 10
2.96181
 20
38.0533
 30
6.76312e-16
  70
    32
  0
VERTEX
  8
0
  5
2165
 10
2.90559
 20
38.1206
 30
6.62845e-16
  70
    32
  0
VERTEX
  8
0
  5
2166
 10
2.84962
 20
38.1881
 30
6.49376e-16
  70
    32
  0
VERTEX
  8
0
  5
2167
 10
2.79387
 20
38.2558
 30
6.35906e-16
  70
    32
  0
VERTEX
  8
0
  5
2168
 10
2.73837
 20
38.3238
 30
6.22433e-16
  70
    32
  0
VERTEX
  8
0
  5
2169
 10
2.68311
 20
38.3919
 30
6.08958e-16
  70
    32
  0
VERTEX
  8
0
  5
216A
 10
2.62808
 20
38.4601
 30
5.95478e-16
  70
    32
  0
VERTEX
  8
0
  5
216B
 10
2.57330
 20
38.5286
 30
5.81995e-16
  70
    32
  0
VERTEX
  8
0
  5
216C
 10
2.51876
 20
38.5973
 30
5.68506e-16
  70
    32
  0
VERTEX
  8
0
  5
216D
 10
2.46446
 20
38.6662
 30
5.55011e-16
  70
    32
  0
VERTEX
  8
0
  5
216E
 10
2.41040
 20
38.7353
 30
5.41510e-16
  70
    32
  0
VERTEX
  8
0
  5
216F
 10
2.35659
 20
38.8045
 30
5.28002e-16
  70
    32
  0
VERTEX
  8
0
  5
2170
 10
2.30302
 20
38.8740
 30
5.14486e-16
  70
    32
  0
VERTEX
  8
0
  5
2171
 10
2.24970
 20
38.9436
 30
5.00962e-16
  70
    32
  0
VERTEX
  8
0
  5
2172
 10
2.19662
 20
39.0134
 30
4.87428e-16
  70
    32
  0
VERTEX
  8
0
  5
2173
 10
2.14379
 20
39.0834
 30
4.73941e-16
  70
    32
  0
VERTEX
  8
0
  5
2174
 10
2.09121
 20
39.1536
 30
4.60580e-16
  70
    32
  0
VERTEX
  8
0
  5
2175
 10
2.03887
 20
39.2240
 30
4.47346e-16
  70
    32
  0
VERTEX
  8
0
  5
2176
 10
1.98678
 20
39.2946
 30
4.34236e-16
  70
    32
  0
VERTEX
  8
0
  5
2177
 10
1.93495
 20
39.3653
 30
4.21250e-16
  70
    32
  0
VERTEX
  8
0
  5
2178
 10
1.88336
 20
39.4362
 30
4.08386e-16
  70
    32
  0
VERTEX
  8
0
  5
2179
 10
1.83202
 20
39.5074
 30
3.95643e-16
  70
    32
  0
VERTEX
  8
0
  5
217A
 10
1.78093
 20
39.5787
 30
3.83019e-16
  70
    32
  0
VERTEX
  8
0
  5
217B
 10
1.73009
 20
39.6501
 30
3.70514e-16
  70
    32
  0
VERTEX
  8
0
  5
217C
 10
1.67950
 20
39.7218
 30
3.58126e-16
  70
    32
  0
VERTEX
  8
0
  5
217D
 10
1.62917
 20
39.7936
 30
3.45854e-16
  70
    32
  0
VERTEX
  8
0
  5
217E
 10
1.57908
 20
39.8656
 30
3.33696e-16
  70
    32
  0
VERTEX
  8
0
  5
217F
 10
1.52925
 20
39.9378
 30
3.21652e-16
  70
    32
  0
VERTEX
  8
0
  5
2180
 10
1.47968
 20
40.0101
 30
3.09719e-16
  70
    32
  0
VERTEX
  8
0
  5
2181
 10
1.43036
 20
40.0826
 30
2.97897e-16
  70
    32
  0
VERTEX
  8
0
  5
2182
 10
1.38129
 20
40.1553
 30
2.86184e-16
  70
    32
  0
VERTEX
  8
0
  5
2183
 10
1.33248
 20
40.2282
 30
2.74579e-16
  70
    32
  0
VERTEX
  8
0
  5
2184
 10
1.28392
 20
40.3012
 30
2.63081e-16
  70
    32
  0
VERTEX
  8
0
  5
2185
 10
1.23562
 20
40.3745
 30
2.51689e-16
  70
    32
  0
VERTEX
  8
0
  5
2186
 10
1.18758
 20
40.4478
 30
2.40400e-16
  70
    32
  0
VERTEX
  8
0
  5
2187
 10
1.13979
 20
40.5214
 30
2.29215e-16
  70
    32
  0
VERTEX
  8
0
  5
2188
 10
1.09226
 20
40.5951
 30
2.18131e-16
  70
    32
  0
VERTEX
  8
0
  5
2189
 10
1.04499
 20
40.6690
 30
2.07147e-16
  70
    32
  0
VERTEX
  8
0
  5
218A
 10
0.997983
 20
40.7430
 30
1.96263e-16
  70
    32
  0
VERTEX
  8
0
  5
218B
 10
0.951233
 20
40.8172
 30
1.85476e-16
  70
    32
  0
VERTEX
  8
0
  5
218C
 10
0.904742
 20
40.8916
 30
1.74785e-16
  70
    32
  0
VERTEX
  8
0
  5
218D
 10
0.858513
 20
40.9661
 30
1.64190e-16
  70
    32
  0
VERTEX
  8
0
  5
218E
 10
0.812545
 20
41.0408
 30
1.53688e-16
  70
    32
  0
VERTEX
  8
0
  5
218F
 10
0.766838
 20
41.1157
 30
1.43279e-16
  70
    32
  0
VERTEX
  8
0
  5
2190
 10
0.721394
 20
41.1907
 30
1.32961e-16
  70
    32
  0
VERTEX
  8
0
  5
2191
 10
0.676213
 20
41.2659
 30
1.22734e-16
  70
    32
  0
VERTEX
  8
0
  5
2192
 10
0.631296
 20
41.3412
 30
1.12595e-16
  70
    32
  0
VERTEX
  8
0
  5
2193
 10
0.586642
 20
41.4167
 30
1.02543e-16
  70
    32
  0
VERTEX
  8
0
  5
2194
 10
0.542253
 20
41.4923
 30
9.25771e-17
  70
    32
  0
VERTEX
  8
0
  5
2195
 10
0.498130
 20
41.5681
 30
8.26963e-17
  70
    32
  0
VERTEX
  8
0
  5
2196
 10
0.454272
 20
41.6441
 30
7.28990e-17
  70
    32
  0
VERTEX
  8
0
  5
2197
 10
0.410680
 20
41.7202
 30
6.31839e-17
  70
    32
  0
VERTEX
  8
0
  5
2198
 10
0.367355
 20
41.7964
 30
5.35497e-17
  70
    32
  0
VERTEX
  8
0
  5
2199
 10
0.324298
 20
41.8728
 30
4.39952e-17
  70
    32
  0
VERTEX
  8
0
  5
219A
 10
0.281508
 20
41.9494
 30
3.45191e-17
  70
    32
  0
VERTEX
  8
0
  5
219B
 10
0.238987
 20
42.0261
 30
2.51200e-17
  70
    32
  0
VERTEX
  8
0
  5
219C
 10
0.196735
 20
42.1029
 30
1.57966e-17
  70
    32
  0
VERTEX
  8
0
  5
219D
 10
0.154752
 20
42.1799
 30
6.54779e-18
  70
    32
  0
VERTEX
  8
0
  5
219E
 10
0.113040
 20
42.2571
 30
-2.62785e-18
  70
    32
  0
VERTEX
  8
0
  5
219F
 10
0.0715983
 20
42.3344
 30
-1.17316e-17
  70
    32
  0
VERTEX
  8
0
  5
21A0
 10
0.0304278
 20
42.4118
 30
-2.07647e-17
  70
    32
  0
VERTEX
  8
0
  5
21A1
 10
-0.0104708
 20
42.4894
 30
-2.97285e-17
  70
    32
  0
VERTEX
  8
0
  5
21A2
 10
-0.0510972
 20
42.5671
 30
-3.86243e-17
  70
    32
  0
VERTEX
  8
0
  5
21A3
 10
-0.0914506
 20
42.6450
 30
-4.74533e-17
  70
    32
  0
VERTEX
  8
0
  5
21A4
 10
-0.131531
 20
42.7230
 30
-5.62169e-17
  70
    32
  0
VERTEX
  8
0
  5
21A5
 10
-0.171337
 20
42.8012
 30
-6.49163e-17
  70
    32
  0
VERTEX
  8
0
  5
21A6
 10
-0.210868
 20
42.8794
 30
-7.35529e-17
  70
    32
  0
VERTEX
  8
0
  5
21A7
 10
-0.250124
 20
42.9579
 30
-8.21278e-17
  70
    32
  0
VERTEX
  8
0
  5
21A8
 10
-0.289105
 20
43.0364
 30
-9.06425e-17
  70
    32
  0
VERTEX
  8
0
  5
21A9
 10
-0.327810
 20
43.1151
 30
-9.90981e-17
  70
    32
  0
VERTEX
  8
0
  5
21AA
 10
-0.366237
 20
43.1940
 30
-1.07496e-16
  70
    32
  0
VERTEX
  8
0
  5
21AB
 10
-0.404388
 20
43.2729
 30
-1.15838e-16
  70
    32
  0
VERTEX
  8
0
  5
21AC
 10
-0.442261
 20
43.3520
 30
-1.24124e-16
  70
    32
  0
VERTEX
  8
0
  5
21AD
 10
-0.479855
 20
43.4313
 30
-1.32357e-16
  70
    32
  0
VERTEX
  8
0
  5
21AE
 10
-0.517170
 20
43.5106
 30
-1.40537e-16
  70
    32
  0
VERTEX
  8
0
  5
21AF
 10
-0.554206
 20
43.5901
 30
-1.48665e-16
  70
    32
  0
VERTEX
  8
0
  5
21B0
 10
-0.590961
 20
43.6698
 30
-1.56744e-16
  70
    32
  0
VERTEX
  8
0
  5
21B1
 10
-0.627436
 20
43.7495
 30
-1.64774e-16
  70
    32
  0
VERTEX
  8
0
  5
21B2
 10
-0.663630
 20
43.8294
 30
-1.72749e-16
  70
    32
  0
VERTEX
  8
0
  5
21B3
 10
-0.699541
 20
43.9094
 30
-1.80628e-16
  70
    32
  0
VERTEX
  8
0
  5
21B4
 10
-0.735170
 20
43.9895
 30
-1.88403e-16
  70
    32
  0
VERTEX
  8
0
  5
21B5
 10
-0.770515
 20
44.0698
 30
-1.96077e-16
  70
    32
  0
VERTEX
  8
0
  5
21B6
 10
-0.805576
 20
44.1502
 30
-2.03649e-16
  70
    32
  0
VERTEX
  8
0
  5
21B7
 10
-0.840354
 20
44.2307
 30
-2.11122e-16
  70
    32
  0
VERTEX
  8
0
  5
21B8
 10
-0.874848
 20
44.3113
 30
-2.18495e-16
  70
    32
  0
VERTEX
  8
0
  5
21B9
 10
-0.909057
 20
44.3921
 30
-2.25770e-16
  70
    32
  0
VERTEX
  8
0
  5
21BA
 10
-0.942982
 20
44.4730
 30
-2.32948e-16
  70
    32
  0
VERTEX
  8
0
  5
21BB
 10
-0.976621
 20
44.5539
 30
-2.40030e-16
  70
    32
  0
VERTEX
  8
0
  5
21BC
 10
-1.00998
 20
44.6350
 30
-2.47016e-16
  70
    32
  0
VERTEX
  8
0
  5
21BD
 10
-1.04304
 20
44.7163
 30
-2.53908e-16
  70
    32
  0
VERTEX
  8
0
  5
21BE
 10
-1.07583
 20
44.7976
 30
-2.60707e-16
  70
    32
  0
VERTEX
  8
0
  5
21BF
 10
-1.10832
 20
44.8791
 30
-2.67413e-16
  70
    32
  0
VERTEX
  8
0
  5
21C0
 10
-1.14053
 20
44.9606
 30
-2.74028e-16
  70
    32
  0
VERTEX
  8
0
  5
21C1
 10
-1.17246
 20
45.0423
 30
-2.80551e-16
  70
    32
  0
VERTEX
  8
0
  5
21C2
 10
-1.20410
 20
45.1241
 30
-2.86986e-16
  70
    32
  0
VERTEX
  8
0
  5
21C3
 10
-1.23544
 20
45.2060
 30
-2.93331e-16
  70
    32
  0
VERTEX
  8
0
  5
21C4
 10
-1.26651
 20
45.2880
 30
-2.99588e-16
  70
    32
  0
VERTEX
  8
0
  5
21C5
 10
-1.29728
 20
45.3701
 30
-3.05759e-16
  70
    32
  0
VERTEX
  8
0
  5
21C6
 10
-1.32777
 20
45.4524
 30
-3.11844e-16
  70
    32
  0
VERTEX
  8
0
  5
21C7
 10
-1.35796
 20
45.5347
 30
-3.17844e-16
  70
    32
  0
VERTEX
  8
0
  5
21C8
 10
-1.38787
 20
45.6172
 30
-3.23759e-16
  70
    32
  0
VERTEX
  8
0
  5
21C9
 10
-1.41749
 20
45.6997
 30
-3.29592e-16
  70
    32
  0
VERTEX
  8
0
  5
21CA
 10
-1.44682
 20
45.7823
 30
-3.35342e-16
  70
    32
  0
VERTEX
  8
0
  5
21CB
 10
-1.47586
 20
45.8651
 30
-3.41011e-16
  70
    32
  0
VERTEX
  8
0
  5
21CC
 10
-1.50461
 20
45.9480
 30
-3.46600e-16
  70
    32
  0
VERTEX
  8
0
  5
21CD
 10
-1.53307
 20
46.0309
 30
-3.52110e-16
  70
    32
  0
VERTEX
  8
0
  5
21CE
 10
-1.56124
 20
46.1140
 30
-3.57541e-16
  70
    32
  0
VERTEX
  8
0
  5
21CF
 10
-1.58912
 20
46.1971
 30
-3.62894e-16
  70
    32
  0
VERTEX
  8
0
  5
21D0
 10
-1.61671
 20
46.2804
 30
-3.68171e-16
  70
    32
  0
VERTEX
  8
0
  5
21D1
 10
-1.64401
 20
46.3637
 30
-3.73373e-16
  70
    32
  0
VERTEX
  8
0
  5
21D2
 10
-1.67101
 20
46.4471
 30
-3.78500e-16
  70
    32
  0
VERTEX
  8
0
  5
21D3
 10
-1.69773
 20
46.5307
 30
-3.83553e-16
  70
    32
  0
VERTEX
  8
0
  5
21D4
 10
-1.72415
 20
46.6143
 30
-3.88533e-16
  70
    32
  0
VERTEX
  8
0
  5
21D5
 10
-1.75028
 20
46.6980
 30
-3.93441e-16
  70
    32
  0
VERTEX
  8
0
  5
21D6
 10
-1.77611
 20
46.7818
 30
-3.98279e-16
  70
    32
  0
VERTEX
  8
0
  5
21D7
 10
-1.80166
 20
46.8657
 30
-4.03046e-16
  70
    32
  0
VERTEX
  8
0
  5
21D8
 10
-1.82691
 20
46.9497
 30
-4.07745e-16
  70
    32
  0
VERTEX
  8
0
  5
21D9
 10
-1.85186
 20
47.0338
 30
-4.12375e-16
  70
    32
  0
VERTEX
  8
0
  5
21DA
 10
-1.87652
 20
47.1179
 30
-4.16938e-16
  70
    32
  0
VERTEX
  8
0
  5
21DB
 10
-1.90089
 20
47.2022
 30
-4.21435e-16
  70
    32
  0
VERTEX
  8
0
  5
21DC
 10
-1.92496
 20
47.2865
 30
-4.25867e-16
  70
    32
  0
VERTEX
  8
0
  5
21DD
 10
-1.94874
 20
47.3709
 30
-4.30235e-16
  70
    32
  0
VERTEX
  8
0
  5
21DE
 10
-1.97222
 20
47.4554
 30
-4.34539e-16
  70
    32
  0
VERTEX
  8
0
  5
21DF
 10
-1.99541
 20
47.5400
 30
-4.38780e-16
  70
    32
  0
VERTEX
  8
0
  5
21E0
 10
-2.01830
 20
47.6247
 30
-4.42960e-16
  70
    32
  0
VERTEX
  8
0
  5
21E1
 10
-2.04090
 20
47.7094
 30
-4.47080e-16
  70
    32
  0
VERTEX
  8
0
  5
21E2
 10
-2.06320
 20
47.7942
 30
-4.51140e-16
  70
    32
  0
VERTEX
  8
0
  5
21E3
 10
-2.08520
 20
47.8791
 30
-4.55141e-16
  70
    32
  0
VERTEX
  8
0
  5
21E4
 10
-2.10691
 20
47.9641
 30
-4.59084e-16
  70
    32
  0
VERTEX
  8
0
  5
21E5
 10
-2.12832
 20
48.0491
 30
-4.62971e-16
  70
    32
  0
VERTEX
  8
0
  5
21E6
 10
-2.14943
 20
48.1343
 30
-4.66802e-16
  70
    32
  0
VERTEX
  8
0
  5
21E7
 10
-2.17024
 20
48.2194
 30
-4.70578e-16
  70
    32
  0
VERTEX
  8
0
  5
21E8
 10
-2.19076
 20
48.3047
 30
-4.74299e-16
  70
    32
  0
VERTEX
  8
0
  5
21E9
 10
-2.21097
 20
48.3900
 30
-4.77968e-16
  70
    32
  0
VERTEX
  8
0
  5
21EA
 10
-2.23089
 20
48.4755
 30
-4.81585e-16
  70
    32
  0
VERTEX
  8
0
  5
21EB
 10
-2.25051
 20
48.5609
 30
-4.85150e-16
  70
    32
  0
VERTEX
  8
0
  5
21EC
 10
-2.26983
 20
48.6465
 30
-4.88665e-16
  70
    32
  0
VERTEX
  8
0
  5
21ED
 10
-2.28885
 20
48.7321
 30
-4.92131e-16
  70
    32
  0
VERTEX
  8
0
  5
21EE
 10
-2.30758
 20
48.8178
 30
-4.95549e-16
  70
    32
  0
VERTEX
  8
0
  5
21EF
 10
-2.32600
 20
48.9035
 30
-4.98919e-16
  70
    32
  0
VERTEX
  8
0
  5
21F0
 10
-2.34412
 20
48.9893
 30
-5.02243e-16
  70
    32
  0
VERTEX
  8
0
  5
21F1
 10
-2.36194
 20
49.0752
 30
-5.05521e-16
  70
    32
  0
VERTEX
  8
0
  5
21F2
 10
-2.37946
 20
49.1611
 30
-5.08754e-16
  70
    32
  0
VERTEX
  8
0
  5
21F3
 10
-2.39668
 20
49.2471
 30
-5.11944e-16
  70
    32
  0
VERTEX
  8
0
  5
21F4
 10
-2.41359
 20
49.3332
 30
-5.15092e-16
  70
    32
  0
VERTEX
  8
0
  5
21F5
 10
-2.43021
 20
49.4193
 30
-5.18197e-16
  70
    32
  0
VERTEX
  8
0
  5
21F6
 10
-2.44652
 20
49.5054
 30
-5.21261e-16
  70
    32
  0
VERTEX
  8
0
  5
21F7
 10
-2.46253
 20
49.5917
 30
-5.24286e-16
  70
    32
  0
VERTEX
  8
0
  5
21F8
 10
-2.47824
 20
49.6779
 30
-5.27272e-16
  70
    32
  0
VERTEX
  8
0
  5
21F9
 10
-2.49364
 20
49.7643
 30
-5.30219e-16
  70
    32
  0
VERTEX
  8
0
  5
21FA
 10
-2.50874
 20
49.8507
 30
-5.33130e-16
  70
    32
  0
VERTEX
  8
0
  5
21FB
 10
-2.52354
 20
49.9371
 30
-5.36004e-16
  70
    32
  0
VERTEX
  8
0
  5
21FC
 10
-2.53803
 20
50.0236
 30
-5.38844e-16
  70
    32
  0
VERTEX
  8
0
  5
21FD
 10
-2.55222
 20
50.1101
 30
-5.41648e-16
  70
    32
  0
VERTEX
  8
0
  5
21FE
 10
-2.56611
 20
50.1967
 30
-5.44420e-16
  70
    32
  0
VERTEX
  8
0
  5
21FF
 10
-2.57969
 20
50.2834
 30
-5.47159e-16
  70
    32
  0
VERTEX
  8
0
  5
2200
 10
-2.59297
 20
50.3701
 30
-5.49867e-16
  70
    32
  0
VERTEX
  8
0
  5
2201
 10
-2.60594
 20
50.4568
 30
-5.52544e-16
  70
    32
  0
VERTEX
  8
0
  5
2202
 10
-2.61860
 20
50.5436
 30
-5.55192e-16
  70
    32
  0
VERTEX
  8
0
  5
2203
 10
-2.63096
 20
50.6304
 30
-5.57811e-16
  70
    32
  0
VERTEX
  8
0
  5
2204
 10
-2.64301
 20
50.7173
 30
-5.60403e-16
  70
    32
  0
VERTEX
  8
0
  5
2205
 10
-2.65476
 20
50.8042
 30
-5.62967e-16
  70
    32
  0
VERTEX
  8
0
  5
2206
 10
-2.66620
 20
50.8911
 30
-5.65506e-16
  70
    32
  0
VERTEX
  8
0
  5
2207
 10
-2.67733
 20
50.9781
 30
-5.68020e-16
  70
    32
  0
VERTEX
  8
0
  5
2208
 10
-2.68816
 20
51.0652
 30
-5.70510e-16
  70
    32
  0
VERTEX
  8
0
  5
2209
 10
-2.69868
 20
51.1522
 30
-5.72957e-16
  70
    32
  0
VERTEX
  8
0
  5
220A
 10
-2.70889
 20
51.2393
 30
-5.75273e-16
  70
    32
  0
VERTEX
  8
0
  5
220B
 10
-2.71879
 20
51.3265
 30
-5.77454e-16
  70
    32
  0
VERTEX
  8
0
  5
220C
 10
-2.72839
 20
51.4136
 30
-5.79502e-16
  70
    32
  0
VERTEX
  8
0
  5
220D
 10
-2.73769
 20
51.5008
 30
-5.81423e-16
  70
    32
  0
VERTEX
  8
0
  5
220E
 10
-2.74668
 20
51.5881
 30
-5.83219e-16
  70
    32
  0
VERTEX
  8
0
  5
220F
 10
-2.75536
 20
51.6754
 30
-5.84896e-16
  70
    32
  0
VERTEX
  8
0
  5
2210
 10
-2.76373
 20
51.7627
 30
-5.86457e-16
  70
    32
  0
VERTEX
  8
0
  5
2211
 10
-2.77180
 20
51.8500
 30
-5.87907e-16
  70
    32
  0
VERTEX
  8
0
  5
2212
 10
-2.77956
 20
51.9373
 30
-5.89249e-16
  70
    32
  0
VERTEX
  8
0
  5
2213
 10
-2.78702
 20
52.0247
 30
-5.90488e-16
  70
    32
  0
VERTEX
  8
0
  5
2214
 10
-2.79417
 20
52.1121
 30
-5.91628e-16
  70
    32
  0
VERTEX
  8
0
  5
2215
 10
-2.80101
 20
52.1996
 30
-5.92674e-16
  70
    32
  0
VERTEX
  8
0
  5
2216
 10
-2.80755
 20
52.2870
 30
-5.93628e-16
  70
    32
  0
VERTEX
  8
0
  5
2217
 10
-2.81378
 20
52.3745
 30
-5.94496e-16
  70
    32
  0
VERTEX
  8
0
  5
2218
 10
-2.81970
 20
52.4620
 30
-5.95281e-16
  70
    32
  0
VERTEX
  8
0
  5
2219
 10
-2.82532
 20
52.5495
 30
-5.95987e-16
  70
    32
  0
VERTEX
  8
0
  5
221A
 10
-2.83063
 20
52.6371
 30
-5.96620e-16
  70
    32
  0
VERTEX
  8
0
  5
221B
 10
-2.83563
 20
52.7246
 30
-5.97182e-16
  70
    32
  0
VERTEX
  8
0
  5
221C
 10
-2.84033
 20
52.8122
 30
-5.97678e-16
  70
    32
  0
VERTEX
  8
0
  5
221D
 10
-2.84472
 20
52.8998
 30
-5.98112e-16
  70
    32
  0
VERTEX
  8
0
  5
221E
 10
-2.84880
 20
52.9874
 30
-5.98488e-16
  70
    32
  0
VERTEX
  8
0
  5
221F
 10
-2.85257
 20
53.0750
 30
-5.98811e-16
  70
    32
  0
VERTEX
  8
0
  5
2220
 10
-2.85604
 20
53.1626
 30
-5.99084e-16
  70
    32
  0
VERTEX
  8
0
  5
2221
 10
-2.85920
 20
53.2503
 30
-5.99312e-16
  70
    32
  0
VERTEX
  8
0
  5
2222
 10
-2.86205
 20
53.3379
 30
-5.99498e-16
  70
    32
  0
VERTEX
  8
0
  5
2223
 10
-2.86460
 20
53.4256
 30
-5.99648e-16
  70
    32
  0
VERTEX
  8
0
  5
2224
 10
-2.86683
 20
53.5133
 30
-5.99764e-16
  70
    32
  0
VERTEX
  8
0
  5
2225
 10
-2.86876
 20
53.6009
 30
-5.99851e-16
  70
    32
  0
VERTEX
  8
0
  5
2226
 10
-2.87039
 20
53.6886
 30
-5.99914e-16
  70
    32
  0
VERTEX
  8
0
  5
2227
 10
-2.87170
 20
53.7763
 30
-5.99956e-16
  70
    32
  0
VERTEX
  8
0
  5
2228
 10
-2.87271
 20
53.8640
 30
-5.99981e-16
  70
    32
  0
VERTEX
  8
0
  5
2229
 10
-2.87341
 20
53.9517
 30
-5.99994e-16
  70
    32
  0
VERTEX
  8
0
  5
222A
 10
-2.87380
 20
54.0394
 30
-5.99999e-16
  70
    32
  0
VERTEX
  8
0
  5
222B
 10
-2.87388
 20
54.1271
 30
-6.00000e-16
  70
    32
  0
SEQEND
  8
0
  5
222C
  0
CIRCLE
  5
1A76
  8
0
  6
CONTINUOUS
 62
     3
 10
22.1257652260038391
 20
54.1068560156145821
 30
0.0
 40
24.5074339963358412
  0
CIRCLE
  5
1A77
  8
0
  6
CONTINUOUS
 62
     3
 10
22.1257652260039208
 20
54.1068560156146035
 30
0.0
 40
29.6063531499380588
  0
CIRCLE
  5
1A78
  8
0
  6
CONTINUOUS
 62
     3
 10
22.1257652260039102
 20
54.1068560156146035
 30
0.0
 40
27.9999999999999396
  0
CIRCLE
  5
1A79
  8
0
  6
CONTINUOUS
 62
     3
 10
22.1257652260039208
 20
54.1068560156146035
 30
0.0
 40
28.2520182922505114
  0
CIRCLE
  5
1A7A
  8
0
  6
CONTINUOUS
 62
     3
 10
22.1257652260039102
 20
54.1068560156146035
 30
0.0
 40
31.5000320577752184
  0
LINE
  5
1A7B
  8
0
  6
VERDECKT
 62
     1
 10
39.5111038767191403
 20
74.1068560156145963
 30
0.0
 11
46.4619937670104974
 21
74.1068560156145963
 31
0.0000000000000016
  0
LINE
  5
1A7C
  8
0
  6
VERDECKT
 62
     1
 10
46.4619937670104974
 20
34.1068560156146035
 30
0.0
 11
39.5111038767191403
 21
34.1068560156146035
 31
-0.0000000000000016
  0
LINE
  5
1A7D
  8
0
  6
VERDECKT
 62
     1
 10
4.7404265752903294
 20
74.1068560156145963
 30
0.0
 11
-2.210463315002853
 21
74.1068560156145963
 31
-0.0000000000000016
  0
LINE
  5
1A7E
  8
0
  6
VERDECKT
 62
     1
 10
-2.2104633150028539
 20
34.1068560156146035
 30
0.0
 11
4.7404265752903276
 21
34.1068560156146035
 31
0.0000000000000016
  0
CIRCLE
  5
1A7F
  8
0
  6
VERDECKT
 62
     1
 10
22.1257652260039102
 20
54.1068560156146035
 30
0.0
 40
26.4996541503727485
  0
CIRCLE
  5
1A80
  8
0
  6
VERDECKT
 62
     1
 10
22.1257652260038391
 20
54.1068560156145821
 30
0.0
 40
26.0
  0
CIRCLE
  5
1A81
  8
0
  6
VERDECKT
 62
     1
 10
22.1257652260039102
 20
54.1068560156146035
 30
0.0
 40
26.5
  0
CIRCLE
  5
1A82
  8
0
  6
VERDECKT
 62
     1
 10
22.1257652260039102
 20
54.1068560156146035
 30
0.0
 40
30.0000320571281485
  0
CIRCLE
  5
1A83
  8
0
  6
VERDECKT
 62
     1
 10
22.1257652260039102
 20
54.1068560156146035
 30
0.0
 40
29.4999999997411209
  0
ENDBLK
  5
1A85
  8
0
  0
BLOCK
  8
0
  2
A$C74D70B94
 70
     0
 10
0.0
 20
0.0
 30
0.0
  3
A$C74D70B94
  1

  0
LINE
  5
1A89
  8
0
  6
CONTINUOUS
 62
     3
 10
113.5111038767190053
 20
313.6961177148635898
 30
-0.0000000000000697
 11
39.5111038767190621
 21
313.6961177148635898
 31
-0.0000000000000697
210
0.0
220
1.0
230
-0.0000000000000002
  0
LINE
  5
1A8A
  8
0
  6
CONTINUOUS
 62
     3
 10
39.5111038767190621
 20
313.6961177148635898
 30
-0.0000000000000697
 11
39.5111038767190621
 21
319.6961177148637034
 31
-0.000000000000071
210
0.0
220
1.0
230
-0.0000000000000002
  0
LINE
  5
1A8B
  8
0
  6
CONTINUOUS
 62
     3
 10
113.5111038767190053
 20
313.6961177148635898
 30
-0.0000000000000697
 11
113.5111038767190053
 21
319.6961177148637034
 31
-0.000000000000071
210
0.0
220
1.0
230
-0.0000000000000002
  0
LINE
  5
1A8C
  8
0
  6
CONTINUOUS
 62
     3
 10
113.5111038767190053
 20
319.6961177148637034
 30
-0.000000000000071
 11
39.5111038767190621
 21
319.6961177148637034
 31
-0.000000000000071
210
0.0
220
1.0
230
-0.0000000000000002
  0
LINE
  5
1A8D
  8
0
  6
CONTINUOUS
 62
     3
 10
-69.2595734247097425
 20
313.6961177148635898
 30
-0.0000000000000697
 11
4.7404265752902566
 21
313.6961177148635898
 31
-0.0000000000000697
210
0.0
220
1.0
230
-0.0000000000000002
  0
LINE
  5
1A8E
  8
0
  6
CONTINUOUS
 62
     3
 10
4.7404265752902566
 20
313.6961177148635898
 30
-0.0000000000000697
 11
4.7404265752902566
 21
319.6961177148637034
 31
-0.000000000000071
210
0.0
220
1.0
230
-0.0000000000000002
  0
LINE
  5
1A8F
  8
0
  6
CONTINUOUS
 62
     3
 10
-69.2595734247097425
 20
313.6961177148635898
 30
-0.0000000000000697
 11
-69.2595734247097425
 21
319.6961177148637034
 31
-0.000000000000071
210
0.0
220
1.0
230
-0.0000000000000002
  0
LINE
  5
1A90
  8
0
  6
CONTINUOUS
 62
     3
 10
-69.2595734247097425
 20
319.6961177148637034
 30
-0.000000000000071
 11
4.7404265752902566
 21
319.6961177148637034
 31
-0.000000000000071
210
0.0
220
1.0
230
-0.0000000000000002
  0
LINE
  5
1A91
  8
0
  6
CONTINUOUS
 62
     3
 10
48.1257652260038213
 20
81.6933496253713116
 30
-0.0000000000000181
 11
-3.8742347739961782
 21
81.6933496253713116
 31
-0.0000000000000181
210
0.0
220
1.0
230
-0.0000000000000002
  0
LINE
  5
1A92
  8
0
  6
CONTINUOUS
 62
     3
 10
-4.374234773996168
 20
326.5660227857173936
 30
-0.0000000000000725
 11
48.6257652260038427
 21
326.5660227857173936
 31
-0.0000000000000725
210
0.0
220
1.0
230
-0.0000000000000002
  0
LINE
  5
1A93
  8
0
  6
CONTINUOUS
 62
     3
 10
-7.4805879239342232
 20
369.6933496253712974
 30
-0.0000000000000821
 11
51.7321183759418872
 21
369.6933496253712974
 31
-0.0000000000000821
210
0.0
220
1.0
230
-0.0000000000000002
  0
ARC
  5
1A94
  8
0
  6
CONTINUOUS
 62
     3
 10
-42.6254193763770104
 20
86.992397384728136
 30
0.0
 40
5.9999999999995586
210
0.0
220
-0.0000000000000002
230
-1.0
 50
180.0
 51
185.7066692048931031
  0
ARC
  5
1A95
  8
0
  6
CONTINUOUS
 62
     3
 10
-1.6261110756313391
 20
86.9923973847281644
 30
0.0
 40
6.00000000000027
210
0.0
220
-0.0000000000000002
230
-1.0
 50
354.2933307951071811
 51
359.9999999999997158
  0
LINE
  5
1A96
  8
0
  6
CONTINUOUS
 62
     3
 10
48.625419376376577
 20
326.5660227857143241
 30
-0.0000000000000725
 11
48.625419376376577
 21
319.6961177148634761
 31
-0.000000000000071
210
0.0
220
1.0
230
-0.0000000000000002
  0
LINE
  5
1A97
  8
0
  6
CONTINUOUS
 62
     3
 10
48.625419376376577
 20
313.6961177148634761
 30
-0.0000000000000697
 11
48.6254193763765628
 21
86.9923973847280791
 31
-0.0000000000000193
210
0.0
220
1.0
230
-0.0000000000000002
  0
LINE
  5
1A98
  8
0
  6
CONTINUOUS
 62
     3
 10
-4.373888924368913
 20
326.5660227857143241
 30
-0.0000000000000725
 11
-4.373888924368913
 21
319.6961177148634761
 31
-0.000000000000071
210
0.0
220
1.0
230
-0.0000000000000002
  0
LINE
  5
1A99
  8
0
  6
CONTINUOUS
 62
     3
 10
-4.3738889243689139
 20
313.6961177148634761
 30
-0.0000000000000697
 11
-4.3738889243689281
 21
86.9923973847280791
 31
-0.0000000000000193
210
0.0
220
1.0
230
-0.0000000000000002
  0
LINE
  5
1A9A
  8
0
  6
CONTINUOUS
 62
     3
 10
-3.8742347739961822
 20
81.6933496253713116
 30
-0.0000000000000181
 11
-4.3441529390255846
 21
86.3957839459792609
 31
-0.0000000000000192
210
0.0
220
1.0
230
-0.0000000000000002
  0
LINE
  5
1A9B
  8
0
  6
CONTINUOUS
 62
     3
 10
48.1257652260038213
 20
81.6933496253713116
 30
-0.0000000000000181
 11
48.5956833910332193
 21
86.3957839459792609
 31
-0.0000000000000192
210
0.0
220
1.0
230
-0.0000000000000002
  0
ARC
  5
1A9C
  8
0
  6
CONTINUOUS
 62
     3
 10
-10.1257652260039208
 20
361.3108482827132093
 30
0.0
 40
19.5000000000000995
210
0.0
220
-0.0000000000000002
230
-1.0
 50
0.0000000000003435
 51
25.4594285688103596
  0
ARC
  5
1A9D
  8
0
  6
CONTINUOUS
 62
     3
 10
-34.1257652260037929
 20
361.3108482827130956
 30
0.0
 40
19.5000000000000711
210
0.0
220
-0.0000000000000002
230
-1.0
 50
154.5405714311893064
 51
179.9999999999994884
  0
LINE
  5
1A9E
  8
0
  6
CONTINUOUS
 62
     3
 10
53.6257652260038427
 20
361.310848282713323
 30
-0.0000000000000802
 11
53.6257972831320018
 21
356.8553496253741173
 31
-0.0000000000000792
210
0.0
220
1.0
230
-0.0000000000000002
  0
LINE
  5
1A9F
  8
0
  6
CONTINUOUS
 62
     3
 10
-9.3742347739961787
 20
361.310848282713323
 30
-0.0000000000000802
 11
-9.3742668311243307
 21
356.8553496253741173
 31
-0.0000000000000792
210
0.0
220
1.0
230
-0.0000000000000002
  0
ARC
  5
1AA0
  8
0
  6
CONTINUOUS
 62
     3
 10
-15.6247164403878394
 20
356.8551697587257081
 30
0.0
 40
24.9989832721592009
210
0.0
220
-0.0000000000000002
230
-1.0
 50
340.536488314552912
 51
0.0004122407586264
  0
ARC
  5
1AA1
  8
0
  6
CONTINUOUS
 62
     3
 10
-28.6268140116195902
 20
356.8551697587257081
 30
0.0
 40
24.9989832721594709
210
0.0
220
-0.0000000000000002
230
-1.0
 50
179.9995877592413933
 51
199.4635116854470027
  0
ARC
  5
1AA2
  8
0
  6
CONTINUOUS
 62
     3
 10
17.3738152602885805
 20
345.1934215719409167
 30
0.0
 40
9.9995804865513023
210
0.0
220
-0.0000000000000002
230
-1.0
 50
160.5364883145525994
 51
180.0004122407569014
  0
ARC
  5
1AA3
  8
0
  6
CONTINUOUS
 62
     3
 10
-61.6253457122963866
 20
345.1934215719409167
 30
0.0
 40
9.9995804865514408
210
0.0
220
-0.0000000000000002
230
-1.0
 50
359.9995877592431839
 51
19.4635116854470986
  0
LINE
  5
1AA4
  8
0
  6
CONTINUOUS
 62
     3
 10
51.6257652260037787
 20
345.1933496253741964
 30
-0.0000000000000766
 11
51.6257652260037787
 21
337.1016765385700751
 31
-0.0000000000000749
210
0.0
220
1.0
230
-0.0000000000000002
  0
LINE
  5
1AA5
  8
0
  6
CONTINUOUS
 62
     3
 10
-7.3742347739961067
 20
345.1933496253740827
 30
-0.0000000000000766
 11
-7.3742347739961067
 21
337.1016765385700751
 31
-0.0000000000000749
210
0.0
220
1.0
230
-0.0000000000000002
  0
ARC
  5
1AA6
  8
0
  6
CONTINUOUS
 62
     3
 10
-4.6257652260042077
 20
337.1016765385700182
 30
0.0
 40
12.0000000000003109
210
0.0
220
-0.0000000000000002
230
-1.0
 50
328.2116693829486849
 51
0.0000000000002404
  0
ARC
  5
1AA7
  8
0
  6
CONTINUOUS
 62
     3
 10
-39.6257652260033595
 20
337.1016765385700751
 30
0.0
 40
12.0000000000004299
210
0.0
220
-0.0000000000000002
230
-1.0
 50
180.0
 51
211.7883306170512014
  0
ARC
  5
1AA8
  8
0
  6
CONTINUOUS
 62
     3
 10
12.3742347739955196
 20
326.5660227857175073
 30
0.0
 40
7.9999999999993801
210
0.0
220
-0.0000000000000002
230
-1.0
 50
148.2116693829484859
 51
180.0000000000015064
  0
ARC
  5
1AA9
  8
0
  6
CONTINUOUS
 62
     3
 10
-56.6257652260032671
 20
326.5660227857175073
 30
0.0
 40
7.9999999999994591
210
0.0
220
-0.0000000000000002
230
-1.0
 50
359.9999999999988063
 51
31.7883306170516313
  0
LINE
  5
1AAA
  8
0
  6
VERDECKT
 62
     1
 10
106.0111038767172005
 20
319.6961177148637034
 30
-0.000000000000071
 11
106.0111038767172005
 21
313.6961177148635898
 31
-0.0000000000000697
210
0.0
220
1.0
230
-0.0000000000000002
  0
LINE
  5
1AAB
  8
0
  6
VERDECKT
 62
     1
 10
81.0111038767172431
 20
319.6961177148637034
 30
-0.000000000000071
 11
81.0111038767172431
 21
313.6961177148635898
 31
-0.0000000000000697
210
0.0
220
1.0
230
-0.0000000000000002
  0
LINE
  5
1AAC
  8
0
  6
VERDECKT
 62
     1
 10
48.6257652260046598
 20
313.6961177148635898
 30
-0.0000000000000697
 11
48.6257652260046598
 21
319.6961177148637034
 31
-0.000000000000071
210
0.0
220
1.0
230
-0.0000000000000002
  0
LINE
  5
1AAD
  8
0
  6
VERDECKT
 62
     1
 10
-61.7595734247097283
 20
313.6961177148635898
 30
-0.0000000000000697
 11
-61.7595734247097283
 21
319.6961177148637034
 31
-0.000000000000071
210
0.0
220
1.0
230
-0.0000000000000002
  0
LINE
  5
1AAE
  8
0
  6
VERDECKT
 62
     1
 10
-36.7595734247097496
 20
313.6961177148635898
 30
-0.0000000000000697
 11
-36.7595734247097496
 21
319.6961177148637034
 31
-0.000000000000071
210
0.0
220
1.0
230
-0.0000000000000002
  0
LINE
  5
1AAF
  8
0
  6
VERDECKT
 62
     1
 10
-4.3742347739962488
 20
319.6961177148637034
 30
-0.000000000000071
 11
-4.3742347739962488
 21
313.6961177148635898
 31
-0.0000000000000697
210
0.0
220
1.0
230
-0.0000000000000002
  0
LINE
  5
1AB0
  8
0
  6
VERDECKT
 62
     1
 10
46.6331992223396625
 20
81.8425029850585588
 30
-0.0000000000000182
 11
-2.3816687703320119
 21
81.8425029850585588
 31
-0.0000000000000182
210
0.0
220
1.0
230
-0.0000000000000002
  0
LINE
  5
1AB1
  8
0
  6
VERDECKT
 62
     1
 10
-6.1262530662466723
 20
369.0485418297822093
 30
-0.0000000000000819
 11
50.3777835182543399
 21
369.0485418297822093
 31
-0.0000000000000819
210
0.0
220
1.0
230
-0.0000000000000002
  0
ARC
  5
1AB2
  8
0
  6
VERDECKT
 62
     1
 10
52.1254193764268976
 20
326.5359278819606175
 30
-0.0000000000000725
 40
5.0000000000503126
 50
179.4112918065756901
 51
180.0
  0
ARC
  5
1AB3
  8
0
  6
VERDECKT
 62
     1
 10
7.8738889243856409
 20
326.5359278820234863
 30
0.0
 40
5.0000000000167253
210
0.0
220
-0.0000000000000002
230
-1.0
 50
179.4112918077996994
 51
180.0
  0
ARC
  5
1AB4
  8
0
  6
VERDECKT
 62
     1
 10
2.1255832128132539
 20
326.6386750369790093
 30
-0.0000000000000725
 40
5.0000000000074252
 50
180.2870817094471931
 51
180.5887081922006132
  0
ARC
  5
1AB5
  8
0
  6
VERDECKT
 62
     1
 10
-42.125947238777627
 20
326.6386750371343055
 30
0.0
 40
5.0000000004249801
210
0.0
220
-0.0000000000000002
230
-1.0
 50
180.2870817100636032
 51
180.5887081934237131
  0
LINE
  5
1AB6
  8
0
  6
VERDECKT
 62
     1
 10
47.125419376376577
 20
326.5359278819606175
 30
-0.0000000000000725
 11
47.1254193763765628
 21
87.06715932456747
 31
-0.0000000000000193
210
0.0
220
1.0
230
-0.0000000000000002
  0
LINE
  5
1AB7
  8
0
  6
VERDECKT
 62
     1
 10
-2.8738889243689139
 20
326.5359278820233726
 30
-0.0000000000000725
 11
-2.8738889243689281
 21
87.06715932456747
 31
-0.0000000000000193
210
0.0
220
1.0
230
-0.0000000000000002
  0
LINE
  5
1AB8
  8
0
  6
VERDECKT
 62
     1
 10
48.625419376376577
 20
319.6961177148634761
 30
-0.000000000000071
 11
48.625419376376577
 21
313.6961177148634761
 31
-0.0000000000000697
210
0.0
220
1.0
230
-0.0000000000000002
  0
LINE
  5
1AB9
  8
0
  6
VERDECKT
 62
     1
 10
-4.373888924368913
 20
319.6961177148634761
 30
-0.000000000000071
 11
-4.3738889243689139
 21
313.6961177148634761
 31
-0.0000000000000697
210
0.0
220
1.0
230
-0.0000000000000002
  0
ARC
  5
1ABA
  8
0
  6
VERDECKT
 62
     1
 10
-41.1254193763770104
 20
87.0671593245675268
 30
0.0
 40
5.9999999999995586
210
0.0
220
-0.0000000000000002
230
-1.0
 50
180.0
 51
185.7066692048931031
  0
ARC
  5
1ABB
  8
0
  6
VERDECKT
 62
     1
 10
-3.1261110756313388
 20
87.0671593245675552
 30
0.0
 40
6.00000000000027
210
0.0
220
-0.0000000000000002
230
-1.0
 50
354.2933307951071811
 51
359.9999999999997158
  0
LINE
  5
1ABC
  8
0
  6
VERDECKT
 62
     1
 10
-2.3816687703320158
 20
81.8425029850585588
 30
-0.0000000000000182
 11
-2.8441529390255971
 21
86.4705458858186375
 31
-0.0000000000000192
210
0.0
220
1.0
230
-0.0000000000000002
  0
LINE
  5
1ABD
  8
0
  6
VERDECKT
 62
     1
 10
46.6331992223396625
 20
81.8425029850585588
 30
-0.0000000000000182
 11
47.0956833910332335
 21
86.4705458858186375
 31
-0.0000000000000192
210
0.0
220
1.0
230
-0.0000000000000002
  0
ARC
  5
1ABE
  8
0
  6
VERDECKT
 62
     1
 10
12.3742347739964291
 20
326.5660227857173936
 30
0.0
 40
9.5000000000002451
210
0.0
220
-0.0000000000000002
230
-1.0
 50
148.2116693829484859
 51
179.71291829055329
  0
ARC
  5
1ABF
  8
0
  6
VERDECKT
 62
     1
 10
-56.6257652260040985
 20
326.5660227857173936
 30
0.0
 40
9.50000000000027
210
0.0
220
-0.0000000000000002
230
-1.0
 50
0.2870817100470311
 51
31.7883306170517415
  0
ARC
  5
1AC0
  8
0
  6
VERDECKT
 62
     1
 10
-4.6257652260027822
 20
337.1016765385697909
 30
0.0
 40
10.4999999999988898
210
0.0
220
-0.0000000000000002
230
-1.0
 50
328.2116693829478891
 51
0.0000000000015521
  0
ARC
  5
1AC1
  8
0
  6
VERDECKT
 62
     1
 10
-39.6257652260048374
 20
337.1016765385697909
 30
0.0
 40
10.4999999999989306
210
0.0
220
-0.0000000000000002
230
-1.0
 50
179.9999999999984084
 51
211.7883306170519973
  0
LINE
  5
1AC2
  8
0
  6
VERDECKT
 62
     1
 10
50.1257652260037787
 20
345.1933496253741964
 30
-0.0000000000000766
 11
50.1257652260037787
 21
337.1016765385700751
 31
-0.0000000000000749
210
0.0
220
1.0
230
-0.0000000000000002
  0
LINE
  5
1AC3
  8
0
  6
VERDECKT
 62
     1
 10
-5.8742347739961067
 20
345.1933496253740827
 30
-0.0000000000000766
 11
-5.8742347739961067
 21
337.1016765385700751
 31
-0.0000000000000749
210
0.0
220
1.0
230
-0.0000000000000002
  0
ARC
  5
1AC4
  8
0
  6
VERDECKT
 62
     1
 10
17.3742347739959584
 20
345.1933496253740259
 30
0.0
 40
11.4999999999998295
210
0.0
220
-0.0000000000000002
230
-1.0
 50
160.5369005553100976
 51
179.9999999999996874
  0
ARC
  5
1AC5
  8
0
  6
VERDECKT
 62
     1
 10
-61.6257652260028479
 20
345.1933496253741964
 30
0.0
 40
11.4999999999990496
210
0.0
220
-0.0000000000000002
230
-1.0
 50
0.0
 51
19.4630994446906591
  0
ARC
  5
1AC6
  8
0
  6
VERDECKT
 62
     1
 10
-15.6257652260019704
 20
356.8553496253737762
 30
0.0
 40
23.5000320571262904
210
0.0
220
-0.0000000000000002
230
-1.0
 50
340.5369005553105239
 51
0.0000000000006997
  0
ARC
  5
1AC7
  8
0
  6
VERDECKT
 62
     1
 10
-28.6257652260058109
 20
356.8553496253737762
 30
0.0
 40
23.5000320571261909
210
0.0
220
-0.0000000000000002
230
-1.0
 50
179.9999999999992895
 51
199.4630994446895897
  0
LINE
  5
1AC8
  8
0
  6
VERDECKT
 62
     1
 10
52.1257652260038498
 20
361.310848282713323
 30
-0.0000000000000802
 11
52.1257972831320018
 21
356.8553496253741173
 31
-0.0000000000000792
210
0.0
220
1.0
230
-0.0000000000000002
  0
LINE
  5
1AC9
  8
0
  6
VERDECKT
 62
     1
 10
-7.8742347739961778
 20
361.310848282713323
 30
-0.0000000000000802
 11
-7.8742668311243298
 21
356.8553496253741173
 31
-0.0000000000000792
210
0.0
220
1.0
230
-0.0000000000000002
  0
ARC
  5
1ACA
  8
0
  6
VERDECKT
 62
     1
 10
-10.1263385356842406
 20
361.3107187693345281
 30
0.0
 40
18.0005733101463186
210
0.0
220
-0.0000000000000002
230
-1.0
 50
0.0004122407585374
 51
25.45901632805273
  0
ARC
  5
1ACB
  8
0
  6
VERDECKT
 62
     1
 10
-34.1251919163232884
 20
361.3107187693344144
 30
0.0
 40
18.0005733101464713
210
0.0
220
-0.0000000000000002
230
-1.0
 50
154.5409836719472878
 51
179.9995877592411944
  0
LINE
  5
1ACC
  8
0
  6
VERDECKT
 62
     1
 10
-6.1262530662466856
 20
369.0485418297822093
 30
-0.0000000000000819
 11
-7.4805879239342561
 21
369.6933496253712974
 31
-0.0000000000000821
210
0.0
220
1.0
230
-0.0000000000000002
  0
LINE
  5
1ACD
  8
0
  6
VERDECKT
 62
     1
 10
50.3777835182544109
 20
369.0485418297822093
 30
-0.0000000000000819
 11
51.7321183759419085
 21
369.6933496253712974
 31
-0.0000000000000821
210
0.0
220
1.0
230
-0.0000000000000002
  0
LINE
  5
1ACE
  8
0
  6
VERDECKT
 62
     1
 10
46.6331992223396625
 20
81.8425029850585588
 30
-0.0000000000000182
 11
48.1257652260038213
 21
81.6933496253713116
 31
-0.0000000000000181
210
0.0
220
1.0
230
-0.0000000000000002
  0
LINE
  5
1ACF
  8
0
  6
VERDECKT
 62
     1
 10
-2.3816687703320158
 20
81.8425029850585588
 30
-0.0000000000000182
 11
-3.8742347739961822
 21
81.6933496253713116
 31
-0.0000000000000181
210
0.0
220
1.0
230
-0.0000000000000002
  0
ENDBLK
  5
1AD1
  8
0
  0
ENDSEC
  0
SECTION
  2
ENTITIES
  0
INSERT
  5
440
  8
ADSK_ASSOC_ENTITY_BACKUPS
  2
*S3
 10
0.0
 20
0.0
 30
0.0
  0
INSERT
  5
1A86
  8
BEM
  2
A$C2EA56C86
 10
-17.2660550087798015
 20
-3.472671477237383
 30
-0.0000000000000181
  0
INSERT
  5
1AD2
  8
BEM
  2
A$C74D70B94
 10
-17.2660550087797908
 20
88.4770764311250559
 30
0.0
  0
VIEWPORT
  5
34F
 67
     1
  8
0
 10
365.5109679507622218
 20
204.214362104608
 30
0.0
 40
1058.3281767138469149
 41
598.6426947061289638
 68
     1
 69
     1
1001
ACAD
1000
MVIEW
1002
{
1070
    16
1010
0.0
1020
0.0
1030
0.0
1010
0.0
1020
0.0
1030
1.0
1040
0.0
1040
598.6426947061289638
1040
365.5109679507622218
1040
204.214362104608
1040
50.0
1040
0.0
1040
0.0
1070
     0
1070
  1500
1070
     1
1070
     1
1070
     0
1070
     0
1070
     0
1070
     0
1040
0.0
1040
0.0
1040
0.0
1040
10.0
1040
10.0
1040
10.0
1040
10.0
1070
     0
1002
{
1002
}
1002
}
  0
ENDSEC
  0
EOF
