  0
SECTION
  2
HEADER
  9
$ACADVER
  1
AC1009
  9
$INSBASE
 10
0.0
 20
0.0
 30
0.0
  9
$EXTMIN
 10
842.3972184593310431
 20
-41.5761267212983228
 30
-45.8639665748306768
  9
$EXTMAX
 10
1007.3972184593310431
 20
297.9403795007704048
 30
-45.8639665748306413
  9
$LIMMIN
 10
0.0
 20
0.0
  9
$LIMMAX
 10
419.9999999999998863
 20
594.0
  9
$ORTHOMODE
 70
     1
  9
$REGENMODE
 70
     1
  9
$FILLMODE
 70
     1
  9
$QTEXTMODE
 70
     0
  9
$MIRRTEXT
 70
     1
  9
$DRAGMODE
 70
     2
  9
$LTSCALE
 40
10.0
  9
$OSMODE
 70
  2495
  9
$ATTMODE
 70
     1
  9
$TEXTSIZE
 40
3.5
  9
$TRACEWID
 40
0.5
  9
$TEXTSTYLE
  7
STANDARD
  9
$CLAYER
  8
STEMPEL
  9
$CELTYPE
  6
BYLAYER
  9
$CECOLOR
 62
   256
  9
$DIMSCALE
 40
1.0
  9
$DIMASZ
 40
3.5
  9
$DIMEXO
 40
1.0
  9
$DIMDLI
 40
7.0
  9
$DIMRND
 40
0.0
  9
$DIMDLE
 40
0.0
  9
$DIMEXE
 40
1.0
  9
$DIMTP
 40
0.0
  9
$DIMTM
 40
0.0
  9
$DIMTXT
 40
3.5
  9
$DIMCEN
 40
1.5
  9
$DIMTSZ
 40
0.0
  9
$DIMTOL
 70
     0
  9
$DIMLIM
 70
     0
  9
$DIMTIH
 70
     0
  9
$DIMTOH
 70
     0
  9
$DIMSE1
 70
     0
  9
$DIMSE2
 70
     0
  9
$DIMTAD
 70
     1
  9
$DIMZIN
 70
     8
  9
$DIMBLK
  1

  9
$DIMASO
 70
     1
  9
$DIMSHO
 70
     0
  9
$DIMPOST
  1

  9
$DIMAPOST
  1

  9
$DIMALT
 70
     0
  9
$DIMALTD
 70
     2
  9
$DIMALTF
 40
25.3999999999999986
  9
$DIMLFAC
 40
2.0
  9
$DIMTOFL
 70
     1
  9
$DIMTVP
 40
0.0
  9
$DIMTIX
 70
     0
  9
$DIMSOXD
 70
     0
  9
$DIMSAH
 70
     0
  9
$DIMBLK1
  1

  9
$DIMBLK2
  1

  9
$DIMSTYLE
  2
STANDARD
  9
$DIMCLRD
 70
     0
  9
$DIMCLRE
 70
     0
  9
$DIMCLRT
 70
     1
  9
$DIMTFAC
 40
0.5142857142857143
  9
$DIMGAP
 40
1.5
  9
$LUNITS
 70
     2
  9
$LUPREC
 70
     2
  9
$SKETCHINC
 40
1.0
  9
$FILLETRAD
 40
10.0
  9
$AUNITS
 70
     0
  9
$AUPREC
 70
     0
  9
$MENU
  1
ACAD
  9
$ELEVATION
 40
0.0
  9
$PELEVATION
 40
0.0
  9
$THICKNESS
 40
0.0
  9
$LIMCHECK
 70
     0
  9
$BLIPMODE
 70
     0
  9
$CHAMFERA
 40
0.0
  9
$CHAMFERB
 40
0.0
  9
$SKPOLY
 70
     0
  9
$TDCREATE
 40
2455397.8646990740671754
  9
$TDUPDATE
 40
2459627.5003125001676381
  9
$TDINDWG
 40
0.406534213
  9
$TDUSRTIMER
 40
0.406534213
  9
$USRTIMER
 70
     1
  9
$ANGBASE
 50
0.0
  9
$ANGDIR
 70
     0
  9
$PDMODE
 70
     0
  9
$PDSIZE
 40
0.0
  9
$PLINEWID
 40
0.0
  9
$COORDS
 70
     1
  9
$SPLFRAME
 70
     0
  9
$SPLINETYPE
 70
     6
  9
$SPLINESEGS
 70
     8
  9
$ATTDIA
 70
     1
  9
$ATTREQ
 70
     1
  9
$HANDLING
 70
     1
  9
$HANDSEED
  5
3BC0
  9
$SURFTAB1
 70
     6
  9
$SURFTAB2
 70
     6
  9
$SURFTYPE
 70
     6
  9
$SURFU
 70
     6
  9
$SURFV
 70
     6
  9
$UCSNAME
  2

  9
$UCSORG
 10
0.0
 20
0.0
 30
0.0
  9
$UCSXDIR
 10
1.0
 20
0.0
 30
0.0
  9
$UCSYDIR
 10
0.0
 20
1.0
 30
0.0
  9
$PUCSNAME
  2

  9
$PUCSORG
 10
0.0
 20
0.0
 30
0.0
  9
$PUCSXDIR
 10
1.0
 20
0.0
 30
0.0
  9
$PUCSYDIR
 10
0.0
 20
1.0
 30
0.0
  9
$USERI1
 70
     0
  9
$USERI2
 70
     0
  9
$USERI3
 70
     0
  9
$USERI4
 70
     0
  9
$USERI5
 70
     0
  9
$USERR1
 40
0.0
  9
$USERR2
 40
0.0
  9
$USERR3
 40
0.0
  9
$USERR4
 40
0.0
  9
$USERR5
 40
0.0
  9
$WORLDVIEW
 70
     1
  9
$SHADEDGE
 70
     3
  9
$SHADEDIF
 70
    70
  9
$TILEMODE
 70
     1
  9
$MAXACTVP
 70
    16
  9
$PLIMCHECK
 70
     0
  9
$PEXTMIN
 10
1.0000000000000000E+20
 20
1.0000000000000000E+20
 30
1.0000000000000000E+20
  9
$PEXTMAX
 10
-1.0000000000000000E+20
 20
-1.0000000000000000E+20
 30
-1.0000000000000000E+20
  9
$PLIMMIN
 10
-4.4155133922413654
 20
-7.8000021446015353
  9
$PLIMMAX
 10
205.5844866077586062
 20
289.1999978553985216
  9
$UNITMODE
 70
     0
  9
$VISRETAIN
 70
     0
  9
$PLINEGEN
 70
     0
  9
$PSLTSCALE
 70
     0
  0
ENDSEC
  0
SECTION
  2
TABLES
  0
TABLE
  2
VPORT
 70
     1
  0
VPORT
  2
*ACTIVE
 70
     0
 10
0.0
 20
0.0
 11
1.0
 21
1.0
 12
1.089524654826391
 22
-88.7129414694120442
 13
0.0
 23
0.0
 14
1.0
 24
1.0
 15
10.0
 25
10.0
 16
-0.0000000000001137
 26
0.0
 36
594.9553254544276797
 17
923.8076938045046518
 27
216.8950678591480994
 37
-22.9319832874153917
 40
341.9445146098308896
 41
1.7852028639618129
 42
50.0
 43
0.0
 44
0.0
 50
0.0
 51
0.0
 71
     0
 72
  1500
 73
     1
 74
     0
 75
     0
 76
     0
 77
     0
 78
     0
  0
ENDTAB
  0
TABLE
  2
LTYPE
 70
     7
  0
LTYPE
  2
CONTINUOUS
 70
     0
  3
Solid line
 72
    65
 73
     0
 40
0.0
  0
LTYPE
  2
PHANTOM2
 70
     0
  3
Phantom (.5x) ___ _ _ ___ _ _ ___ _ _ ___ _ _
 72
    65
 73
     6
 40
1.25
 49
0.625
 49
-0.125
 49
0.125
 49
-0.125
 49
0.125
 49
-0.125
  0
LTYPE
  2
AUSGEZOGEN
 70
     0
  3
Ausgezogene Linie
 72
    65
 73
     0
 40
0.0
  0
LTYPE
  2
VERDECKT
 70
     0
  3
Verdeckt __ __ __ __ __ __ __ __ __ __ __ __ __
 72
    65
 73
     2
 40
0.375
 49
0.25
 49
-0.125
  0
ENDTAB
  0
TABLE
  2
LAYER
 70
    13
  0
LAYER
  2
0
 70
     0
 62
     7
  6
CONTINUOUS
  0
LAYER
  2
VOLL
 70
     0
 62
     1
  6
CONTINUOUS
  0
LAYER
  2
STEMPEL
 70
     0
 62
     3
  6
CONTINUOUS
  0
LAYER
  2
DEFPOINTS
 70
     0
 62
     7
  6
CONTINUOUS
  0
LAYER
  2
ADSK_ASSOC_ENTITY_BACKUPS
 70
     1
 62
    -7
  6
CONTINUOUS
  0
ENDTAB
  0
TABLE
  2
STYLE
 70
     4
  0
STYLE
  2
STANDARD
 70
     0
 40
0.0
 41
0.8
 50
0.0
 71
     0
 42
3.5
  3
simplex.shx
  4

  0
STYLE
  2
GREEKS
 70
     0
 40
0.0
 41
0.8
 50
0.0
 71
     0
 42
2.5
  3
SIMPLEX.shx
  4

  0
ENDTAB
  0
TABLE
  2
VIEW
 70
     1
  0
ENDTAB
  0
TABLE
  2
UCS
 70
     0
  0
ENDTAB
  0
TABLE
  2
APPID
 70
    35
  0
APPID
  2
ACAD
 70
     0
  0
APPID
  2
ACAD_EXEMPT_FROM_CAD_STANDARDS
 70
     0
  0
APPID
  2
ACAD_NAV_VCDISPLAY
 70
     0
  0
APPID
  2
ACAECLAYERSTANDARD
 70
     0
  0
APPID
  2
ACCMTRANSPARENCY
 70
     0
  0
APPID
  2
ACAD_PSEXT
 70
     0
  0
APPID
  2
GRADIENTCOLOR1ACI
 70
     0
  0
APPID
  2
GRADIENTCOLOR2ACI
 70
     0
  0
APPID
  2
ACAD_MLEADERVER
 70
     0
  0
APPID
  2
ACAD_OBJECT_CHANGE_GUID
 70
     0
  0
APPID
  2
MCAD_NO_VIS
 70
     0
  0
APPID
  2
ACAD_TEMP_GRAPHIC
 70
     0
  0
APPID
  2
ACATTRIBSERVICES
 70
     0
  0
APPID
  2
DESIGNERASSEMBLIES
 70
     0
  0
APPID
  2
ACAD_DSTYLE_DIMJAG
 70
     0
  0
APPID
  2
ACAD_DSTYLE_DIMBREAK
 70
     0
  0
APPID
  2
GENIUS_GENSCREG_15
 70
     0
  0
APPID
  2
GENIUS_GENOBJ-N-SDF_13
 70
     0
  0
APPID
  2
GENIUS_GENODEF_13
 70
     0
  0
APPID
  2
RAK
 70
     0
  0
APPID
  2
ACAUTHENVIRON
 70
     0
  0
APPID
  2
ACDBDYNAMICBLOCKTRUENAME
 70
     0
  0
APPID
  2
ACDBDYNAMICBLOCKGUID
 70
     0
  0
APPID
  2
ACSYNERGY
 70
     0
  0
APPID
  2
SYNERGY_BODY_TBR_ID
 70
     0
  0
APPID
  2
ACAD_VIEW_EDGE_ID
 70
     0
  0
APPID
  2
ACSYNERGYSKETCH
 70
     0
  0
APPID
  2
ACAD_STEPID
 70
     0
  0
APPID
  2
ACAD_MODELDOC_XFORM
 70
     0
  0
APPID
  2
GENIUS_GENDTOL_13
 70
     0
  0
APPID
  2
ACAD_DSTYLE_DIMINSPECT
 70
     0
  0
APPID
  2
ACADANNOMONITORALERTICONDI
 70
     0
  0
APPID
  2
GENIUS_GENDIMSH_14
 70
     0
  0
APPID
  2
ACAD_DSTYLE_DIMTALN
 70
     0
  0
APPID
  2
AcDbAttr
 70
     0
  0
ENDTAB
  0
TABLE
  2
DIMSTYLE
 70
     3
  0
DIMSTYLE
  2
STANDARD
 70
     0
  3

  4

  5

  6

  7

 40
1.0
 41
0.18
 42
0.0625
 43
0.38
 44
0.18
 45
0.0
 46
0.0
 47
0.0
 48
0.0
140
0.18
141
0.09
142
0.0
143
25.3999999999999986
144
1.0
145
0.0
146
1.0
147
0.09
 71
     0
 72
     0
 73
     1
 74
     1
 75
     0
 76
     0
 77
     0
 78
     0
170
     0
171
     2
172
     0
173
     0
174
     0
175
     0
176
     0
177
     0
178
     0
  0
ENDTAB
  0
ENDSEC
  0
SECTION
  2
BLOCKS
  0
BLOCK
  8
0
  2
$MODEL_SPACE
 70
     0
 10
0.0
 20
0.0
 30
0.0
  3
$MODEL_SPACE
  1

  0
ENDBLK
  5
36
  8
0
  0
BLOCK
 67
     1
  8
0
  2
$PAPER_SPACE
 70
     0
 10
0.0
 20
0.0
 30
0.0
  3
$PAPER_SPACE
  1

  0
ENDBLK
  5
34
 67
     1
  8
0
  0
BLOCK
  8
0
  2
*S0
 70
     1
 10
0.0
 20
0.0
 30
0.0
  3
*S0
  1

  0
ENDBLK
  5
FA2
  8
0
  0
BLOCK
  8
0
  2
A$C4A732623
 70
     0
 10
0.0
 20
0.0
 30
0.0
  3
A$C4A732623
  1

  0
CIRCLE
  5
2EFA
  8
0
 10
701.5112652587622506
 20
155.0350682550881061
 30
-0.0000000000001137
 40
24.4100662154420682
  0
CIRCLE
  5
2EFB
  8
0
 10
701.5112652587622506
 20
155.0350682550881061
 30
-0.0000000000001137
 40
25.0003458496272515
  0
POLYLINE
  8
0
  5
2FA8
  66
     1
 10
0.000000
 20
0.000000
 30
0.000000
  70
     8
  0
VERTEX
  8
0
  5
2FA9
 10
755.011
 20
155.035
 30
-1.23200e-13
  70
    32
  0
VERTEX
  8
0
  5
2FAA
 10
755.011
 20
155.046
 30
-1.23200e-13
  70
    32
  0
VERTEX
  8
0
  5
2FAB
 10
755.011
 20
155.057
 30
-1.23200e-13
  70
    32
  0
VERTEX
  8
0
  5
2FAC
 10
755.011
 20
155.067
 30
-1.23200e-13
  70
    32
  0
VERTEX
  8
0
  5
2FAD
 10
755.011
 20
155.078
 30
-1.23200e-13
  70
    32
  0
VERTEX
  8
0
  5
2FAE
 10
755.011
 20
155.089
 30
-1.23200e-13
  70
    32
  0
VERTEX
  8
0
  5
2FAF
 10
755.011
 20
155.099
 30
-1.23200e-13
  70
    32
  0
VERTEX
  8
0
  5
2FB0
 10
755.012
 20
155.110
 30
-1.23200e-13
  70
    32
  0
VERTEX
  8
0
  5
2FB1
 10
755.012
 20
155.121
 30
-1.23200e-13
  70
    32
  0
VERTEX
  8
0
  5
2FB2
 10
755.012
 20
155.132
 30
-1.23200e-13
  70
    32
  0
VERTEX
  8
0
  5
2FB3
 10
755.012
 20
155.143
 30
-1.23200e-13
  70
    32
  0
VERTEX
  8
0
  5
2FB4
 10
755.012
 20
155.153
 30
-1.23200e-13
  70
    32
  0
VERTEX
  8
0
  5
2FB5
 10
755.012
 20
155.164
 30
-1.23200e-13
  70
    32
  0
VERTEX
  8
0
  5
2FB6
 10
755.012
 20
155.175
 30
-1.23200e-13
  70
    32
  0
VERTEX
  8
0
  5
2FB7
 10
755.013
 20
155.186
 30
-1.23200e-13
  70
    32
  0
VERTEX
  8
0
  5
2FB8
 10
755.013
 20
155.196
 30
-1.23200e-13
  70
    32
  0
VERTEX
  8
0
  5
2FB9
 10
755.013
 20
155.207
 30
-1.23200e-13
  70
    32
  0
VERTEX
  8
0
  5
2FBA
 10
755.013
 20
155.218
 30
-1.23200e-13
  70
    32
  0
VERTEX
  8
0
  5
2FBB
 10
755.013
 20
155.229
 30
-1.23200e-13
  70
    32
  0
VERTEX
  8
0
  5
2FBC
 10
755.014
 20
155.240
 30
-1.23200e-13
  70
    32
  0
VERTEX
  8
0
  5
2FBD
 10
755.014
 20
155.250
 30
-1.23200e-13
  70
    32
  0
VERTEX
  8
0
  5
2FBE
 10
755.014
 20
155.261
 30
-1.23200e-13
  70
    32
  0
VERTEX
  8
0
  5
2FBF
 10
755.014
 20
155.272
 30
-1.23200e-13
  70
    32
  0
VERTEX
  8
0
  5
2FC0
 10
755.015
 20
155.283
 30
-1.23200e-13
  70
    32
  0
VERTEX
  8
0
  5
2FC1
 10
755.015
 20
155.294
 30
-1.23200e-13
  70
    32
  0
VERTEX
  8
0
  5
2FC2
 10
755.015
 20
155.305
 30
-1.23200e-13
  70
    32
  0
VERTEX
  8
0
  5
2FC3
 10
755.016
 20
155.315
 30
-1.23200e-13
  70
    32
  0
VERTEX
  8
0
  5
2FC4
 10
755.016
 20
155.326
 30
-1.23200e-13
  70
    32
  0
VERTEX
  8
0
  5
2FC5
 10
755.016
 20
155.337
 30
-1.23200e-13
  70
    32
  0
VERTEX
  8
0
  5
2FC6
 10
755.017
 20
155.348
 30
-1.23200e-13
  70
    32
  0
VERTEX
  8
0
  5
2FC7
 10
755.017
 20
155.359
 30
-1.23200e-13
  70
    32
  0
VERTEX
  8
0
  5
2FC8
 10
755.018
 20
155.370
 30
-1.23200e-13
  70
    32
  0
VERTEX
  8
0
  5
2FC9
 10
755.018
 20
155.381
 30
-1.23200e-13
  70
    32
  0
VERTEX
  8
0
  5
2FCA
 10
755.018
 20
155.391
 30
-1.23200e-13
  70
    32
  0
VERTEX
  8
0
  5
2FCB
 10
755.019
 20
155.402
 30
-1.23200e-13
  70
    32
  0
VERTEX
  8
0
  5
2FCC
 10
755.019
 20
155.413
 30
-1.23200e-13
  70
    32
  0
VERTEX
  8
0
  5
2FCD
 10
755.020
 20
155.424
 30
-1.23200e-13
  70
    32
  0
VERTEX
  8
0
  5
2FCE
 10
755.020
 20
155.435
 30
-1.23200e-13
  70
    32
  0
VERTEX
  8
0
  5
2FCF
 10
755.021
 20
155.446
 30
-1.23200e-13
  70
    32
  0
VERTEX
  8
0
  5
2FD0
 10
755.021
 20
155.457
 30
-1.23200e-13
  70
    32
  0
VERTEX
  8
0
  5
2FD1
 10
755.022
 20
155.468
 30
-1.23200e-13
  70
    32
  0
VERTEX
  8
0
  5
2FD2
 10
755.022
 20
155.478
 30
-1.23200e-13
  70
    32
  0
VERTEX
  8
0
  5
2FD3
 10
755.023
 20
155.489
 30
-1.23200e-13
  70
    32
  0
VERTEX
  8
0
  5
2FD4
 10
755.023
 20
155.500
 30
-1.23200e-13
  70
    32
  0
VERTEX
  8
0
  5
2FD5
 10
755.024
 20
155.511
 30
-1.23200e-13
  70
    32
  0
VERTEX
  8
0
  5
2FD6
 10
755.025
 20
155.522
 30
-1.23200e-13
  70
    32
  0
VERTEX
  8
0
  5
2FD7
 10
755.025
 20
155.533
 30
-1.23200e-13
  70
    32
  0
VERTEX
  8
0
  5
2FD8
 10
755.026
 20
155.544
 30
-1.23200e-13
  70
    32
  0
VERTEX
  8
0
  5
2FD9
 10
755.026
 20
155.555
 30
-1.23200e-13
  70
    32
  0
VERTEX
  8
0
  5
2FDA
 10
755.027
 20
155.566
 30
-1.23200e-13
  70
    32
  0
VERTEX
  8
0
  5
2FDB
 10
755.028
 20
155.577
 30
-1.23200e-13
  70
    32
  0
VERTEX
  8
0
  5
2FDC
 10
755.028
 20
155.587
 30
-1.23200e-13
  70
    32
  0
VERTEX
  8
0
  5
2FDD
 10
755.029
 20
155.598
 30
-1.23200e-13
  70
    32
  0
VERTEX
  8
0
  5
2FDE
 10
755.030
 20
155.609
 30
-1.23200e-13
  70
    32
  0
VERTEX
  8
0
  5
2FDF
 10
755.030
 20
155.620
 30
-1.23200e-13
  70
    32
  0
VERTEX
  8
0
  5
2FE0
 10
755.031
 20
155.631
 30
-1.23200e-13
  70
    32
  0
VERTEX
  8
0
  5
2FE1
 10
755.032
 20
155.642
 30
-1.23200e-13
  70
    32
  0
VERTEX
  8
0
  5
2FE2
 10
755.033
 20
155.653
 30
-1.23200e-13
  70
    32
  0
VERTEX
  8
0
  5
2FE3
 10
755.033
 20
155.664
 30
-1.23200e-13
  70
    32
  0
VERTEX
  8
0
  5
2FE4
 10
755.034
 20
155.675
 30
-1.23200e-13
  70
    32
  0
VERTEX
  8
0
  5
2FE5
 10
755.035
 20
155.686
 30
-1.23200e-13
  70
    32
  0
VERTEX
  8
0
  5
2FE6
 10
755.036
 20
155.697
 30
-1.23200e-13
  70
    32
  0
VERTEX
  8
0
  5
2FE7
 10
755.037
 20
155.708
 30
-1.23200e-13
  70
    32
  0
VERTEX
  8
0
  5
2FE8
 10
755.037
 20
155.719
 30
-1.23200e-13
  70
    32
  0
VERTEX
  8
0
  5
2FE9
 10
755.038
 20
155.730
 30
-1.23200e-13
  70
    32
  0
VERTEX
  8
0
  5
2FEA
 10
755.039
 20
155.740
 30
-1.23200e-13
  70
    32
  0
VERTEX
  8
0
  5
2FEB
 10
755.040
 20
155.751
 30
-1.23200e-13
  70
    32
  0
VERTEX
  8
0
  5
2FEC
 10
755.041
 20
155.762
 30
-1.23200e-13
  70
    32
  0
VERTEX
  8
0
  5
2FED
 10
755.042
 20
155.773
 30
-1.23200e-13
  70
    32
  0
VERTEX
  8
0
  5
2FEE
 10
755.043
 20
155.784
 30
-1.23200e-13
  70
    32
  0
VERTEX
  8
0
  5
2FEF
 10
755.044
 20
155.795
 30
-1.23200e-13
  70
    32
  0
VERTEX
  8
0
  5
2FF0
 10
755.044
 20
155.806
 30
-1.23200e-13
  70
    32
  0
VERTEX
  8
0
  5
2FF1
 10
755.045
 20
155.817
 30
-1.23200e-13
  70
    32
  0
VERTEX
  8
0
  5
2FF2
 10
755.046
 20
155.828
 30
-1.23200e-13
  70
    32
  0
VERTEX
  8
0
  5
2FF3
 10
755.047
 20
155.839
 30
-1.23200e-13
  70
    32
  0
VERTEX
  8
0
  5
2FF4
 10
755.048
 20
155.850
 30
-1.23200e-13
  70
    32
  0
VERTEX
  8
0
  5
2FF5
 10
755.049
 20
155.861
 30
-1.23200e-13
  70
    32
  0
VERTEX
  8
0
  5
2FF6
 10
755.050
 20
155.872
 30
-1.23200e-13
  70
    32
  0
VERTEX
  8
0
  5
2FF7
 10
755.051
 20
155.883
 30
-1.23200e-13
  70
    32
  0
VERTEX
  8
0
  5
2FF8
 10
755.052
 20
155.894
 30
-1.23200e-13
  70
    32
  0
VERTEX
  8
0
  5
2FF9
 10
755.053
 20
155.905
 30
-1.23200e-13
  70
    32
  0
VERTEX
  8
0
  5
2FFA
 10
755.055
 20
155.916
 30
-1.23200e-13
  70
    32
  0
VERTEX
  8
0
  5
2FFB
 10
755.056
 20
155.927
 30
-1.23200e-13
  70
    32
  0
VERTEX
  8
0
  5
2FFC
 10
755.057
 20
155.938
 30
-1.23200e-13
  70
    32
  0
VERTEX
  8
0
  5
2FFD
 10
755.058
 20
155.949
 30
-1.23200e-13
  70
    32
  0
VERTEX
  8
0
  5
2FFE
 10
755.059
 20
155.960
 30
-1.23200e-13
  70
    32
  0
VERTEX
  8
0
  5
2FFF
 10
755.060
 20
155.970
 30
-1.23200e-13
  70
    32
  0
VERTEX
  8
0
  5
3000
 10
755.061
 20
155.981
 30
-1.23200e-13
  70
    32
  0
VERTEX
  8
0
  5
3001
 10
755.062
 20
155.992
 30
-1.23200e-13
  70
    32
  0
VERTEX
  8
0
  5
3002
 10
755.064
 20
156.003
 30
-1.23200e-13
  70
    32
  0
VERTEX
  8
0
  5
3003
 10
755.065
 20
156.014
 30
-1.23200e-13
  70
    32
  0
VERTEX
  8
0
  5
3004
 10
755.066
 20
156.025
 30
-1.23200e-13
  70
    32
  0
VERTEX
  8
0
  5
3005
 10
755.067
 20
156.036
 30
-1.23200e-13
  70
    32
  0
VERTEX
  8
0
  5
3006
 10
755.068
 20
156.047
 30
-1.23200e-13
  70
    32
  0
VERTEX
  8
0
  5
3007
 10
755.070
 20
156.058
 30
-1.23200e-13
  70
    32
  0
VERTEX
  8
0
  5
3008
 10
755.071
 20
156.069
 30
-1.23200e-13
  70
    32
  0
VERTEX
  8
0
  5
3009
 10
755.072
 20
156.080
 30
-1.23200e-13
  70
    32
  0
VERTEX
  8
0
  5
300A
 10
755.073
 20
156.091
 30
-1.23200e-13
  70
    32
  0
VERTEX
  8
0
  5
300B
 10
755.075
 20
156.102
 30
-1.23200e-13
  70
    32
  0
VERTEX
  8
0
  5
300C
 10
755.076
 20
156.113
 30
-1.23200e-13
  70
    32
  0
VERTEX
  8
0
  5
300D
 10
755.077
 20
156.124
 30
-1.23200e-13
  70
    32
  0
VERTEX
  8
0
  5
300E
 10
755.079
 20
156.135
 30
-1.23200e-13
  70
    32
  0
VERTEX
  8
0
  5
300F
 10
755.080
 20
156.146
 30
-1.23200e-13
  70
    32
  0
VERTEX
  8
0
  5
3010
 10
755.081
 20
156.157
 30
-1.23200e-13
  70
    32
  0
VERTEX
  8
0
  5
3011
 10
755.083
 20
156.168
 30
-1.23200e-13
  70
    32
  0
VERTEX
  8
0
  5
3012
 10
755.084
 20
156.179
 30
-1.23200e-13
  70
    32
  0
VERTEX
  8
0
  5
3013
 10
755.086
 20
156.190
 30
-1.23200e-13
  70
    32
  0
VERTEX
  8
0
  5
3014
 10
755.087
 20
156.201
 30
-1.23200e-13
  70
    32
  0
VERTEX
  8
0
  5
3015
 10
755.089
 20
156.212
 30
-1.23200e-13
  70
    32
  0
VERTEX
  8
0
  5
3016
 10
755.090
 20
156.223
 30
-1.23200e-13
  70
    32
  0
VERTEX
  8
0
  5
3017
 10
755.091
 20
156.234
 30
-1.23200e-13
  70
    32
  0
VERTEX
  8
0
  5
3018
 10
755.093
 20
156.244
 30
-1.23200e-13
  70
    32
  0
VERTEX
  8
0
  5
3019
 10
755.094
 20
156.255
 30
-1.23200e-13
  70
    32
  0
VERTEX
  8
0
  5
301A
 10
755.096
 20
156.266
 30
-1.23200e-13
  70
    32
  0
VERTEX
  8
0
  5
301B
 10
755.097
 20
156.277
 30
-1.23200e-13
  70
    32
  0
VERTEX
  8
0
  5
301C
 10
755.099
 20
156.288
 30
-1.23200e-13
  70
    32
  0
VERTEX
  8
0
  5
301D
 10
755.100
 20
156.299
 30
-1.23200e-13
  70
    32
  0
VERTEX
  8
0
  5
301E
 10
755.102
 20
156.310
 30
-1.23200e-13
  70
    32
  0
VERTEX
  8
0
  5
301F
 10
755.104
 20
156.321
 30
-1.23200e-13
  70
    32
  0
VERTEX
  8
0
  5
3020
 10
755.105
 20
156.332
 30
-1.23200e-13
  70
    32
  0
VERTEX
  8
0
  5
3021
 10
755.107
 20
156.343
 30
-1.23200e-13
  70
    32
  0
VERTEX
  8
0
  5
3022
 10
755.108
 20
156.354
 30
-1.23200e-13
  70
    32
  0
VERTEX
  8
0
  5
3023
 10
755.110
 20
156.365
 30
-1.23200e-13
  70
    32
  0
VERTEX
  8
0
  5
3024
 10
755.112
 20
156.376
 30
-1.23200e-13
  70
    32
  0
VERTEX
  8
0
  5
3025
 10
755.113
 20
156.387
 30
-1.23200e-13
  70
    32
  0
VERTEX
  8
0
  5
3026
 10
755.115
 20
156.398
 30
-1.23200e-13
  70
    32
  0
VERTEX
  8
0
  5
3027
 10
755.117
 20
156.409
 30
-1.23200e-13
  70
    32
  0
VERTEX
  8
0
  5
3028
 10
755.118
 20
156.419
 30
-1.23200e-13
  70
    32
  0
VERTEX
  8
0
  5
3029
 10
755.120
 20
156.430
 30
-1.23200e-13
  70
    32
  0
VERTEX
  8
0
  5
302A
 10
755.122
 20
156.441
 30
-1.23200e-13
  70
    32
  0
VERTEX
  8
0
  5
302B
 10
755.124
 20
156.452
 30
-1.23200e-13
  70
    32
  0
VERTEX
  8
0
  5
302C
 10
755.125
 20
156.463
 30
-1.23200e-13
  70
    32
  0
VERTEX
  8
0
  5
302D
 10
755.127
 20
156.474
 30
-1.23200e-13
  70
    32
  0
VERTEX
  8
0
  5
302E
 10
755.129
 20
156.485
 30
-1.23200e-13
  70
    32
  0
VERTEX
  8
0
  5
302F
 10
755.131
 20
156.496
 30
-1.23200e-13
  70
    32
  0
VERTEX
  8
0
  5
3030
 10
755.132
 20
156.507
 30
-1.23200e-13
  70
    32
  0
VERTEX
  8
0
  5
3031
 10
755.134
 20
156.518
 30
-1.23200e-13
  70
    32
  0
VERTEX
  8
0
  5
3032
 10
755.136
 20
156.529
 30
-1.23200e-13
  70
    32
  0
VERTEX
  8
0
  5
3033
 10
755.138
 20
156.540
 30
-1.23200e-13
  70
    32
  0
VERTEX
  8
0
  5
3034
 10
755.140
 20
156.550
 30
-1.23200e-13
  70
    32
  0
VERTEX
  8
0
  5
3035
 10
755.142
 20
156.561
 30
-1.23200e-13
  70
    32
  0
VERTEX
  8
0
  5
3036
 10
755.144
 20
156.572
 30
-1.23200e-13
  70
    32
  0
VERTEX
  8
0
  5
3037
 10
755.145
 20
156.583
 30
-1.23200e-13
  70
    32
  0
VERTEX
  8
0
  5
3038
 10
755.147
 20
156.594
 30
-1.23200e-13
  70
    32
  0
VERTEX
  8
0
  5
3039
 10
755.149
 20
156.605
 30
-1.23200e-13
  70
    32
  0
VERTEX
  8
0
  5
303A
 10
755.151
 20
156.616
 30
-1.23200e-13
  70
    32
  0
VERTEX
  8
0
  5
303B
 10
755.153
 20
156.627
 30
-1.23200e-13
  70
    32
  0
VERTEX
  8
0
  5
303C
 10
755.155
 20
156.637
 30
-1.23200e-13
  70
    32
  0
VERTEX
  8
0
  5
303D
 10
755.157
 20
156.648
 30
-1.23200e-13
  70
    32
  0
VERTEX
  8
0
  5
303E
 10
755.159
 20
156.659
 30
-1.23200e-13
  70
    32
  0
VERTEX
  8
0
  5
303F
 10
755.161
 20
156.670
 30
-1.23200e-13
  70
    32
  0
VERTEX
  8
0
  5
3040
 10
755.163
 20
156.681
 30
-1.23200e-13
  70
    32
  0
VERTEX
  8
0
  5
3041
 10
755.165
 20
156.692
 30
-1.23200e-13
  70
    32
  0
VERTEX
  8
0
  5
3042
 10
755.167
 20
156.703
 30
-1.23200e-13
  70
    32
  0
VERTEX
  8
0
  5
3043
 10
755.169
 20
156.714
 30
-1.23200e-13
  70
    32
  0
VERTEX
  8
0
  5
3044
 10
755.171
 20
156.724
 30
-1.23200e-13
  70
    32
  0
VERTEX
  8
0
  5
3045
 10
755.173
 20
156.735
 30
-1.23200e-13
  70
    32
  0
VERTEX
  8
0
  5
3046
 10
755.175
 20
156.746
 30
-1.23200e-13
  70
    32
  0
VERTEX
  8
0
  5
3047
 10
755.178
 20
156.757
 30
-1.23200e-13
  70
    32
  0
VERTEX
  8
0
  5
3048
 10
755.180
 20
156.768
 30
-1.23200e-13
  70
    32
  0
VERTEX
  8
0
  5
3049
 10
755.182
 20
156.779
 30
-1.23200e-13
  70
    32
  0
VERTEX
  8
0
  5
304A
 10
755.184
 20
156.789
 30
-1.23200e-13
  70
    32
  0
VERTEX
  8
0
  5
304B
 10
755.186
 20
156.800
 30
-1.23200e-13
  70
    32
  0
VERTEX
  8
0
  5
304C
 10
755.188
 20
156.811
 30
-1.23200e-13
  70
    32
  0
VERTEX
  8
0
  5
304D
 10
755.191
 20
156.822
 30
-1.23200e-13
  70
    32
  0
VERTEX
  8
0
  5
304E
 10
755.193
 20
156.833
 30
-1.23200e-13
  70
    32
  0
VERTEX
  8
0
  5
304F
 10
755.195
 20
156.843
 30
-1.23200e-13
  70
    32
  0
VERTEX
  8
0
  5
3050
 10
755.197
 20
156.854
 30
-1.23200e-13
  70
    32
  0
VERTEX
  8
0
  5
3051
 10
755.199
 20
156.865
 30
-1.23200e-13
  70
    32
  0
VERTEX
  8
0
  5
3052
 10
755.202
 20
156.876
 30
-1.23200e-13
  70
    32
  0
VERTEX
  8
0
  5
3053
 10
755.204
 20
156.887
 30
-1.23200e-13
  70
    32
  0
VERTEX
  8
0
  5
3054
 10
755.206
 20
156.897
 30
-1.23200e-13
  70
    32
  0
VERTEX
  8
0
  5
3055
 10
755.208
 20
156.908
 30
-1.23200e-13
  70
    32
  0
VERTEX
  8
0
  5
3056
 10
755.211
 20
156.919
 30
-1.23200e-13
  70
    32
  0
VERTEX
  8
0
  5
3057
 10
755.213
 20
156.930
 30
-1.23200e-13
  70
    32
  0
VERTEX
  8
0
  5
3058
 10
755.215
 20
156.941
 30
-1.23200e-13
  70
    32
  0
VERTEX
  8
0
  5
3059
 10
755.218
 20
156.951
 30
-1.23200e-13
  70
    32
  0
VERTEX
  8
0
  5
305A
 10
755.220
 20
156.962
 30
-1.23200e-13
  70
    32
  0
VERTEX
  8
0
  5
305B
 10
755.222
 20
156.973
 30
-1.23200e-13
  70
    32
  0
VERTEX
  8
0
  5
305C
 10
755.225
 20
156.984
 30
-1.23200e-13
  70
    32
  0
VERTEX
  8
0
  5
305D
 10
755.227
 20
156.994
 30
-1.23200e-13
  70
    32
  0
VERTEX
  8
0
  5
305E
 10
755.230
 20
157.005
 30
-1.23200e-13
  70
    32
  0
VERTEX
  8
0
  5
305F
 10
755.232
 20
157.016
 30
-1.23200e-13
  70
    32
  0
VERTEX
  8
0
  5
3060
 10
755.234
 20
157.027
 30
-1.23200e-13
  70
    32
  0
VERTEX
  8
0
  5
3061
 10
755.237
 20
157.037
 30
-1.23200e-13
  70
    32
  0
VERTEX
  8
0
  5
3062
 10
755.239
 20
157.048
 30
-1.23200e-13
  70
    32
  0
VERTEX
  8
0
  5
3063
 10
755.242
 20
157.059
 30
-1.23200e-13
  70
    32
  0
VERTEX
  8
0
  5
3064
 10
755.244
 20
157.069
 30
-1.23200e-13
  70
    32
  0
VERTEX
  8
0
  5
3065
 10
755.247
 20
157.080
 30
-1.23200e-13
  70
    32
  0
VERTEX
  8
0
  5
3066
 10
755.249
 20
157.091
 30
-1.23200e-13
  70
    32
  0
VERTEX
  8
0
  5
3067
 10
755.252
 20
157.102
 30
-1.23200e-13
  70
    32
  0
VERTEX
  8
0
  5
3068
 10
755.254
 20
157.112
 30
-1.23200e-13
  70
    32
  0
VERTEX
  8
0
  5
3069
 10
755.257
 20
157.123
 30
-1.23200e-13
  70
    32
  0
VERTEX
  8
0
  5
306A
 10
755.259
 20
157.134
 30
-1.23200e-13
  70
    32
  0
VERTEX
  8
0
  5
306B
 10
755.262
 20
157.144
 30
-1.23200e-13
  70
    32
  0
VERTEX
  8
0
  5
306C
 10
755.265
 20
157.155
 30
-1.23200e-13
  70
    32
  0
VERTEX
  8
0
  5
306D
 10
755.267
 20
157.166
 30
-1.23200e-13
  70
    32
  0
VERTEX
  8
0
  5
306E
 10
755.270
 20
157.176
 30
-1.23200e-13
  70
    32
  0
VERTEX
  8
0
  5
306F
 10
755.272
 20
157.187
 30
-1.23200e-13
  70
    32
  0
VERTEX
  8
0
  5
3070
 10
755.275
 20
157.198
 30
-1.23200e-13
  70
    32
  0
VERTEX
  8
0
  5
3071
 10
755.278
 20
157.208
 30
-1.23200e-13
  70
    32
  0
VERTEX
  8
0
  5
3072
 10
755.280
 20
157.219
 30
-1.23200e-13
  70
    32
  0
VERTEX
  8
0
  5
3073
 10
755.283
 20
157.230
 30
-1.23200e-13
  70
    32
  0
VERTEX
  8
0
  5
3074
 10
755.286
 20
157.240
 30
-1.23200e-13
  70
    32
  0
VERTEX
  8
0
  5
3075
 10
755.288
 20
157.251
 30
-1.23200e-13
  70
    32
  0
VERTEX
  8
0
  5
3076
 10
755.291
 20
157.261
 30
-1.23200e-13
  70
    32
  0
VERTEX
  8
0
  5
3077
 10
755.294
 20
157.272
 30
-1.23200e-13
  70
    32
  0
VERTEX
  8
0
  5
3078
 10
755.296
 20
157.283
 30
-1.23200e-13
  70
    32
  0
VERTEX
  8
0
  5
3079
 10
755.299
 20
157.293
 30
-1.23200e-13
  70
    32
  0
VERTEX
  8
0
  5
307A
 10
755.302
 20
157.304
 30
-1.23200e-13
  70
    32
  0
VERTEX
  8
0
  5
307B
 10
755.305
 20
157.314
 30
-1.23200e-13
  70
    32
  0
VERTEX
  8
0
  5
307C
 10
755.307
 20
157.325
 30
-1.23200e-13
  70
    32
  0
VERTEX
  8
0
  5
307D
 10
755.310
 20
157.336
 30
-1.23200e-13
  70
    32
  0
VERTEX
  8
0
  5
307E
 10
755.313
 20
157.346
 30
-1.23200e-13
  70
    32
  0
VERTEX
  8
0
  5
307F
 10
755.316
 20
157.357
 30
-1.23200e-13
  70
    32
  0
VERTEX
  8
0
  5
3080
 10
755.319
 20
157.367
 30
-1.23200e-13
  70
    32
  0
VERTEX
  8
0
  5
3081
 10
755.322
 20
157.378
 30
-1.23200e-13
  70
    32
  0
VERTEX
  8
0
  5
3082
 10
755.324
 20
157.388
 30
-1.23200e-13
  70
    32
  0
VERTEX
  8
0
  5
3083
 10
755.327
 20
157.399
 30
-1.23200e-13
  70
    32
  0
VERTEX
  8
0
  5
3084
 10
755.330
 20
157.409
 30
-1.23200e-13
  70
    32
  0
VERTEX
  8
0
  5
3085
 10
755.333
 20
157.420
 30
-1.23200e-13
  70
    32
  0
VERTEX
  8
0
  5
3086
 10
755.336
 20
157.430
 30
-1.23200e-13
  70
    32
  0
VERTEX
  8
0
  5
3087
 10
755.339
 20
157.441
 30
-1.23200e-13
  70
    32
  0
VERTEX
  8
0
  5
3088
 10
755.342
 20
157.451
 30
-1.23200e-13
  70
    32
  0
VERTEX
  8
0
  5
3089
 10
755.345
 20
157.462
 30
-1.23200e-13
  70
    32
  0
VERTEX
  8
0
  5
308A
 10
755.348
 20
157.472
 30
-1.23200e-13
  70
    32
  0
VERTEX
  8
0
  5
308B
 10
755.351
 20
157.483
 30
-1.23200e-13
  70
    32
  0
VERTEX
  8
0
  5
308C
 10
755.354
 20
157.493
 30
-1.23200e-13
  70
    32
  0
VERTEX
  8
0
  5
308D
 10
755.356
 20
157.504
 30
-1.23200e-13
  70
    32
  0
VERTEX
  8
0
  5
308E
 10
755.359
 20
157.514
 30
-1.23200e-13
  70
    32
  0
VERTEX
  8
0
  5
308F
 10
755.362
 20
157.525
 30
-1.23200e-13
  70
    32
  0
VERTEX
  8
0
  5
3090
 10
755.365
 20
157.535
 30
-1.23200e-13
  70
    32
  0
VERTEX
  8
0
  5
3091
 10
755.369
 20
157.546
 30
-1.23200e-13
  70
    32
  0
VERTEX
  8
0
  5
3092
 10
755.372
 20
157.556
 30
-1.23200e-13
  70
    32
  0
VERTEX
  8
0
  5
3093
 10
755.375
 20
157.567
 30
-1.23200e-13
  70
    32
  0
VERTEX
  8
0
  5
3094
 10
755.378
 20
157.577
 30
-1.23200e-13
  70
    32
  0
VERTEX
  8
0
  5
3095
 10
755.381
 20
157.587
 30
-1.23200e-13
  70
    32
  0
VERTEX
  8
0
  5
3096
 10
755.384
 20
157.598
 30
-1.23200e-13
  70
    32
  0
VERTEX
  8
0
  5
3097
 10
755.387
 20
157.608
 30
-1.23200e-13
  70
    32
  0
VERTEX
  8
0
  5
3098
 10
755.390
 20
157.619
 30
-1.23200e-13
  70
    32
  0
VERTEX
  8
0
  5
3099
 10
755.393
 20
157.629
 30
-1.23200e-13
  70
    32
  0
VERTEX
  8
0
  5
309A
 10
755.396
 20
157.639
 30
-1.23200e-13
  70
    32
  0
VERTEX
  8
0
  5
309B
 10
755.399
 20
157.650
 30
-1.23200e-13
  70
    32
  0
VERTEX
  8
0
  5
309C
 10
755.403
 20
157.660
 30
-1.23200e-13
  70
    32
  0
VERTEX
  8
0
  5
309D
 10
755.406
 20
157.670
 30
-1.23200e-13
  70
    32
  0
VERTEX
  8
0
  5
309E
 10
755.409
 20
157.681
 30
-1.23200e-13
  70
    32
  0
VERTEX
  8
0
  5
309F
 10
755.412
 20
157.691
 30
-1.23200e-13
  70
    32
  0
VERTEX
  8
0
  5
30A0
 10
755.415
 20
157.701
 30
-1.23200e-13
  70
    32
  0
VERTEX
  8
0
  5
30A1
 10
755.418
 20
157.712
 30
-1.23200e-13
  70
    32
  0
VERTEX
  8
0
  5
30A2
 10
755.422
 20
157.722
 30
-1.23200e-13
  70
    32
  0
VERTEX
  8
0
  5
30A3
 10
755.425
 20
157.732
 30
-1.23200e-13
  70
    32
  0
VERTEX
  8
0
  5
30A4
 10
755.428
 20
157.743
 30
-1.23200e-13
  70
    32
  0
VERTEX
  8
0
  5
30A5
 10
755.431
 20
157.753
 30
-1.23200e-13
  70
    32
  0
VERTEX
  8
0
  5
30A6
 10
755.435
 20
157.763
 30
-1.23200e-13
  70
    32
  0
VERTEX
  8
0
  5
30A7
 10
755.438
 20
157.773
 30
-1.23200e-13
  70
    32
  0
VERTEX
  8
0
  5
30A8
 10
755.441
 20
157.784
 30
-1.23200e-13
  70
    32
  0
SEQEND
  8
0
  5
30A9
  0
POLYLINE
  8
0
  5
30AA
  66
     1
 10
0.000000
 20
0.000000
 30
0.000000
  70
     8
  0
VERTEX
  8
0
  5
30AB
 10
755.441
 20
152.286
 30
-1.23200e-13
  70
    32
  0
VERTEX
  8
0
  5
30AC
 10
755.438
 20
152.297
 30
-1.23200e-13
  70
    32
  0
VERTEX
  8
0
  5
30AD
 10
755.435
 20
152.307
 30
-1.23200e-13
  70
    32
  0
VERTEX
  8
0
  5
30AE
 10
755.431
 20
152.317
 30
-1.23200e-13
  70
    32
  0
VERTEX
  8
0
  5
30AF
 10
755.428
 20
152.328
 30
-1.23200e-13
  70
    32
  0
VERTEX
  8
0
  5
30B0
 10
755.425
 20
152.338
 30
-1.23200e-13
  70
    32
  0
VERTEX
  8
0
  5
30B1
 10
755.422
 20
152.348
 30
-1.23200e-13
  70
    32
  0
VERTEX
  8
0
  5
30B2
 10
755.418
 20
152.358
 30
-1.23200e-13
  70
    32
  0
VERTEX
  8
0
  5
30B3
 10
755.415
 20
152.369
 30
-1.23200e-13
  70
    32
  0
VERTEX
  8
0
  5
30B4
 10
755.412
 20
152.379
 30
-1.23200e-13
  70
    32
  0
VERTEX
  8
0
  5
30B5
 10
755.409
 20
152.389
 30
-1.23200e-13
  70
    32
  0
VERTEX
  8
0
  5
30B6
 10
755.406
 20
152.400
 30
-1.23200e-13
  70
    32
  0
VERTEX
  8
0
  5
30B7
 10
755.403
 20
152.410
 30
-1.23200e-13
  70
    32
  0
VERTEX
  8
0
  5
30B8
 10
755.399
 20
152.421
 30
-1.23200e-13
  70
    32
  0
VERTEX
  8
0
  5
30B9
 10
755.396
 20
152.431
 30
-1.23200e-13
  70
    32
  0
VERTEX
  8
0
  5
30BA
 10
755.393
 20
152.441
 30
-1.23200e-13
  70
    32
  0
VERTEX
  8
0
  5
30BB
 10
755.390
 20
152.452
 30
-1.23200e-13
  70
    32
  0
VERTEX
  8
0
  5
30BC
 10
755.387
 20
152.462
 30
-1.23200e-13
  70
    32
  0
VERTEX
  8
0
  5
30BD
 10
755.384
 20
152.472
 30
-1.23200e-13
  70
    32
  0
VERTEX
  8
0
  5
30BE
 10
755.381
 20
152.483
 30
-1.23200e-13
  70
    32
  0
VERTEX
  8
0
  5
30BF
 10
755.378
 20
152.493
 30
-1.23200e-13
  70
    32
  0
VERTEX
  8
0
  5
30C0
 10
755.375
 20
152.504
 30
-1.23200e-13
  70
    32
  0
VERTEX
  8
0
  5
30C1
 10
755.372
 20
152.514
 30
-1.23200e-13
  70
    32
  0
VERTEX
  8
0
  5
30C2
 10
755.369
 20
152.524
 30
-1.23200e-13
  70
    32
  0
VERTEX
  8
0
  5
30C3
 10
755.365
 20
152.535
 30
-1.23200e-13
  70
    32
  0
VERTEX
  8
0
  5
30C4
 10
755.362
 20
152.545
 30
-1.23200e-13
  70
    32
  0
VERTEX
  8
0
  5
30C5
 10
755.359
 20
152.556
 30
-1.23200e-13
  70
    32
  0
VERTEX
  8
0
  5
30C6
 10
755.356
 20
152.566
 30
-1.23200e-13
  70
    32
  0
VERTEX
  8
0
  5
30C7
 10
755.354
 20
152.577
 30
-1.23200e-13
  70
    32
  0
VERTEX
  8
0
  5
30C8
 10
755.351
 20
152.587
 30
-1.23200e-13
  70
    32
  0
VERTEX
  8
0
  5
30C9
 10
755.348
 20
152.598
 30
-1.23200e-13
  70
    32
  0
VERTEX
  8
0
  5
30CA
 10
755.345
 20
152.608
 30
-1.23200e-13
  70
    32
  0
VERTEX
  8
0
  5
30CB
 10
755.342
 20
152.619
 30
-1.23200e-13
  70
    32
  0
VERTEX
  8
0
  5
30CC
 10
755.339
 20
152.629
 30
-1.23200e-13
  70
    32
  0
VERTEX
  8
0
  5
30CD
 10
755.336
 20
152.640
 30
-1.23200e-13
  70
    32
  0
VERTEX
  8
0
  5
30CE
 10
755.333
 20
152.650
 30
-1.23200e-13
  70
    32
  0
VERTEX
  8
0
  5
30CF
 10
755.330
 20
152.661
 30
-1.23200e-13
  70
    32
  0
VERTEX
  8
0
  5
30D0
 10
755.327
 20
152.671
 30
-1.23200e-13
  70
    32
  0
VERTEX
  8
0
  5
30D1
 10
755.324
 20
152.682
 30
-1.23200e-13
  70
    32
  0
VERTEX
  8
0
  5
30D2
 10
755.322
 20
152.692
 30
-1.23200e-13
  70
    32
  0
VERTEX
  8
0
  5
30D3
 10
755.319
 20
152.703
 30
-1.23200e-13
  70
    32
  0
VERTEX
  8
0
  5
30D4
 10
755.316
 20
152.713
 30
-1.23200e-13
  70
    32
  0
VERTEX
  8
0
  5
30D5
 10
755.313
 20
152.724
 30
-1.23200e-13
  70
    32
  0
VERTEX
  8
0
  5
30D6
 10
755.310
 20
152.735
 30
-1.23200e-13
  70
    32
  0
VERTEX
  8
0
  5
30D7
 10
755.307
 20
152.745
 30
-1.23200e-13
  70
    32
  0
VERTEX
  8
0
  5
30D8
 10
755.305
 20
152.756
 30
-1.23200e-13
  70
    32
  0
VERTEX
  8
0
  5
30D9
 10
755.302
 20
152.766
 30
-1.23200e-13
  70
    32
  0
VERTEX
  8
0
  5
30DA
 10
755.299
 20
152.777
 30
-1.23200e-13
  70
    32
  0
VERTEX
  8
0
  5
30DB
 10
755.296
 20
152.787
 30
-1.23200e-13
  70
    32
  0
VERTEX
  8
0
  5
30DC
 10
755.294
 20
152.798
 30
-1.23200e-13
  70
    32
  0
VERTEX
  8
0
  5
30DD
 10
755.291
 20
152.809
 30
-1.23200e-13
  70
    32
  0
VERTEX
  8
0
  5
30DE
 10
755.288
 20
152.819
 30
-1.23200e-13
  70
    32
  0
VERTEX
  8
0
  5
30DF
 10
755.286
 20
152.830
 30
-1.23200e-13
  70
    32
  0
VERTEX
  8
0
  5
30E0
 10
755.283
 20
152.841
 30
-1.23200e-13
  70
    32
  0
VERTEX
  8
0
  5
30E1
 10
755.280
 20
152.851
 30
-1.23200e-13
  70
    32
  0
VERTEX
  8
0
  5
30E2
 10
755.278
 20
152.862
 30
-1.23200e-13
  70
    32
  0
VERTEX
  8
0
  5
30E3
 10
755.275
 20
152.872
 30
-1.23200e-13
  70
    32
  0
VERTEX
  8
0
  5
30E4
 10
755.272
 20
152.883
 30
-1.23200e-13
  70
    32
  0
VERTEX
  8
0
  5
30E5
 10
755.270
 20
152.894
 30
-1.23200e-13
  70
    32
  0
VERTEX
  8
0
  5
30E6
 10
755.267
 20
152.904
 30
-1.23200e-13
  70
    32
  0
VERTEX
  8
0
  5
30E7
 10
755.265
 20
152.915
 30
-1.23200e-13
  70
    32
  0
VERTEX
  8
0
  5
30E8
 10
755.262
 20
152.926
 30
-1.23200e-13
  70
    32
  0
VERTEX
  8
0
  5
30E9
 10
755.259
 20
152.936
 30
-1.23200e-13
  70
    32
  0
VERTEX
  8
0
  5
30EA
 10
755.257
 20
152.947
 30
-1.23200e-13
  70
    32
  0
VERTEX
  8
0
  5
30EB
 10
755.254
 20
152.958
 30
-1.23200e-13
  70
    32
  0
VERTEX
  8
0
  5
30EC
 10
755.252
 20
152.969
 30
-1.23200e-13
  70
    32
  0
VERTEX
  8
0
  5
30ED
 10
755.249
 20
152.979
 30
-1.23200e-13
  70
    32
  0
VERTEX
  8
0
  5
30EE
 10
755.247
 20
152.990
 30
-1.23200e-13
  70
    32
  0
VERTEX
  8
0
  5
30EF
 10
755.244
 20
153.001
 30
-1.23200e-13
  70
    32
  0
VERTEX
  8
0
  5
30F0
 10
755.242
 20
153.011
 30
-1.23200e-13
  70
    32
  0
VERTEX
  8
0
  5
30F1
 10
755.239
 20
153.022
 30
-1.23200e-13
  70
    32
  0
VERTEX
  8
0
  5
30F2
 10
755.237
 20
153.033
 30
-1.23200e-13
  70
    32
  0
VERTEX
  8
0
  5
30F3
 10
755.234
 20
153.044
 30
-1.23200e-13
  70
    32
  0
VERTEX
  8
0
  5
30F4
 10
755.232
 20
153.054
 30
-1.23200e-13
  70
    32
  0
VERTEX
  8
0
  5
30F5
 10
755.230
 20
153.065
 30
-1.23200e-13
  70
    32
  0
VERTEX
  8
0
  5
30F6
 10
755.227
 20
153.076
 30
-1.23200e-13
  70
    32
  0
VERTEX
  8
0
  5
30F7
 10
755.225
 20
153.087
 30
-1.23200e-13
  70
    32
  0
VERTEX
  8
0
  5
30F8
 10
755.222
 20
153.097
 30
-1.23200e-13
  70
    32
  0
VERTEX
  8
0
  5
30F9
 10
755.220
 20
153.108
 30
-1.23200e-13
  70
    32
  0
VERTEX
  8
0
  5
30FA
 10
755.218
 20
153.119
 30
-1.23200e-13
  70
    32
  0
VERTEX
  8
0
  5
30FB
 10
755.215
 20
153.130
 30
-1.23200e-13
  70
    32
  0
VERTEX
  8
0
  5
30FC
 10
755.213
 20
153.140
 30
-1.23200e-13
  70
    32
  0
VERTEX
  8
0
  5
30FD
 10
755.211
 20
153.151
 30
-1.23200e-13
  70
    32
  0
VERTEX
  8
0
  5
30FE
 10
755.208
 20
153.162
 30
-1.23200e-13
  70
    32
  0
VERTEX
  8
0
  5
30FF
 10
755.206
 20
153.173
 30
-1.23200e-13
  70
    32
  0
VERTEX
  8
0
  5
3100
 10
755.204
 20
153.183
 30
-1.23200e-13
  70
    32
  0
VERTEX
  8
0
  5
3101
 10
755.202
 20
153.194
 30
-1.23200e-13
  70
    32
  0
VERTEX
  8
0
  5
3102
 10
755.199
 20
153.205
 30
-1.23200e-13
  70
    32
  0
VERTEX
  8
0
  5
3103
 10
755.197
 20
153.216
 30
-1.23200e-13
  70
    32
  0
VERTEX
  8
0
  5
3104
 10
755.195
 20
153.227
 30
-1.23200e-13
  70
    32
  0
VERTEX
  8
0
  5
3105
 10
755.193
 20
153.237
 30
-1.23200e-13
  70
    32
  0
VERTEX
  8
0
  5
3106
 10
755.191
 20
153.248
 30
-1.23200e-13
  70
    32
  0
VERTEX
  8
0
  5
3107
 10
755.188
 20
153.259
 30
-1.23200e-13
  70
    32
  0
VERTEX
  8
0
  5
3108
 10
755.186
 20
153.270
 30
-1.23200e-13
  70
    32
  0
VERTEX
  8
0
  5
3109
 10
755.184
 20
153.281
 30
-1.23200e-13
  70
    32
  0
VERTEX
  8
0
  5
310A
 10
755.182
 20
153.292
 30
-1.23200e-13
  70
    32
  0
VERTEX
  8
0
  5
310B
 10
755.180
 20
153.302
 30
-1.23200e-13
  70
    32
  0
VERTEX
  8
0
  5
310C
 10
755.178
 20
153.313
 30
-1.23200e-13
  70
    32
  0
VERTEX
  8
0
  5
310D
 10
755.175
 20
153.324
 30
-1.23200e-13
  70
    32
  0
VERTEX
  8
0
  5
310E
 10
755.173
 20
153.335
 30
-1.23200e-13
  70
    32
  0
VERTEX
  8
0
  5
310F
 10
755.171
 20
153.346
 30
-1.23200e-13
  70
    32
  0
VERTEX
  8
0
  5
3110
 10
755.169
 20
153.357
 30
-1.23200e-13
  70
    32
  0
VERTEX
  8
0
  5
3111
 10
755.167
 20
153.367
 30
-1.23200e-13
  70
    32
  0
VERTEX
  8
0
  5
3112
 10
755.165
 20
153.378
 30
-1.23200e-13
  70
    32
  0
VERTEX
  8
0
  5
3113
 10
755.163
 20
153.389
 30
-1.23200e-13
  70
    32
  0
VERTEX
  8
0
  5
3114
 10
755.161
 20
153.400
 30
-1.23200e-13
  70
    32
  0
VERTEX
  8
0
  5
3115
 10
755.159
 20
153.411
 30
-1.23200e-13
  70
    32
  0
VERTEX
  8
0
  5
3116
 10
755.157
 20
153.422
 30
-1.23200e-13
  70
    32
  0
VERTEX
  8
0
  5
3117
 10
755.155
 20
153.433
 30
-1.23200e-13
  70
    32
  0
VERTEX
  8
0
  5
3118
 10
755.153
 20
153.444
 30
-1.23200e-13
  70
    32
  0
VERTEX
  8
0
  5
3119
 10
755.151
 20
153.454
 30
-1.23200e-13
  70
    32
  0
VERTEX
  8
0
  5
311A
 10
755.149
 20
153.465
 30
-1.23200e-13
  70
    32
  0
VERTEX
  8
0
  5
311B
 10
755.147
 20
153.476
 30
-1.23200e-13
  70
    32
  0
VERTEX
  8
0
  5
311C
 10
755.145
 20
153.487
 30
-1.23200e-13
  70
    32
  0
VERTEX
  8
0
  5
311D
 10
755.144
 20
153.498
 30
-1.23200e-13
  70
    32
  0
VERTEX
  8
0
  5
311E
 10
755.142
 20
153.509
 30
-1.23200e-13
  70
    32
  0
VERTEX
  8
0
  5
311F
 10
755.140
 20
153.520
 30
-1.23200e-13
  70
    32
  0
VERTEX
  8
0
  5
3120
 10
755.138
 20
153.531
 30
-1.23200e-13
  70
    32
  0
VERTEX
  8
0
  5
3121
 10
755.136
 20
153.542
 30
-1.23200e-13
  70
    32
  0
VERTEX
  8
0
  5
3122
 10
755.134
 20
153.552
 30
-1.23200e-13
  70
    32
  0
VERTEX
  8
0
  5
3123
 10
755.132
 20
153.563
 30
-1.23200e-13
  70
    32
  0
VERTEX
  8
0
  5
3124
 10
755.131
 20
153.574
 30
-1.23200e-13
  70
    32
  0
VERTEX
  8
0
  5
3125
 10
755.129
 20
153.585
 30
-1.23200e-13
  70
    32
  0
VERTEX
  8
0
  5
3126
 10
755.127
 20
153.596
 30
-1.23200e-13
  70
    32
  0
VERTEX
  8
0
  5
3127
 10
755.125
 20
153.607
 30
-1.23200e-13
  70
    32
  0
VERTEX
  8
0
  5
3128
 10
755.124
 20
153.618
 30
-1.23200e-13
  70
    32
  0
VERTEX
  8
0
  5
3129
 10
755.122
 20
153.629
 30
-1.23200e-13
  70
    32
  0
VERTEX
  8
0
  5
312A
 10
755.120
 20
153.640
 30
-1.23200e-13
  70
    32
  0
VERTEX
  8
0
  5
312B
 10
755.118
 20
153.651
 30
-1.23200e-13
  70
    32
  0
VERTEX
  8
0
  5
312C
 10
755.117
 20
153.662
 30
-1.23200e-13
  70
    32
  0
VERTEX
  8
0
  5
312D
 10
755.115
 20
153.673
 30
-1.23200e-13
  70
    32
  0
VERTEX
  8
0
  5
312E
 10
755.113
 20
153.683
 30
-1.23200e-13
  70
    32
  0
VERTEX
  8
0
  5
312F
 10
755.112
 20
153.694
 30
-1.23200e-13
  70
    32
  0
VERTEX
  8
0
  5
3130
 10
755.110
 20
153.705
 30
-1.23200e-13
  70
    32
  0
VERTEX
  8
0
  5
3131
 10
755.108
 20
153.716
 30
-1.23200e-13
  70
    32
  0
VERTEX
  8
0
  5
3132
 10
755.107
 20
153.727
 30
-1.23200e-13
  70
    32
  0
VERTEX
  8
0
  5
3133
 10
755.105
 20
153.738
 30
-1.23200e-13
  70
    32
  0
VERTEX
  8
0
  5
3134
 10
755.104
 20
153.749
 30
-1.23200e-13
  70
    32
  0
VERTEX
  8
0
  5
3135
 10
755.102
 20
153.760
 30
-1.23200e-13
  70
    32
  0
VERTEX
  8
0
  5
3136
 10
755.100
 20
153.771
 30
-1.23200e-13
  70
    32
  0
VERTEX
  8
0
  5
3137
 10
755.099
 20
153.782
 30
-1.23200e-13
  70
    32
  0
VERTEX
  8
0
  5
3138
 10
755.097
 20
153.793
 30
-1.23200e-13
  70
    32
  0
VERTEX
  8
0
  5
3139
 10
755.096
 20
153.804
 30
-1.23200e-13
  70
    32
  0
VERTEX
  8
0
  5
313A
 10
755.094
 20
153.815
 30
-1.23200e-13
  70
    32
  0
VERTEX
  8
0
  5
313B
 10
755.093
 20
153.826
 30
-1.23200e-13
  70
    32
  0
VERTEX
  8
0
  5
313C
 10
755.091
 20
153.837
 30
-1.23200e-13
  70
    32
  0
VERTEX
  8
0
  5
313D
 10
755.090
 20
153.848
 30
-1.23200e-13
  70
    32
  0
VERTEX
  8
0
  5
313E
 10
755.089
 20
153.859
 30
-1.23200e-13
  70
    32
  0
VERTEX
  8
0
  5
313F
 10
755.087
 20
153.869
 30
-1.23200e-13
  70
    32
  0
VERTEX
  8
0
  5
3140
 10
755.086
 20
153.880
 30
-1.23200e-13
  70
    32
  0
VERTEX
  8
0
  5
3141
 10
755.084
 20
153.891
 30
-1.23200e-13
  70
    32
  0
VERTEX
  8
0
  5
3142
 10
755.083
 20
153.902
 30
-1.23200e-13
  70
    32
  0
VERTEX
  8
0
  5
3143
 10
755.081
 20
153.913
 30
-1.23200e-13
  70
    32
  0
VERTEX
  8
0
  5
3144
 10
755.080
 20
153.924
 30
-1.23200e-13
  70
    32
  0
VERTEX
  8
0
  5
3145
 10
755.079
 20
153.935
 30
-1.23200e-13
  70
    32
  0
VERTEX
  8
0
  5
3146
 10
755.077
 20
153.946
 30
-1.23200e-13
  70
    32
  0
VERTEX
  8
0
  5
3147
 10
755.076
 20
153.957
 30
-1.23200e-13
  70
    32
  0
VERTEX
  8
0
  5
3148
 10
755.075
 20
153.968
 30
-1.23200e-13
  70
    32
  0
VERTEX
  8
0
  5
3149
 10
755.073
 20
153.979
 30
-1.23200e-13
  70
    32
  0
VERTEX
  8
0
  5
314A
 10
755.072
 20
153.990
 30
-1.23200e-13
  70
    32
  0
VERTEX
  8
0
  5
314B
 10
755.071
 20
154.001
 30
-1.23200e-13
  70
    32
  0
VERTEX
  8
0
  5
314C
 10
755.070
 20
154.012
 30
-1.23200e-13
  70
    32
  0
VERTEX
  8
0
  5
314D
 10
755.068
 20
154.023
 30
-1.23200e-13
  70
    32
  0
VERTEX
  8
0
  5
314E
 10
755.067
 20
154.034
 30
-1.23200e-13
  70
    32
  0
VERTEX
  8
0
  5
314F
 10
755.066
 20
154.045
 30
-1.23200e-13
  70
    32
  0
VERTEX
  8
0
  5
3150
 10
755.065
 20
154.056
 30
-1.23200e-13
  70
    32
  0
VERTEX
  8
0
  5
3151
 10
755.064
 20
154.067
 30
-1.23200e-13
  70
    32
  0
VERTEX
  8
0
  5
3152
 10
755.062
 20
154.078
 30
-1.23200e-13
  70
    32
  0
VERTEX
  8
0
  5
3153
 10
755.061
 20
154.089
 30
-1.23200e-13
  70
    32
  0
VERTEX
  8
0
  5
3154
 10
755.060
 20
154.100
 30
-1.23200e-13
  70
    32
  0
VERTEX
  8
0
  5
3155
 10
755.059
 20
154.111
 30
-1.23200e-13
  70
    32
  0
VERTEX
  8
0
  5
3156
 10
755.058
 20
154.122
 30
-1.23200e-13
  70
    32
  0
VERTEX
  8
0
  5
3157
 10
755.057
 20
154.133
 30
-1.23200e-13
  70
    32
  0
VERTEX
  8
0
  5
3158
 10
755.056
 20
154.143
 30
-1.23200e-13
  70
    32
  0
VERTEX
  8
0
  5
3159
 10
755.055
 20
154.154
 30
-1.23200e-13
  70
    32
  0
VERTEX
  8
0
  5
315A
 10
755.053
 20
154.165
 30
-1.23200e-13
  70
    32
  0
VERTEX
  8
0
  5
315B
 10
755.052
 20
154.176
 30
-1.23200e-13
  70
    32
  0
VERTEX
  8
0
  5
315C
 10
755.051
 20
154.187
 30
-1.23200e-13
  70
    32
  0
VERTEX
  8
0
  5
315D
 10
755.050
 20
154.198
 30
-1.23200e-13
  70
    32
  0
VERTEX
  8
0
  5
315E
 10
755.049
 20
154.209
 30
-1.23200e-13
  70
    32
  0
VERTEX
  8
0
  5
315F
 10
755.048
 20
154.220
 30
-1.23200e-13
  70
    32
  0
VERTEX
  8
0
  5
3160
 10
755.047
 20
154.231
 30
-1.23200e-13
  70
    32
  0
VERTEX
  8
0
  5
3161
 10
755.046
 20
154.242
 30
-1.23200e-13
  70
    32
  0
VERTEX
  8
0
  5
3162
 10
755.045
 20
154.253
 30
-1.23200e-13
  70
    32
  0
VERTEX
  8
0
  5
3163
 10
755.044
 20
154.264
 30
-1.23200e-13
  70
    32
  0
VERTEX
  8
0
  5
3164
 10
755.044
 20
154.275
 30
-1.23200e-13
  70
    32
  0
VERTEX
  8
0
  5
3165
 10
755.043
 20
154.286
 30
-1.23200e-13
  70
    32
  0
VERTEX
  8
0
  5
3166
 10
755.042
 20
154.297
 30
-1.23200e-13
  70
    32
  0
VERTEX
  8
0
  5
3167
 10
755.041
 20
154.308
 30
-1.23200e-13
  70
    32
  0
VERTEX
  8
0
  5
3168
 10
755.040
 20
154.319
 30
-1.23200e-13
  70
    32
  0
VERTEX
  8
0
  5
3169
 10
755.039
 20
154.330
 30
-1.23200e-13
  70
    32
  0
VERTEX
  8
0
  5
316A
 10
755.038
 20
154.341
 30
-1.23200e-13
  70
    32
  0
VERTEX
  8
0
  5
316B
 10
755.037
 20
154.352
 30
-1.23200e-13
  70
    32
  0
VERTEX
  8
0
  5
316C
 10
755.037
 20
154.362
 30
-1.23200e-13
  70
    32
  0
VERTEX
  8
0
  5
316D
 10
755.036
 20
154.373
 30
-1.23200e-13
  70
    32
  0
VERTEX
  8
0
  5
316E
 10
755.035
 20
154.384
 30
-1.23200e-13
  70
    32
  0
VERTEX
  8
0
  5
316F
 10
755.034
 20
154.395
 30
-1.23200e-13
  70
    32
  0
VERTEX
  8
0
  5
3170
 10
755.033
 20
154.406
 30
-1.23200e-13
  70
    32
  0
VERTEX
  8
0
  5
3171
 10
755.033
 20
154.417
 30
-1.23200e-13
  70
    32
  0
VERTEX
  8
0
  5
3172
 10
755.032
 20
154.428
 30
-1.23200e-13
  70
    32
  0
VERTEX
  8
0
  5
3173
 10
755.031
 20
154.439
 30
-1.23200e-13
  70
    32
  0
VERTEX
  8
0
  5
3174
 10
755.030
 20
154.450
 30
-1.23200e-13
  70
    32
  0
VERTEX
  8
0
  5
3175
 10
755.030
 20
154.461
 30
-1.23200e-13
  70
    32
  0
VERTEX
  8
0
  5
3176
 10
755.029
 20
154.472
 30
-1.23200e-13
  70
    32
  0
VERTEX
  8
0
  5
3177
 10
755.028
 20
154.483
 30
-1.23200e-13
  70
    32
  0
VERTEX
  8
0
  5
3178
 10
755.028
 20
154.494
 30
-1.23200e-13
  70
    32
  0
VERTEX
  8
0
  5
3179
 10
755.027
 20
154.505
 30
-1.23200e-13
  70
    32
  0
VERTEX
  8
0
  5
317A
 10
755.026
 20
154.515
 30
-1.23200e-13
  70
    32
  0
VERTEX
  8
0
  5
317B
 10
755.026
 20
154.526
 30
-1.23200e-13
  70
    32
  0
VERTEX
  8
0
  5
317C
 10
755.025
 20
154.537
 30
-1.23200e-13
  70
    32
  0
VERTEX
  8
0
  5
317D
 10
755.025
 20
154.548
 30
-1.23200e-13
  70
    32
  0
VERTEX
  8
0
  5
317E
 10
755.024
 20
154.559
 30
-1.23200e-13
  70
    32
  0
VERTEX
  8
0
  5
317F
 10
755.023
 20
154.570
 30
-1.23200e-13
  70
    32
  0
VERTEX
  8
0
  5
3180
 10
755.023
 20
154.581
 30
-1.23200e-13
  70
    32
  0
VERTEX
  8
0
  5
3181
 10
755.022
 20
154.592
 30
-1.23200e-13
  70
    32
  0
VERTEX
  8
0
  5
3182
 10
755.022
 20
154.603
 30
-1.23200e-13
  70
    32
  0
VERTEX
  8
0
  5
3183
 10
755.021
 20
154.613
 30
-1.23200e-13
  70
    32
  0
VERTEX
  8
0
  5
3184
 10
755.021
 20
154.624
 30
-1.23200e-13
  70
    32
  0
VERTEX
  8
0
  5
3185
 10
755.020
 20
154.635
 30
-1.23200e-13
  70
    32
  0
VERTEX
  8
0
  5
3186
 10
755.020
 20
154.646
 30
-1.23200e-13
  70
    32
  0
VERTEX
  8
0
  5
3187
 10
755.019
 20
154.657
 30
-1.23200e-13
  70
    32
  0
VERTEX
  8
0
  5
3188
 10
755.019
 20
154.668
 30
-1.23200e-13
  70
    32
  0
VERTEX
  8
0
  5
3189
 10
755.018
 20
154.679
 30
-1.23200e-13
  70
    32
  0
VERTEX
  8
0
  5
318A
 10
755.018
 20
154.690
 30
-1.23200e-13
  70
    32
  0
VERTEX
  8
0
  5
318B
 10
755.018
 20
154.700
 30
-1.23200e-13
  70
    32
  0
VERTEX
  8
0
  5
318C
 10
755.017
 20
154.711
 30
-1.23200e-13
  70
    32
  0
VERTEX
  8
0
  5
318D
 10
755.017
 20
154.722
 30
-1.23200e-13
  70
    32
  0
VERTEX
  8
0
  5
318E
 10
755.016
 20
154.733
 30
-1.23200e-13
  70
    32
  0
VERTEX
  8
0
  5
318F
 10
755.016
 20
154.744
 30
-1.23200e-13
  70
    32
  0
VERTEX
  8
0
  5
3190
 10
755.016
 20
154.755
 30
-1.23200e-13
  70
    32
  0
VERTEX
  8
0
  5
3191
 10
755.015
 20
154.766
 30
-1.23200e-13
  70
    32
  0
VERTEX
  8
0
  5
3192
 10
755.015
 20
154.776
 30
-1.23200e-13
  70
    32
  0
VERTEX
  8
0
  5
3193
 10
755.015
 20
154.787
 30
-1.23200e-13
  70
    32
  0
VERTEX
  8
0
  5
3194
 10
755.014
 20
154.798
 30
-1.23200e-13
  70
    32
  0
VERTEX
  8
0
  5
3195
 10
755.014
 20
154.809
 30
-1.23200e-13
  70
    32
  0
VERTEX
  8
0
  5
3196
 10
755.014
 20
154.820
 30
-1.23200e-13
  70
    32
  0
VERTEX
  8
0
  5
3197
 10
755.014
 20
154.830
 30
-1.23200e-13
  70
    32
  0
VERTEX
  8
0
  5
3198
 10
755.013
 20
154.841
 30
-1.23200e-13
  70
    32
  0
VERTEX
  8
0
  5
3199
 10
755.013
 20
154.852
 30
-1.23200e-13
  70
    32
  0
VERTEX
  8
0
  5
319A
 10
755.013
 20
154.863
 30
-1.23200e-13
  70
    32
  0
VERTEX
  8
0
  5
319B
 10
755.013
 20
154.874
 30
-1.23200e-13
  70
    32
  0
VERTEX
  8
0
  5
319C
 10
755.013
 20
154.884
 30
-1.23200e-13
  70
    32
  0
VERTEX
  8
0
  5
319D
 10
755.012
 20
154.895
 30
-1.23200e-13
  70
    32
  0
VERTEX
  8
0
  5
319E
 10
755.012
 20
154.906
 30
-1.23200e-13
  70
    32
  0
VERTEX
  8
0
  5
319F
 10
755.012
 20
154.917
 30
-1.23200e-13
  70
    32
  0
VERTEX
  8
0
  5
31A0
 10
755.012
 20
154.928
 30
-1.23200e-13
  70
    32
  0
VERTEX
  8
0
  5
31A1
 10
755.012
 20
154.938
 30
-1.23200e-13
  70
    32
  0
VERTEX
  8
0
  5
31A2
 10
755.012
 20
154.949
 30
-1.23200e-13
  70
    32
  0
VERTEX
  8
0
  5
31A3
 10
755.012
 20
154.960
 30
-1.23200e-13
  70
    32
  0
VERTEX
  8
0
  5
31A4
 10
755.011
 20
154.971
 30
-1.23200e-13
  70
    32
  0
VERTEX
  8
0
  5
31A5
 10
755.011
 20
154.981
 30
-1.23200e-13
  70
    32
  0
VERTEX
  8
0
  5
31A6
 10
755.011
 20
154.992
 30
-1.23200e-13
  70
    32
  0
VERTEX
  8
0
  5
31A7
 10
755.011
 20
155.003
 30
-1.23200e-13
  70
    32
  0
VERTEX
  8
0
  5
31A8
 10
755.011
 20
155.014
 30
-1.23200e-13
  70
    32
  0
VERTEX
  8
0
  5
31A9
 10
755.011
 20
155.024
 30
-1.23200e-13
  70
    32
  0
VERTEX
  8
0
  5
31AA
 10
755.011
 20
155.035
 30
-1.23200e-13
  70
    32
  0
SEQEND
  8
0
  5
31AB
  0
ARC
  5
2EFE
  8
0
 10
764.0112652587622506
 20
155.0350682550881061
 30
-0.0000000000001279
 40
8.9999999999999751
 50
197.7825929444740893
 51
162.2174070555257117
  0
POLYLINE
  8
0
  5
31AC
  66
     1
 10
0.000000
 20
0.000000
 30
0.000000
  70
     8
  0
VERTEX
  8
0
  5
31AD
 10
648.011
 20
155.035
 30
-1.05700e-13
  70
    32
  0
VERTEX
  8
0
  5
31AE
 10
648.011
 20
155.024
 30
-1.05700e-13
  70
    32
  0
VERTEX
  8
0
  5
31AF
 10
648.011
 20
155.014
 30
-1.05700e-13
  70
    32
  0
VERTEX
  8
0
  5
31B0
 10
648.011
 20
155.003
 30
-1.05700e-13
  70
    32
  0
VERTEX
  8
0
  5
31B1
 10
648.011
 20
154.992
 30
-1.05700e-13
  70
    32
  0
VERTEX
  8
0
  5
31B2
 10
648.011
 20
154.981
 30
-1.05700e-13
  70
    32
  0
VERTEX
  8
0
  5
31B3
 10
648.011
 20
154.971
 30
-1.05700e-13
  70
    32
  0
VERTEX
  8
0
  5
31B4
 10
648.011
 20
154.960
 30
-1.05700e-13
  70
    32
  0
VERTEX
  8
0
  5
31B5
 10
648.011
 20
154.949
 30
-1.05700e-13
  70
    32
  0
VERTEX
  8
0
  5
31B6
 10
648.011
 20
154.938
 30
-1.05700e-13
  70
    32
  0
VERTEX
  8
0
  5
31B7
 10
648.011
 20
154.928
 30
-1.05700e-13
  70
    32
  0
VERTEX
  8
0
  5
31B8
 10
648.010
 20
154.917
 30
-1.05700e-13
  70
    32
  0
VERTEX
  8
0
  5
31B9
 10
648.010
 20
154.906
 30
-1.05700e-13
  70
    32
  0
VERTEX
  8
0
  5
31BA
 10
648.010
 20
154.895
 30
-1.05700e-13
  70
    32
  0
VERTEX
  8
0
  5
31BB
 10
648.010
 20
154.884
 30
-1.05700e-13
  70
    32
  0
VERTEX
  8
0
  5
31BC
 10
648.010
 20
154.874
 30
-1.05700e-13
  70
    32
  0
VERTEX
  8
0
  5
31BD
 10
648.010
 20
154.863
 30
-1.05700e-13
  70
    32
  0
VERTEX
  8
0
  5
31BE
 10
648.009
 20
154.852
 30
-1.05700e-13
  70
    32
  0
VERTEX
  8
0
  5
31BF
 10
648.009
 20
154.841
 30
-1.05700e-13
  70
    32
  0
VERTEX
  8
0
  5
31C0
 10
648.009
 20
154.830
 30
-1.05700e-13
  70
    32
  0
VERTEX
  8
0
  5
31C1
 10
648.009
 20
154.820
 30
-1.05700e-13
  70
    32
  0
VERTEX
  8
0
  5
31C2
 10
648.008
 20
154.809
 30
-1.05700e-13
  70
    32
  0
VERTEX
  8
0
  5
31C3
 10
648.008
 20
154.798
 30
-1.05700e-13
  70
    32
  0
VERTEX
  8
0
  5
31C4
 10
648.008
 20
154.787
 30
-1.05700e-13
  70
    32
  0
VERTEX
  8
0
  5
31C5
 10
648.008
 20
154.776
 30
-1.05700e-13
  70
    32
  0
VERTEX
  8
0
  5
31C6
 10
648.007
 20
154.766
 30
-1.05700e-13
  70
    32
  0
VERTEX
  8
0
  5
31C7
 10
648.007
 20
154.755
 30
-1.05700e-13
  70
    32
  0
VERTEX
  8
0
  5
31C8
 10
648.007
 20
154.744
 30
-1.05700e-13
  70
    32
  0
VERTEX
  8
0
  5
31C9
 10
648.006
 20
154.733
 30
-1.05700e-13
  70
    32
  0
VERTEX
  8
0
  5
31CA
 10
648.006
 20
154.722
 30
-1.05700e-13
  70
    32
  0
VERTEX
  8
0
  5
31CB
 10
648.005
 20
154.711
 30
-1.05700e-13
  70
    32
  0
VERTEX
  8
0
  5
31CC
 10
648.005
 20
154.700
 30
-1.05700e-13
  70
    32
  0
VERTEX
  8
0
  5
31CD
 10
648.005
 20
154.690
 30
-1.05700e-13
  70
    32
  0
VERTEX
  8
0
  5
31CE
 10
648.004
 20
154.679
 30
-1.05700e-13
  70
    32
  0
VERTEX
  8
0
  5
31CF
 10
648.004
 20
154.668
 30
-1.05700e-13
  70
    32
  0
VERTEX
  8
0
  5
31D0
 10
648.003
 20
154.657
 30
-1.05700e-13
  70
    32
  0
VERTEX
  8
0
  5
31D1
 10
648.003
 20
154.646
 30
-1.05700e-13
  70
    32
  0
VERTEX
  8
0
  5
31D2
 10
648.002
 20
154.635
 30
-1.05700e-13
  70
    32
  0
VERTEX
  8
0
  5
31D3
 10
648.002
 20
154.624
 30
-1.05700e-13
  70
    32
  0
VERTEX
  8
0
  5
31D4
 10
648.001
 20
154.613
 30
-1.05700e-13
  70
    32
  0
VERTEX
  8
0
  5
31D5
 10
648.001
 20
154.603
 30
-1.05700e-13
  70
    32
  0
VERTEX
  8
0
  5
31D6
 10
648.000
 20
154.592
 30
-1.05700e-13
  70
    32
  0
VERTEX
  8
0
  5
31D7
 10
648.000
 20
154.581
 30
-1.05700e-13
  70
    32
  0
VERTEX
  8
0
  5
31D8
 10
647.999
 20
154.570
 30
-1.05700e-13
  70
    32
  0
VERTEX
  8
0
  5
31D9
 10
647.999
 20
154.559
 30
-1.05700e-13
  70
    32
  0
VERTEX
  8
0
  5
31DA
 10
647.998
 20
154.548
 30
-1.05700e-13
  70
    32
  0
VERTEX
  8
0
  5
31DB
 10
647.997
 20
154.537
 30
-1.05700e-13
  70
    32
  0
VERTEX
  8
0
  5
31DC
 10
647.997
 20
154.526
 30
-1.05700e-13
  70
    32
  0
VERTEX
  8
0
  5
31DD
 10
647.996
 20
154.515
 30
-1.05700e-13
  70
    32
  0
VERTEX
  8
0
  5
31DE
 10
647.996
 20
154.505
 30
-1.05700e-13
  70
    32
  0
VERTEX
  8
0
  5
31DF
 10
647.995
 20
154.494
 30
-1.05700e-13
  70
    32
  0
VERTEX
  8
0
  5
31E0
 10
647.994
 20
154.483
 30
-1.05700e-13
  70
    32
  0
VERTEX
  8
0
  5
31E1
 10
647.994
 20
154.472
 30
-1.05700e-13
  70
    32
  0
VERTEX
  8
0
  5
31E2
 10
647.993
 20
154.461
 30
-1.05700e-13
  70
    32
  0
VERTEX
  8
0
  5
31E3
 10
647.992
 20
154.450
 30
-1.05700e-13
  70
    32
  0
VERTEX
  8
0
  5
31E4
 10
647.991
 20
154.439
 30
-1.05700e-13
  70
    32
  0
VERTEX
  8
0
  5
31E5
 10
647.991
 20
154.428
 30
-1.05700e-13
  70
    32
  0
VERTEX
  8
0
  5
31E6
 10
647.990
 20
154.417
 30
-1.05700e-13
  70
    32
  0
VERTEX
  8
0
  5
31E7
 10
647.989
 20
154.406
 30
-1.05700e-13
  70
    32
  0
VERTEX
  8
0
  5
31E8
 10
647.988
 20
154.395
 30
-1.05700e-13
  70
    32
  0
VERTEX
  8
0
  5
31E9
 10
647.988
 20
154.384
 30
-1.05700e-13
  70
    32
  0
VERTEX
  8
0
  5
31EA
 10
647.987
 20
154.373
 30
-1.05700e-13
  70
    32
  0
VERTEX
  8
0
  5
31EB
 10
647.986
 20
154.362
 30
-1.05700e-13
  70
    32
  0
VERTEX
  8
0
  5
31EC
 10
647.985
 20
154.352
 30
-1.05700e-13
  70
    32
  0
VERTEX
  8
0
  5
31ED
 10
647.984
 20
154.341
 30
-1.05700e-13
  70
    32
  0
VERTEX
  8
0
  5
31EE
 10
647.983
 20
154.330
 30
-1.05700e-13
  70
    32
  0
VERTEX
  8
0
  5
31EF
 10
647.983
 20
154.319
 30
-1.05700e-13
  70
    32
  0
VERTEX
  8
0
  5
31F0
 10
647.982
 20
154.308
 30
-1.05700e-13
  70
    32
  0
VERTEX
  8
0
  5
31F1
 10
647.981
 20
154.297
 30
-1.05700e-13
  70
    32
  0
VERTEX
  8
0
  5
31F2
 10
647.980
 20
154.286
 30
-1.05700e-13
  70
    32
  0
VERTEX
  8
0
  5
31F3
 10
647.979
 20
154.275
 30
-1.05700e-13
  70
    32
  0
VERTEX
  8
0
  5
31F4
 10
647.978
 20
154.264
 30
-1.05700e-13
  70
    32
  0
VERTEX
  8
0
  5
31F5
 10
647.977
 20
154.253
 30
-1.05700e-13
  70
    32
  0
VERTEX
  8
0
  5
31F6
 10
647.976
 20
154.242
 30
-1.05700e-13
  70
    32
  0
VERTEX
  8
0
  5
31F7
 10
647.975
 20
154.231
 30
-1.05700e-13
  70
    32
  0
VERTEX
  8
0
  5
31F8
 10
647.974
 20
154.220
 30
-1.05700e-13
  70
    32
  0
VERTEX
  8
0
  5
31F9
 10
647.973
 20
154.209
 30
-1.05700e-13
  70
    32
  0
VERTEX
  8
0
  5
31FA
 10
647.972
 20
154.198
 30
-1.05700e-13
  70
    32
  0
VERTEX
  8
0
  5
31FB
 10
647.971
 20
154.187
 30
-1.05700e-13
  70
    32
  0
VERTEX
  8
0
  5
31FC
 10
647.970
 20
154.176
 30
-1.05700e-13
  70
    32
  0
VERTEX
  8
0
  5
31FD
 10
647.969
 20
154.165
 30
-1.05700e-13
  70
    32
  0
VERTEX
  8
0
  5
31FE
 10
647.968
 20
154.154
 30
-1.05700e-13
  70
    32
  0
VERTEX
  8
0
  5
31FF
 10
647.967
 20
154.143
 30
-1.05700e-13
  70
    32
  0
VERTEX
  8
0
  5
3200
 10
647.966
 20
154.133
 30
-1.05700e-13
  70
    32
  0
VERTEX
  8
0
  5
3201
 10
647.965
 20
154.122
 30
-1.05700e-13
  70
    32
  0
VERTEX
  8
0
  5
3202
 10
647.964
 20
154.111
 30
-1.05700e-13
  70
    32
  0
VERTEX
  8
0
  5
3203
 10
647.962
 20
154.100
 30
-1.05700e-13
  70
    32
  0
VERTEX
  8
0
  5
3204
 10
647.961
 20
154.089
 30
-1.05700e-13
  70
    32
  0
VERTEX
  8
0
  5
3205
 10
647.960
 20
154.078
 30
-1.05700e-13
  70
    32
  0
VERTEX
  8
0
  5
3206
 10
647.959
 20
154.067
 30
-1.05700e-13
  70
    32
  0
VERTEX
  8
0
  5
3207
 10
647.958
 20
154.056
 30
-1.05700e-13
  70
    32
  0
VERTEX
  8
0
  5
3208
 10
647.957
 20
154.045
 30
-1.05700e-13
  70
    32
  0
VERTEX
  8
0
  5
3209
 10
647.955
 20
154.034
 30
-1.05700e-13
  70
    32
  0
VERTEX
  8
0
  5
320A
 10
647.954
 20
154.023
 30
-1.05700e-13
  70
    32
  0
VERTEX
  8
0
  5
320B
 10
647.953
 20
154.012
 30
-1.05700e-13
  70
    32
  0
VERTEX
  8
0
  5
320C
 10
647.952
 20
154.001
 30
-1.05700e-13
  70
    32
  0
VERTEX
  8
0
  5
320D
 10
647.950
 20
153.990
 30
-1.05700e-13
  70
    32
  0
VERTEX
  8
0
  5
320E
 10
647.949
 20
153.979
 30
-1.05700e-13
  70
    32
  0
VERTEX
  8
0
  5
320F
 10
647.948
 20
153.968
 30
-1.05700e-13
  70
    32
  0
VERTEX
  8
0
  5
3210
 10
647.946
 20
153.957
 30
-1.05700e-13
  70
    32
  0
VERTEX
  8
0
  5
3211
 10
647.945
 20
153.946
 30
-1.05700e-13
  70
    32
  0
VERTEX
  8
0
  5
3212
 10
647.944
 20
153.935
 30
-1.05700e-13
  70
    32
  0
VERTEX
  8
0
  5
3213
 10
647.942
 20
153.924
 30
-1.05700e-13
  70
    32
  0
VERTEX
  8
0
  5
3214
 10
647.941
 20
153.913
 30
-1.05700e-13
  70
    32
  0
VERTEX
  8
0
  5
3215
 10
647.940
 20
153.902
 30
-1.05700e-13
  70
    32
  0
VERTEX
  8
0
  5
3216
 10
647.938
 20
153.891
 30
-1.05700e-13
  70
    32
  0
VERTEX
  8
0
  5
3217
 10
647.937
 20
153.880
 30
-1.05700e-13
  70
    32
  0
VERTEX
  8
0
  5
3218
 10
647.935
 20
153.869
 30
-1.05700e-13
  70
    32
  0
VERTEX
  8
0
  5
3219
 10
647.934
 20
153.859
 30
-1.05700e-13
  70
    32
  0
VERTEX
  8
0
  5
321A
 10
647.933
 20
153.848
 30
-1.05700e-13
  70
    32
  0
VERTEX
  8
0
  5
321B
 10
647.931
 20
153.837
 30
-1.05700e-13
  70
    32
  0
VERTEX
  8
0
  5
321C
 10
647.930
 20
153.826
 30
-1.05700e-13
  70
    32
  0
VERTEX
  8
0
  5
321D
 10
647.928
 20
153.815
 30
-1.05700e-13
  70
    32
  0
VERTEX
  8
0
  5
321E
 10
647.927
 20
153.804
 30
-1.05700e-13
  70
    32
  0
VERTEX
  8
0
  5
321F
 10
647.925
 20
153.793
 30
-1.05700e-13
  70
    32
  0
VERTEX
  8
0
  5
3220
 10
647.924
 20
153.782
 30
-1.05700e-13
  70
    32
  0
VERTEX
  8
0
  5
3221
 10
647.922
 20
153.771
 30
-1.05700e-13
  70
    32
  0
VERTEX
  8
0
  5
3222
 10
647.920
 20
153.760
 30
-1.05700e-13
  70
    32
  0
VERTEX
  8
0
  5
3223
 10
647.919
 20
153.749
 30
-1.05700e-13
  70
    32
  0
VERTEX
  8
0
  5
3224
 10
647.917
 20
153.738
 30
-1.05700e-13
  70
    32
  0
VERTEX
  8
0
  5
3225
 10
647.916
 20
153.727
 30
-1.05700e-13
  70
    32
  0
VERTEX
  8
0
  5
3226
 10
647.914
 20
153.716
 30
-1.05700e-13
  70
    32
  0
VERTEX
  8
0
  5
3227
 10
647.912
 20
153.705
 30
-1.05700e-13
  70
    32
  0
VERTEX
  8
0
  5
3228
 10
647.911
 20
153.694
 30
-1.05700e-13
  70
    32
  0
VERTEX
  8
0
  5
3229
 10
647.909
 20
153.683
 30
-1.05700e-13
  70
    32
  0
VERTEX
  8
0
  5
322A
 10
647.908
 20
153.673
 30
-1.05700e-13
  70
    32
  0
VERTEX
  8
0
  5
322B
 10
647.906
 20
153.662
 30
-1.05700e-13
  70
    32
  0
VERTEX
  8
0
  5
322C
 10
647.904
 20
153.651
 30
-1.05700e-13
  70
    32
  0
VERTEX
  8
0
  5
322D
 10
647.902
 20
153.640
 30
-1.05700e-13
  70
    32
  0
VERTEX
  8
0
  5
322E
 10
647.901
 20
153.629
 30
-1.05700e-13
  70
    32
  0
VERTEX
  8
0
  5
322F
 10
647.899
 20
153.618
 30
-1.05700e-13
  70
    32
  0
VERTEX
  8
0
  5
3230
 10
647.897
 20
153.607
 30
-1.05700e-13
  70
    32
  0
VERTEX
  8
0
  5
3231
 10
647.895
 20
153.596
 30
-1.05700e-13
  70
    32
  0
VERTEX
  8
0
  5
3232
 10
647.894
 20
153.585
 30
-1.05700e-13
  70
    32
  0
VERTEX
  8
0
  5
3233
 10
647.892
 20
153.574
 30
-1.05700e-13
  70
    32
  0
VERTEX
  8
0
  5
3234
 10
647.890
 20
153.563
 30
-1.05700e-13
  70
    32
  0
VERTEX
  8
0
  5
3235
 10
647.888
 20
153.552
 30
-1.05700e-13
  70
    32
  0
VERTEX
  8
0
  5
3236
 10
647.886
 20
153.542
 30
-1.05699e-13
  70
    32
  0
VERTEX
  8
0
  5
3237
 10
647.885
 20
153.531
 30
-1.05699e-13
  70
    32
  0
VERTEX
  8
0
  5
3238
 10
647.883
 20
153.520
 30
-1.05699e-13
  70
    32
  0
VERTEX
  8
0
  5
3239
 10
647.881
 20
153.509
 30
-1.05699e-13
  70
    32
  0
VERTEX
  8
0
  5
323A
 10
647.879
 20
153.498
 30
-1.05699e-13
  70
    32
  0
VERTEX
  8
0
  5
323B
 10
647.877
 20
153.487
 30
-1.05699e-13
  70
    32
  0
VERTEX
  8
0
  5
323C
 10
647.875
 20
153.476
 30
-1.05699e-13
  70
    32
  0
VERTEX
  8
0
  5
323D
 10
647.873
 20
153.465
 30
-1.05699e-13
  70
    32
  0
VERTEX
  8
0
  5
323E
 10
647.871
 20
153.454
 30
-1.05699e-13
  70
    32
  0
VERTEX
  8
0
  5
323F
 10
647.869
 20
153.444
 30
-1.05699e-13
  70
    32
  0
VERTEX
  8
0
  5
3240
 10
647.867
 20
153.433
 30
-1.05698e-13
  70
    32
  0
VERTEX
  8
0
  5
3241
 10
647.865
 20
153.422
 30
-1.05698e-13
  70
    32
  0
VERTEX
  8
0
  5
3242
 10
647.863
 20
153.411
 30
-1.05698e-13
  70
    32
  0
VERTEX
  8
0
  5
3243
 10
647.861
 20
153.400
 30
-1.05698e-13
  70
    32
  0
VERTEX
  8
0
  5
3244
 10
647.859
 20
153.389
 30
-1.05698e-13
  70
    32
  0
VERTEX
  8
0
  5
3245
 10
647.857
 20
153.378
 30
-1.05697e-13
  70
    32
  0
VERTEX
  8
0
  5
3246
 10
647.855
 20
153.367
 30
-1.05697e-13
  70
    32
  0
VERTEX
  8
0
  5
3247
 10
647.853
 20
153.357
 30
-1.05697e-13
  70
    32
  0
VERTEX
  8
0
  5
3248
 10
647.851
 20
153.346
 30
-1.05697e-13
  70
    32
  0
VERTEX
  8
0
  5
3249
 10
647.849
 20
153.335
 30
-1.05697e-13
  70
    32
  0
VERTEX
  8
0
  5
324A
 10
647.847
 20
153.324
 30
-1.05696e-13
  70
    32
  0
VERTEX
  8
0
  5
324B
 10
647.845
 20
153.313
 30
-1.05696e-13
  70
    32
  0
VERTEX
  8
0
  5
324C
 10
647.843
 20
153.302
 30
-1.05696e-13
  70
    32
  0
VERTEX
  8
0
  5
324D
 10
647.841
 20
153.292
 30
-1.05695e-13
  70
    32
  0
VERTEX
  8
0
  5
324E
 10
647.839
 20
153.281
 30
-1.05695e-13
  70
    32
  0
VERTEX
  8
0
  5
324F
 10
647.836
 20
153.270
 30
-1.05695e-13
  70
    32
  0
VERTEX
  8
0
  5
3250
 10
647.834
 20
153.259
 30
-1.05694e-13
  70
    32
  0
VERTEX
  8
0
  5
3251
 10
647.832
 20
153.248
 30
-1.05694e-13
  70
    32
  0
VERTEX
  8
0
  5
3252
 10
647.830
 20
153.237
 30
-1.05694e-13
  70
    32
  0
VERTEX
  8
0
  5
3253
 10
647.828
 20
153.227
 30
-1.05693e-13
  70
    32
  0
VERTEX
  8
0
  5
3254
 10
647.825
 20
153.216
 30
-1.05693e-13
  70
    32
  0
VERTEX
  8
0
  5
3255
 10
647.823
 20
153.205
 30
-1.05692e-13
  70
    32
  0
VERTEX
  8
0
  5
3256
 10
647.821
 20
153.194
 30
-1.05692e-13
  70
    32
  0
VERTEX
  8
0
  5
3257
 10
647.819
 20
153.183
 30
-1.05691e-13
  70
    32
  0
VERTEX
  8
0
  5
3258
 10
647.816
 20
153.173
 30
-1.05691e-13
  70
    32
  0
VERTEX
  8
0
  5
3259
 10
647.814
 20
153.162
 30
-1.05690e-13
  70
    32
  0
VERTEX
  8
0
  5
325A
 10
647.812
 20
153.151
 30
-1.05690e-13
  70
    32
  0
VERTEX
  8
0
  5
325B
 10
647.809
 20
153.140
 30
-1.05689e-13
  70
    32
  0
VERTEX
  8
0
  5
325C
 10
647.807
 20
153.130
 30
-1.05689e-13
  70
    32
  0
VERTEX
  8
0
  5
325D
 10
647.805
 20
153.119
 30
-1.05688e-13
  70
    32
  0
VERTEX
  8
0
  5
325E
 10
647.802
 20
153.108
 30
-1.05688e-13
  70
    32
  0
VERTEX
  8
0
  5
325F
 10
647.800
 20
153.097
 30
-1.05687e-13
  70
    32
  0
VERTEX
  8
0
  5
3260
 10
647.798
 20
153.087
 30
-1.05686e-13
  70
    32
  0
VERTEX
  8
0
  5
3261
 10
647.795
 20
153.076
 30
-1.05686e-13
  70
    32
  0
VERTEX
  8
0
  5
3262
 10
647.793
 20
153.065
 30
-1.05685e-13
  70
    32
  0
VERTEX
  8
0
  5
3263
 10
647.790
 20
153.054
 30
-1.05684e-13
  70
    32
  0
VERTEX
  8
0
  5
3264
 10
647.788
 20
153.044
 30
-1.05684e-13
  70
    32
  0
VERTEX
  8
0
  5
3265
 10
647.786
 20
153.033
 30
-1.05683e-13
  70
    32
  0
VERTEX
  8
0
  5
3266
 10
647.783
 20
153.022
 30
-1.05682e-13
  70
    32
  0
VERTEX
  8
0
  5
3267
 10
647.781
 20
153.011
 30
-1.05681e-13
  70
    32
  0
VERTEX
  8
0
  5
3268
 10
647.778
 20
153.001
 30
-1.05681e-13
  70
    32
  0
VERTEX
  8
0
  5
3269
 10
647.776
 20
152.990
 30
-1.05680e-13
  70
    32
  0
VERTEX
  8
0
  5
326A
 10
647.773
 20
152.979
 30
-1.05679e-13
  70
    32
  0
VERTEX
  8
0
  5
326B
 10
647.771
 20
152.969
 30
-1.05678e-13
  70
    32
  0
VERTEX
  8
0
  5
326C
 10
647.768
 20
152.958
 30
-1.05677e-13
  70
    32
  0
VERTEX
  8
0
  5
326D
 10
647.766
 20
152.947
 30
-1.05676e-13
  70
    32
  0
VERTEX
  8
0
  5
326E
 10
647.763
 20
152.936
 30
-1.05675e-13
  70
    32
  0
VERTEX
  8
0
  5
326F
 10
647.761
 20
152.926
 30
-1.05674e-13
  70
    32
  0
VERTEX
  8
0
  5
3270
 10
647.758
 20
152.915
 30
-1.05673e-13
  70
    32
  0
VERTEX
  8
0
  5
3271
 10
647.755
 20
152.904
 30
-1.05672e-13
  70
    32
  0
VERTEX
  8
0
  5
3272
 10
647.753
 20
152.894
 30
-1.05671e-13
  70
    32
  0
VERTEX
  8
0
  5
3273
 10
647.750
 20
152.883
 30
-1.05670e-13
  70
    32
  0
VERTEX
  8
0
  5
3274
 10
647.748
 20
152.872
 30
-1.05669e-13
  70
    32
  0
VERTEX
  8
0
  5
3275
 10
647.745
 20
152.862
 30
-1.05668e-13
  70
    32
  0
VERTEX
  8
0
  5
3276
 10
647.742
 20
152.851
 30
-1.05667e-13
  70
    32
  0
VERTEX
  8
0
  5
3277
 10
647.740
 20
152.841
 30
-1.05666e-13
  70
    32
  0
VERTEX
  8
0
  5
3278
 10
647.737
 20
152.830
 30
-1.05664e-13
  70
    32
  0
VERTEX
  8
0
  5
3279
 10
647.734
 20
152.819
 30
-1.05663e-13
  70
    32
  0
VERTEX
  8
0
  5
327A
 10
647.731
 20
152.809
 30
-1.05662e-13
  70
    32
  0
VERTEX
  8
0
  5
327B
 10
647.729
 20
152.798
 30
-1.05661e-13
  70
    32
  0
VERTEX
  8
0
  5
327C
 10
647.726
 20
152.787
 30
-1.05659e-13
  70
    32
  0
VERTEX
  8
0
  5
327D
 10
647.723
 20
152.777
 30
-1.05658e-13
  70
    32
  0
VERTEX
  8
0
  5
327E
 10
647.721
 20
152.766
 30
-1.05657e-13
  70
    32
  0
VERTEX
  8
0
  5
327F
 10
647.718
 20
152.756
 30
-1.05655e-13
  70
    32
  0
VERTEX
  8
0
  5
3280
 10
647.715
 20
152.745
 30
-1.05654e-13
  70
    32
  0
VERTEX
  8
0
  5
3281
 10
647.712
 20
152.735
 30
-1.05652e-13
  70
    32
  0
VERTEX
  8
0
  5
3282
 10
647.709
 20
152.724
 30
-1.05651e-13
  70
    32
  0
VERTEX
  8
0
  5
3283
 10
647.707
 20
152.713
 30
-1.05649e-13
  70
    32
  0
VERTEX
  8
0
  5
3284
 10
647.704
 20
152.703
 30
-1.05648e-13
  70
    32
  0
VERTEX
  8
0
  5
3285
 10
647.701
 20
152.692
 30
-1.05646e-13
  70
    32
  0
VERTEX
  8
0
  5
3286
 10
647.698
 20
152.682
 30
-1.05644e-13
  70
    32
  0
VERTEX
  8
0
  5
3287
 10
647.695
 20
152.671
 30
-1.05643e-13
  70
    32
  0
VERTEX
  8
0
  5
3288
 10
647.692
 20
152.661
 30
-1.05641e-13
  70
    32
  0
VERTEX
  8
0
  5
3289
 10
647.690
 20
152.650
 30
-1.05639e-13
  70
    32
  0
VERTEX
  8
0
  5
328A
 10
647.687
 20
152.640
 30
-1.05638e-13
  70
    32
  0
VERTEX
  8
0
  5
328B
 10
647.684
 20
152.629
 30
-1.05636e-13
  70
    32
  0
VERTEX
  8
0
  5
328C
 10
647.681
 20
152.619
 30
-1.05634e-13
  70
    32
  0
VERTEX
  8
0
  5
328D
 10
647.678
 20
152.608
 30
-1.05632e-13
  70
    32
  0
VERTEX
  8
0
  5
328E
 10
647.675
 20
152.598
 30
-1.05630e-13
  70
    32
  0
VERTEX
  8
0
  5
328F
 10
647.672
 20
152.587
 30
-1.05628e-13
  70
    32
  0
VERTEX
  8
0
  5
3290
 10
647.669
 20
152.577
 30
-1.05626e-13
  70
    32
  0
VERTEX
  8
0
  5
3291
 10
647.666
 20
152.566
 30
-1.05624e-13
  70
    32
  0
VERTEX
  8
0
  5
3292
 10
647.663
 20
152.556
 30
-1.05622e-13
  70
    32
  0
VERTEX
  8
0
  5
3293
 10
647.660
 20
152.545
 30
-1.05620e-13
  70
    32
  0
VERTEX
  8
0
  5
3294
 10
647.657
 20
152.535
 30
-1.05618e-13
  70
    32
  0
VERTEX
  8
0
  5
3295
 10
647.654
 20
152.524
 30
-1.05616e-13
  70
    32
  0
VERTEX
  8
0
  5
3296
 10
647.651
 20
152.514
 30
-1.05614e-13
  70
    32
  0
VERTEX
  8
0
  5
3297
 10
647.648
 20
152.504
 30
-1.05612e-13
  70
    32
  0
VERTEX
  8
0
  5
3298
 10
647.645
 20
152.493
 30
-1.05611e-13
  70
    32
  0
VERTEX
  8
0
  5
3299
 10
647.642
 20
152.483
 30
-1.05609e-13
  70
    32
  0
VERTEX
  8
0
  5
329A
 10
647.639
 20
152.472
 30
-1.05608e-13
  70
    32
  0
VERTEX
  8
0
  5
329B
 10
647.636
 20
152.462
 30
-1.05606e-13
  70
    32
  0
VERTEX
  8
0
  5
329C
 10
647.633
 20
152.452
 30
-1.05605e-13
  70
    32
  0
VERTEX
  8
0
  5
329D
 10
647.629
 20
152.441
 30
-1.05604e-13
  70
    32
  0
VERTEX
  8
0
  5
329E
 10
647.626
 20
152.431
 30
-1.05604e-13
  70
    32
  0
VERTEX
  8
0
  5
329F
 10
647.623
 20
152.421
 30
-1.05603e-13
  70
    32
  0
VERTEX
  8
0
  5
32A0
 10
647.620
 20
152.410
 30
-1.05602e-13
  70
    32
  0
VERTEX
  8
0
  5
32A1
 10
647.617
 20
152.400
 30
-1.05602e-13
  70
    32
  0
VERTEX
  8
0
  5
32A2
 10
647.614
 20
152.389
 30
-1.05601e-13
  70
    32
  0
VERTEX
  8
0
  5
32A3
 10
647.610
 20
152.379
 30
-1.05601e-13
  70
    32
  0
VERTEX
  8
0
  5
32A4
 10
647.607
 20
152.369
 30
-1.05601e-13
  70
    32
  0
VERTEX
  8
0
  5
32A5
 10
647.604
 20
152.358
 30
-1.05600e-13
  70
    32
  0
VERTEX
  8
0
  5
32A6
 10
647.601
 20
152.348
 30
-1.05600e-13
  70
    32
  0
VERTEX
  8
0
  5
32A7
 10
647.598
 20
152.338
 30
-1.05600e-13
  70
    32
  0
VERTEX
  8
0
  5
32A8
 10
647.594
 20
152.328
 30
-1.05600e-13
  70
    32
  0
VERTEX
  8
0
  5
32A9
 10
647.591
 20
152.317
 30
-1.05600e-13
  70
    32
  0
VERTEX
  8
0
  5
32AA
 10
647.588
 20
152.307
 30
-1.05600e-13
  70
    32
  0
VERTEX
  8
0
  5
32AB
 10
647.585
 20
152.297
 30
-1.05600e-13
  70
    32
  0
VERTEX
  8
0
  5
32AC
 10
647.581
 20
152.286
 30
-1.05600e-13
  70
    32
  0
SEQEND
  8
0
  5
32AD
  0
POLYLINE
  8
0
  5
32AE
  66
     1
 10
0.000000
 20
0.000000
 30
0.000000
  70
     8
  0
VERTEX
  8
0
  5
32AF
 10
647.581
 20
157.784
 30
-1.05600e-13
  70
    32
  0
VERTEX
  8
0
  5
32B0
 10
647.585
 20
157.773
 30
-1.05600e-13
  70
    32
  0
VERTEX
  8
0
  5
32B1
 10
647.588
 20
157.763
 30
-1.05600e-13
  70
    32
  0
VERTEX
  8
0
  5
32B2
 10
647.591
 20
157.753
 30
-1.05600e-13
  70
    32
  0
VERTEX
  8
0
  5
32B3
 10
647.594
 20
157.743
 30
-1.05600e-13
  70
    32
  0
VERTEX
  8
0
  5
32B4
 10
647.598
 20
157.732
 30
-1.05600e-13
  70
    32
  0
VERTEX
  8
0
  5
32B5
 10
647.601
 20
157.722
 30
-1.05600e-13
  70
    32
  0
VERTEX
  8
0
  5
32B6
 10
647.604
 20
157.712
 30
-1.05600e-13
  70
    32
  0
VERTEX
  8
0
  5
32B7
 10
647.607
 20
157.701
 30
-1.05601e-13
  70
    32
  0
VERTEX
  8
0
  5
32B8
 10
647.610
 20
157.691
 30
-1.05601e-13
  70
    32
  0
VERTEX
  8
0
  5
32B9
 10
647.614
 20
157.681
 30
-1.05601e-13
  70
    32
  0
VERTEX
  8
0
  5
32BA
 10
647.617
 20
157.670
 30
-1.05602e-13
  70
    32
  0
VERTEX
  8
0
  5
32BB
 10
647.620
 20
157.660
 30
-1.05602e-13
  70
    32
  0
VERTEX
  8
0
  5
32BC
 10
647.623
 20
157.650
 30
-1.05603e-13
  70
    32
  0
VERTEX
  8
0
  5
32BD
 10
647.626
 20
157.639
 30
-1.05604e-13
  70
    32
  0
VERTEX
  8
0
  5
32BE
 10
647.629
 20
157.629
 30
-1.05604e-13
  70
    32
  0
VERTEX
  8
0
  5
32BF
 10
647.633
 20
157.619
 30
-1.05605e-13
  70
    32
  0
VERTEX
  8
0
  5
32C0
 10
647.636
 20
157.608
 30
-1.05606e-13
  70
    32
  0
VERTEX
  8
0
  5
32C1
 10
647.639
 20
157.598
 30
-1.05608e-13
  70
    32
  0
VERTEX
  8
0
  5
32C2
 10
647.642
 20
157.587
 30
-1.05609e-13
  70
    32
  0
VERTEX
  8
0
  5
32C3
 10
647.645
 20
157.577
 30
-1.05611e-13
  70
    32
  0
VERTEX
  8
0
  5
32C4
 10
647.648
 20
157.567
 30
-1.05612e-13
  70
    32
  0
VERTEX
  8
0
  5
32C5
 10
647.651
 20
157.556
 30
-1.05614e-13
  70
    32
  0
VERTEX
  8
0
  5
32C6
 10
647.654
 20
157.546
 30
-1.05616e-13
  70
    32
  0
VERTEX
  8
0
  5
32C7
 10
647.657
 20
157.535
 30
-1.05618e-13
  70
    32
  0
VERTEX
  8
0
  5
32C8
 10
647.660
 20
157.525
 30
-1.05620e-13
  70
    32
  0
VERTEX
  8
0
  5
32C9
 10
647.663
 20
157.514
 30
-1.05622e-13
  70
    32
  0
VERTEX
  8
0
  5
32CA
 10
647.666
 20
157.504
 30
-1.05624e-13
  70
    32
  0
VERTEX
  8
0
  5
32CB
 10
647.669
 20
157.493
 30
-1.05626e-13
  70
    32
  0
VERTEX
  8
0
  5
32CC
 10
647.672
 20
157.483
 30
-1.05628e-13
  70
    32
  0
VERTEX
  8
0
  5
32CD
 10
647.675
 20
157.472
 30
-1.05630e-13
  70
    32
  0
VERTEX
  8
0
  5
32CE
 10
647.678
 20
157.462
 30
-1.05632e-13
  70
    32
  0
VERTEX
  8
0
  5
32CF
 10
647.681
 20
157.451
 30
-1.05634e-13
  70
    32
  0
VERTEX
  8
0
  5
32D0
 10
647.684
 20
157.441
 30
-1.05636e-13
  70
    32
  0
VERTEX
  8
0
  5
32D1
 10
647.687
 20
157.430
 30
-1.05638e-13
  70
    32
  0
VERTEX
  8
0
  5
32D2
 10
647.690
 20
157.420
 30
-1.05639e-13
  70
    32
  0
VERTEX
  8
0
  5
32D3
 10
647.692
 20
157.409
 30
-1.05641e-13
  70
    32
  0
VERTEX
  8
0
  5
32D4
 10
647.695
 20
157.399
 30
-1.05643e-13
  70
    32
  0
VERTEX
  8
0
  5
32D5
 10
647.698
 20
157.388
 30
-1.05644e-13
  70
    32
  0
VERTEX
  8
0
  5
32D6
 10
647.701
 20
157.378
 30
-1.05646e-13
  70
    32
  0
VERTEX
  8
0
  5
32D7
 10
647.704
 20
157.367
 30
-1.05648e-13
  70
    32
  0
VERTEX
  8
0
  5
32D8
 10
647.707
 20
157.357
 30
-1.05649e-13
  70
    32
  0
VERTEX
  8
0
  5
32D9
 10
647.709
 20
157.346
 30
-1.05651e-13
  70
    32
  0
VERTEX
  8
0
  5
32DA
 10
647.712
 20
157.336
 30
-1.05652e-13
  70
    32
  0
VERTEX
  8
0
  5
32DB
 10
647.715
 20
157.325
 30
-1.05654e-13
  70
    32
  0
VERTEX
  8
0
  5
32DC
 10
647.718
 20
157.314
 30
-1.05655e-13
  70
    32
  0
VERTEX
  8
0
  5
32DD
 10
647.721
 20
157.304
 30
-1.05657e-13
  70
    32
  0
VERTEX
  8
0
  5
32DE
 10
647.723
 20
157.293
 30
-1.05658e-13
  70
    32
  0
VERTEX
  8
0
  5
32DF
 10
647.726
 20
157.283
 30
-1.05659e-13
  70
    32
  0
VERTEX
  8
0
  5
32E0
 10
647.729
 20
157.272
 30
-1.05661e-13
  70
    32
  0
VERTEX
  8
0
  5
32E1
 10
647.731
 20
157.261
 30
-1.05662e-13
  70
    32
  0
VERTEX
  8
0
  5
32E2
 10
647.734
 20
157.251
 30
-1.05663e-13
  70
    32
  0
VERTEX
  8
0
  5
32E3
 10
647.737
 20
157.240
 30
-1.05664e-13
  70
    32
  0
VERTEX
  8
0
  5
32E4
 10
647.740
 20
157.230
 30
-1.05666e-13
  70
    32
  0
VERTEX
  8
0
  5
32E5
 10
647.742
 20
157.219
 30
-1.05667e-13
  70
    32
  0
VERTEX
  8
0
  5
32E6
 10
647.745
 20
157.208
 30
-1.05668e-13
  70
    32
  0
VERTEX
  8
0
  5
32E7
 10
647.748
 20
157.198
 30
-1.05669e-13
  70
    32
  0
VERTEX
  8
0
  5
32E8
 10
647.750
 20
157.187
 30
-1.05670e-13
  70
    32
  0
VERTEX
  8
0
  5
32E9
 10
647.753
 20
157.176
 30
-1.05671e-13
  70
    32
  0
VERTEX
  8
0
  5
32EA
 10
647.755
 20
157.166
 30
-1.05672e-13
  70
    32
  0
VERTEX
  8
0
  5
32EB
 10
647.758
 20
157.155
 30
-1.05673e-13
  70
    32
  0
VERTEX
  8
0
  5
32EC
 10
647.761
 20
157.144
 30
-1.05674e-13
  70
    32
  0
VERTEX
  8
0
  5
32ED
 10
647.763
 20
157.134
 30
-1.05675e-13
  70
    32
  0
VERTEX
  8
0
  5
32EE
 10
647.766
 20
157.123
 30
-1.05676e-13
  70
    32
  0
VERTEX
  8
0
  5
32EF
 10
647.768
 20
157.112
 30
-1.05677e-13
  70
    32
  0
VERTEX
  8
0
  5
32F0
 10
647.771
 20
157.102
 30
-1.05678e-13
  70
    32
  0
VERTEX
  8
0
  5
32F1
 10
647.773
 20
157.091
 30
-1.05679e-13
  70
    32
  0
VERTEX
  8
0
  5
32F2
 10
647.776
 20
157.080
 30
-1.05680e-13
  70
    32
  0
VERTEX
  8
0
  5
32F3
 10
647.778
 20
157.069
 30
-1.05681e-13
  70
    32
  0
VERTEX
  8
0
  5
32F4
 10
647.781
 20
157.059
 30
-1.05681e-13
  70
    32
  0
VERTEX
  8
0
  5
32F5
 10
647.783
 20
157.048
 30
-1.05682e-13
  70
    32
  0
VERTEX
  8
0
  5
32F6
 10
647.786
 20
157.037
 30
-1.05683e-13
  70
    32
  0
VERTEX
  8
0
  5
32F7
 10
647.788
 20
157.027
 30
-1.05684e-13
  70
    32
  0
VERTEX
  8
0
  5
32F8
 10
647.790
 20
157.016
 30
-1.05684e-13
  70
    32
  0
VERTEX
  8
0
  5
32F9
 10
647.793
 20
157.005
 30
-1.05685e-13
  70
    32
  0
VERTEX
  8
0
  5
32FA
 10
647.795
 20
156.994
 30
-1.05686e-13
  70
    32
  0
VERTEX
  8
0
  5
32FB
 10
647.798
 20
156.984
 30
-1.05686e-13
  70
    32
  0
VERTEX
  8
0
  5
32FC
 10
647.800
 20
156.973
 30
-1.05687e-13
  70
    32
  0
VERTEX
  8
0
  5
32FD
 10
647.802
 20
156.962
 30
-1.05688e-13
  70
    32
  0
VERTEX
  8
0
  5
32FE
 10
647.805
 20
156.951
 30
-1.05688e-13
  70
    32
  0
VERTEX
  8
0
  5
32FF
 10
647.807
 20
156.941
 30
-1.05689e-13
  70
    32
  0
VERTEX
  8
0
  5
3300
 10
647.809
 20
156.930
 30
-1.05689e-13
  70
    32
  0
VERTEX
  8
0
  5
3301
 10
647.812
 20
156.919
 30
-1.05690e-13
  70
    32
  0
VERTEX
  8
0
  5
3302
 10
647.814
 20
156.908
 30
-1.05690e-13
  70
    32
  0
VERTEX
  8
0
  5
3303
 10
647.816
 20
156.897
 30
-1.05691e-13
  70
    32
  0
VERTEX
  8
0
  5
3304
 10
647.819
 20
156.887
 30
-1.05691e-13
  70
    32
  0
VERTEX
  8
0
  5
3305
 10
647.821
 20
156.876
 30
-1.05692e-13
  70
    32
  0
VERTEX
  8
0
  5
3306
 10
647.823
 20
156.865
 30
-1.05692e-13
  70
    32
  0
VERTEX
  8
0
  5
3307
 10
647.825
 20
156.854
 30
-1.05693e-13
  70
    32
  0
VERTEX
  8
0
  5
3308
 10
647.828
 20
156.843
 30
-1.05693e-13
  70
    32
  0
VERTEX
  8
0
  5
3309
 10
647.830
 20
156.833
 30
-1.05694e-13
  70
    32
  0
VERTEX
  8
0
  5
330A
 10
647.832
 20
156.822
 30
-1.05694e-13
  70
    32
  0
VERTEX
  8
0
  5
330B
 10
647.834
 20
156.811
 30
-1.05694e-13
  70
    32
  0
VERTEX
  8
0
  5
330C
 10
647.836
 20
156.800
 30
-1.05695e-13
  70
    32
  0
VERTEX
  8
0
  5
330D
 10
647.839
 20
156.789
 30
-1.05695e-13
  70
    32
  0
VERTEX
  8
0
  5
330E
 10
647.841
 20
156.779
 30
-1.05695e-13
  70
    32
  0
VERTEX
  8
0
  5
330F
 10
647.843
 20
156.768
 30
-1.05696e-13
  70
    32
  0
VERTEX
  8
0
  5
3310
 10
647.845
 20
156.757
 30
-1.05696e-13
  70
    32
  0
VERTEX
  8
0
  5
3311
 10
647.847
 20
156.746
 30
-1.05696e-13
  70
    32
  0
VERTEX
  8
0
  5
3312
 10
647.849
 20
156.735
 30
-1.05697e-13
  70
    32
  0
VERTEX
  8
0
  5
3313
 10
647.851
 20
156.724
 30
-1.05697e-13
  70
    32
  0
VERTEX
  8
0
  5
3314
 10
647.853
 20
156.714
 30
-1.05697e-13
  70
    32
  0
VERTEX
  8
0
  5
3315
 10
647.855
 20
156.703
 30
-1.05697e-13
  70
    32
  0
VERTEX
  8
0
  5
3316
 10
647.857
 20
156.692
 30
-1.05697e-13
  70
    32
  0
VERTEX
  8
0
  5
3317
 10
647.859
 20
156.681
 30
-1.05698e-13
  70
    32
  0
VERTEX
  8
0
  5
3318
 10
647.861
 20
156.670
 30
-1.05698e-13
  70
    32
  0
VERTEX
  8
0
  5
3319
 10
647.863
 20
156.659
 30
-1.05698e-13
  70
    32
  0
VERTEX
  8
0
  5
331A
 10
647.865
 20
156.648
 30
-1.05698e-13
  70
    32
  0
VERTEX
  8
0
  5
331B
 10
647.867
 20
156.637
 30
-1.05698e-13
  70
    32
  0
VERTEX
  8
0
  5
331C
 10
647.869
 20
156.627
 30
-1.05699e-13
  70
    32
  0
VERTEX
  8
0
  5
331D
 10
647.871
 20
156.616
 30
-1.05699e-13
  70
    32
  0
VERTEX
  8
0
  5
331E
 10
647.873
 20
156.605
 30
-1.05699e-13
  70
    32
  0
VERTEX
  8
0
  5
331F
 10
647.875
 20
156.594
 30
-1.05699e-13
  70
    32
  0
VERTEX
  8
0
  5
3320
 10
647.877
 20
156.583
 30
-1.05699e-13
  70
    32
  0
VERTEX
  8
0
  5
3321
 10
647.879
 20
156.572
 30
-1.05699e-13
  70
    32
  0
VERTEX
  8
0
  5
3322
 10
647.881
 20
156.561
 30
-1.05699e-13
  70
    32
  0
VERTEX
  8
0
  5
3323
 10
647.883
 20
156.550
 30
-1.05699e-13
  70
    32
  0
VERTEX
  8
0
  5
3324
 10
647.885
 20
156.540
 30
-1.05699e-13
  70
    32
  0
VERTEX
  8
0
  5
3325
 10
647.886
 20
156.529
 30
-1.05699e-13
  70
    32
  0
VERTEX
  8
0
  5
3326
 10
647.888
 20
156.518
 30
-1.05700e-13
  70
    32
  0
VERTEX
  8
0
  5
3327
 10
647.890
 20
156.507
 30
-1.05700e-13
  70
    32
  0
VERTEX
  8
0
  5
3328
 10
647.892
 20
156.496
 30
-1.05700e-13
  70
    32
  0
VERTEX
  8
0
  5
3329
 10
647.894
 20
156.485
 30
-1.05700e-13
  70
    32
  0
VERTEX
  8
0
  5
332A
 10
647.895
 20
156.474
 30
-1.05700e-13
  70
    32
  0
VERTEX
  8
0
  5
332B
 10
647.897
 20
156.463
 30
-1.05700e-13
  70
    32
  0
VERTEX
  8
0
  5
332C
 10
647.899
 20
156.452
 30
-1.05700e-13
  70
    32
  0
VERTEX
  8
0
  5
332D
 10
647.901
 20
156.441
 30
-1.05700e-13
  70
    32
  0
VERTEX
  8
0
  5
332E
 10
647.902
 20
156.430
 30
-1.05700e-13
  70
    32
  0
VERTEX
  8
0
  5
332F
 10
647.904
 20
156.419
 30
-1.05700e-13
  70
    32
  0
VERTEX
  8
0
  5
3330
 10
647.906
 20
156.409
 30
-1.05700e-13
  70
    32
  0
VERTEX
  8
0
  5
3331
 10
647.908
 20
156.398
 30
-1.05700e-13
  70
    32
  0
VERTEX
  8
0
  5
3332
 10
647.909
 20
156.387
 30
-1.05700e-13
  70
    32
  0
VERTEX
  8
0
  5
3333
 10
647.911
 20
156.376
 30
-1.05700e-13
  70
    32
  0
VERTEX
  8
0
  5
3334
 10
647.912
 20
156.365
 30
-1.05700e-13
  70
    32
  0
VERTEX
  8
0
  5
3335
 10
647.914
 20
156.354
 30
-1.05700e-13
  70
    32
  0
VERTEX
  8
0
  5
3336
 10
647.916
 20
156.343
 30
-1.05700e-13
  70
    32
  0
VERTEX
  8
0
  5
3337
 10
647.917
 20
156.332
 30
-1.05700e-13
  70
    32
  0
VERTEX
  8
0
  5
3338
 10
647.919
 20
156.321
 30
-1.05700e-13
  70
    32
  0
VERTEX
  8
0
  5
3339
 10
647.920
 20
156.310
 30
-1.05700e-13
  70
    32
  0
VERTEX
  8
0
  5
333A
 10
647.922
 20
156.299
 30
-1.05700e-13
  70
    32
  0
VERTEX
  8
0
  5
333B
 10
647.924
 20
156.288
 30
-1.05700e-13
  70
    32
  0
VERTEX
  8
0
  5
333C
 10
647.925
 20
156.277
 30
-1.05700e-13
  70
    32
  0
VERTEX
  8
0
  5
333D
 10
647.927
 20
156.266
 30
-1.05700e-13
  70
    32
  0
VERTEX
  8
0
  5
333E
 10
647.928
 20
156.255
 30
-1.05700e-13
  70
    32
  0
VERTEX
  8
0
  5
333F
 10
647.930
 20
156.244
 30
-1.05700e-13
  70
    32
  0
VERTEX
  8
0
  5
3340
 10
647.931
 20
156.234
 30
-1.05700e-13
  70
    32
  0
VERTEX
  8
0
  5
3341
 10
647.933
 20
156.223
 30
-1.05700e-13
  70
    32
  0
VERTEX
  8
0
  5
3342
 10
647.934
 20
156.212
 30
-1.05700e-13
  70
    32
  0
VERTEX
  8
0
  5
3343
 10
647.935
 20
156.201
 30
-1.05700e-13
  70
    32
  0
VERTEX
  8
0
  5
3344
 10
647.937
 20
156.190
 30
-1.05700e-13
  70
    32
  0
VERTEX
  8
0
  5
3345
 10
647.938
 20
156.179
 30
-1.05700e-13
  70
    32
  0
VERTEX
  8
0
  5
3346
 10
647.940
 20
156.168
 30
-1.05700e-13
  70
    32
  0
VERTEX
  8
0
  5
3347
 10
647.941
 20
156.157
 30
-1.05700e-13
  70
    32
  0
VERTEX
  8
0
  5
3348
 10
647.942
 20
156.146
 30
-1.05700e-13
  70
    32
  0
VERTEX
  8
0
  5
3349
 10
647.944
 20
156.135
 30
-1.05700e-13
  70
    32
  0
VERTEX
  8
0
  5
334A
 10
647.945
 20
156.124
 30
-1.05700e-13
  70
    32
  0
VERTEX
  8
0
  5
334B
 10
647.946
 20
156.113
 30
-1.05700e-13
  70
    32
  0
VERTEX
  8
0
  5
334C
 10
647.948
 20
156.102
 30
-1.05700e-13
  70
    32
  0
VERTEX
  8
0
  5
334D
 10
647.949
 20
156.091
 30
-1.05700e-13
  70
    32
  0
VERTEX
  8
0
  5
334E
 10
647.950
 20
156.080
 30
-1.05700e-13
  70
    32
  0
VERTEX
  8
0
  5
334F
 10
647.952
 20
156.069
 30
-1.05700e-13
  70
    32
  0
VERTEX
  8
0
  5
3350
 10
647.953
 20
156.058
 30
-1.05700e-13
  70
    32
  0
VERTEX
  8
0
  5
3351
 10
647.954
 20
156.047
 30
-1.05700e-13
  70
    32
  0
VERTEX
  8
0
  5
3352
 10
647.955
 20
156.036
 30
-1.05700e-13
  70
    32
  0
VERTEX
  8
0
  5
3353
 10
647.957
 20
156.025
 30
-1.05700e-13
  70
    32
  0
VERTEX
  8
0
  5
3354
 10
647.958
 20
156.014
 30
-1.05700e-13
  70
    32
  0
VERTEX
  8
0
  5
3355
 10
647.959
 20
156.003
 30
-1.05700e-13
  70
    32
  0
VERTEX
  8
0
  5
3356
 10
647.960
 20
155.992
 30
-1.05700e-13
  70
    32
  0
VERTEX
  8
0
  5
3357
 10
647.961
 20
155.981
 30
-1.05700e-13
  70
    32
  0
VERTEX
  8
0
  5
3358
 10
647.962
 20
155.970
 30
-1.05700e-13
  70
    32
  0
VERTEX
  8
0
  5
3359
 10
647.964
 20
155.960
 30
-1.05700e-13
  70
    32
  0
VERTEX
  8
0
  5
335A
 10
647.965
 20
155.949
 30
-1.05700e-13
  70
    32
  0
VERTEX
  8
0
  5
335B
 10
647.966
 20
155.938
 30
-1.05700e-13
  70
    32
  0
VERTEX
  8
0
  5
335C
 10
647.967
 20
155.927
 30
-1.05700e-13
  70
    32
  0
VERTEX
  8
0
  5
335D
 10
647.968
 20
155.916
 30
-1.05700e-13
  70
    32
  0
VERTEX
  8
0
  5
335E
 10
647.969
 20
155.905
 30
-1.05700e-13
  70
    32
  0
VERTEX
  8
0
  5
335F
 10
647.970
 20
155.894
 30
-1.05700e-13
  70
    32
  0
VERTEX
  8
0
  5
3360
 10
647.971
 20
155.883
 30
-1.05700e-13
  70
    32
  0
VERTEX
  8
0
  5
3361
 10
647.972
 20
155.872
 30
-1.05700e-13
  70
    32
  0
VERTEX
  8
0
  5
3362
 10
647.973
 20
155.861
 30
-1.05700e-13
  70
    32
  0
VERTEX
  8
0
  5
3363
 10
647.974
 20
155.850
 30
-1.05700e-13
  70
    32
  0
VERTEX
  8
0
  5
3364
 10
647.975
 20
155.839
 30
-1.05700e-13
  70
    32
  0
VERTEX
  8
0
  5
3365
 10
647.976
 20
155.828
 30
-1.05700e-13
  70
    32
  0
VERTEX
  8
0
  5
3366
 10
647.977
 20
155.817
 30
-1.05700e-13
  70
    32
  0
VERTEX
  8
0
  5
3367
 10
647.978
 20
155.806
 30
-1.05700e-13
  70
    32
  0
VERTEX
  8
0
  5
3368
 10
647.979
 20
155.795
 30
-1.05700e-13
  70
    32
  0
VERTEX
  8
0
  5
3369
 10
647.980
 20
155.784
 30
-1.05700e-13
  70
    32
  0
VERTEX
  8
0
  5
336A
 10
647.981
 20
155.773
 30
-1.05700e-13
  70
    32
  0
VERTEX
  8
0
  5
336B
 10
647.982
 20
155.762
 30
-1.05700e-13
  70
    32
  0
VERTEX
  8
0
  5
336C
 10
647.983
 20
155.751
 30
-1.05700e-13
  70
    32
  0
VERTEX
  8
0
  5
336D
 10
647.983
 20
155.740
 30
-1.05700e-13
  70
    32
  0
VERTEX
  8
0
  5
336E
 10
647.984
 20
155.730
 30
-1.05700e-13
  70
    32
  0
VERTEX
  8
0
  5
336F
 10
647.985
 20
155.719
 30
-1.05700e-13
  70
    32
  0
VERTEX
  8
0
  5
3370
 10
647.986
 20
155.708
 30
-1.05700e-13
  70
    32
  0
VERTEX
  8
0
  5
3371
 10
647.987
 20
155.697
 30
-1.05700e-13
  70
    32
  0
VERTEX
  8
0
  5
3372
 10
647.988
 20
155.686
 30
-1.05700e-13
  70
    32
  0
VERTEX
  8
0
  5
3373
 10
647.988
 20
155.675
 30
-1.05700e-13
  70
    32
  0
VERTEX
  8
0
  5
3374
 10
647.989
 20
155.664
 30
-1.05700e-13
  70
    32
  0
VERTEX
  8
0
  5
3375
 10
647.990
 20
155.653
 30
-1.05700e-13
  70
    32
  0
VERTEX
  8
0
  5
3376
 10
647.991
 20
155.642
 30
-1.05700e-13
  70
    32
  0
VERTEX
  8
0
  5
3377
 10
647.991
 20
155.631
 30
-1.05700e-13
  70
    32
  0
VERTEX
  8
0
  5
3378
 10
647.992
 20
155.620
 30
-1.05700e-13
  70
    32
  0
VERTEX
  8
0
  5
3379
 10
647.993
 20
155.609
 30
-1.05700e-13
  70
    32
  0
VERTEX
  8
0
  5
337A
 10
647.994
 20
155.598
 30
-1.05700e-13
  70
    32
  0
VERTEX
  8
0
  5
337B
 10
647.994
 20
155.587
 30
-1.05700e-13
  70
    32
  0
VERTEX
  8
0
  5
337C
 10
647.995
 20
155.577
 30
-1.05700e-13
  70
    32
  0
VERTEX
  8
0
  5
337D
 10
647.996
 20
155.566
 30
-1.05700e-13
  70
    32
  0
VERTEX
  8
0
  5
337E
 10
647.996
 20
155.555
 30
-1.05700e-13
  70
    32
  0
VERTEX
  8
0
  5
337F
 10
647.997
 20
155.544
 30
-1.05700e-13
  70
    32
  0
VERTEX
  8
0
  5
3380
 10
647.997
 20
155.533
 30
-1.05700e-13
  70
    32
  0
VERTEX
  8
0
  5
3381
 10
647.998
 20
155.522
 30
-1.05700e-13
  70
    32
  0
VERTEX
  8
0
  5
3382
 10
647.999
 20
155.511
 30
-1.05700e-13
  70
    32
  0
VERTEX
  8
0
  5
3383
 10
647.999
 20
155.500
 30
-1.05700e-13
  70
    32
  0
VERTEX
  8
0
  5
3384
 10
648.000
 20
155.489
 30
-1.05700e-13
  70
    32
  0
VERTEX
  8
0
  5
3385
 10
648.000
 20
155.478
 30
-1.05700e-13
  70
    32
  0
VERTEX
  8
0
  5
3386
 10
648.001
 20
155.468
 30
-1.05700e-13
  70
    32
  0
VERTEX
  8
0
  5
3387
 10
648.001
 20
155.457
 30
-1.05700e-13
  70
    32
  0
VERTEX
  8
0
  5
3388
 10
648.002
 20
155.446
 30
-1.05700e-13
  70
    32
  0
VERTEX
  8
0
  5
3389
 10
648.002
 20
155.435
 30
-1.05700e-13
  70
    32
  0
VERTEX
  8
0
  5
338A
 10
648.003
 20
155.424
 30
-1.05700e-13
  70
    32
  0
VERTEX
  8
0
  5
338B
 10
648.003
 20
155.413
 30
-1.05700e-13
  70
    32
  0
VERTEX
  8
0
  5
338C
 10
648.004
 20
155.402
 30
-1.05700e-13
  70
    32
  0
VERTEX
  8
0
  5
338D
 10
648.004
 20
155.391
 30
-1.05700e-13
  70
    32
  0
VERTEX
  8
0
  5
338E
 10
648.005
 20
155.381
 30
-1.05700e-13
  70
    32
  0
VERTEX
  8
0
  5
338F
 10
648.005
 20
155.370
 30
-1.05700e-13
  70
    32
  0
VERTEX
  8
0
  5
3390
 10
648.005
 20
155.359
 30
-1.05700e-13
  70
    32
  0
VERTEX
  8
0
  5
3391
 10
648.006
 20
155.348
 30
-1.05700e-13
  70
    32
  0
VERTEX
  8
0
  5
3392
 10
648.006
 20
155.337
 30
-1.05700e-13
  70
    32
  0
VERTEX
  8
0
  5
3393
 10
648.007
 20
155.326
 30
-1.05700e-13
  70
    32
  0
VERTEX
  8
0
  5
3394
 10
648.007
 20
155.315
 30
-1.05700e-13
  70
    32
  0
VERTEX
  8
0
  5
3395
 10
648.007
 20
155.305
 30
-1.05700e-13
  70
    32
  0
VERTEX
  8
0
  5
3396
 10
648.008
 20
155.294
 30
-1.05700e-13
  70
    32
  0
VERTEX
  8
0
  5
3397
 10
648.008
 20
155.283
 30
-1.05700e-13
  70
    32
  0
VERTEX
  8
0
  5
3398
 10
648.008
 20
155.272
 30
-1.05700e-13
  70
    32
  0
VERTEX
  8
0
  5
3399
 10
648.008
 20
155.261
 30
-1.05700e-13
  70
    32
  0
VERTEX
  8
0
  5
339A
 10
648.009
 20
155.250
 30
-1.05700e-13
  70
    32
  0
VERTEX
  8
0
  5
339B
 10
648.009
 20
155.240
 30
-1.05700e-13
  70
    32
  0
VERTEX
  8
0
  5
339C
 10
648.009
 20
155.229
 30
-1.05700e-13
  70
    32
  0
VERTEX
  8
0
  5
339D
 10
648.009
 20
155.218
 30
-1.05700e-13
  70
    32
  0
VERTEX
  8
0
  5
339E
 10
648.010
 20
155.207
 30
-1.05700e-13
  70
    32
  0
VERTEX
  8
0
  5
339F
 10
648.010
 20
155.196
 30
-1.05700e-13
  70
    32
  0
VERTEX
  8
0
  5
33A0
 10
648.010
 20
155.186
 30
-1.05700e-13
  70
    32
  0
VERTEX
  8
0
  5
33A1
 10
648.010
 20
155.175
 30
-1.05700e-13
  70
    32
  0
VERTEX
  8
0
  5
33A2
 10
648.010
 20
155.164
 30
-1.05700e-13
  70
    32
  0
VERTEX
  8
0
  5
33A3
 10
648.010
 20
155.153
 30
-1.05700e-13
  70
    32
  0
VERTEX
  8
0
  5
33A4
 10
648.011
 20
155.143
 30
-1.05700e-13
  70
    32
  0
VERTEX
  8
0
  5
33A5
 10
648.011
 20
155.132
 30
-1.05700e-13
  70
    32
  0
VERTEX
  8
0
  5
33A6
 10
648.011
 20
155.121
 30
-1.05700e-13
  70
    32
  0
VERTEX
  8
0
  5
33A7
 10
648.011
 20
155.110
 30
-1.05700e-13
  70
    32
  0
VERTEX
  8
0
  5
33A8
 10
648.011
 20
155.099
 30
-1.05700e-13
  70
    32
  0
VERTEX
  8
0
  5
33A9
 10
648.011
 20
155.089
 30
-1.05700e-13
  70
    32
  0
VERTEX
  8
0
  5
33AA
 10
648.011
 20
155.078
 30
-1.05700e-13
  70
    32
  0
VERTEX
  8
0
  5
33AB
 10
648.011
 20
155.067
 30
-1.05700e-13
  70
    32
  0
VERTEX
  8
0
  5
33AC
 10
648.011
 20
155.057
 30
-1.05700e-13
  70
    32
  0
VERTEX
  8
0
  5
33AD
 10
648.011
 20
155.046
 30
-1.05700e-13
  70
    32
  0
VERTEX
  8
0
  5
33AE
 10
648.011
 20
155.035
 30
-1.05700e-13
  70
    32
  0
SEQEND
  8
0
  5
33AF
  0
ARC
  5
2F01
  8
0
 10
639.0112652587620232
 20
155.0350682550881061
 30
-0.0000000000000995
 40
8.9999999999999751
 50
17.7825929444741888
 51
342.2174070555258254
  0
POLYLINE
  8
0
  5
33B0
  66
     1
 10
0.000000
 20
0.000000
 30
0.000000
  70
     8
  0
VERTEX
  8
0
  5
33B1
 10
701.511
 20
101.535
 30
-1.14400e-13
  70
    32
  0
VERTEX
  8
0
  5
33B2
 10
701.522
 20
101.535
 30
-1.14403e-13
  70
    32
  0
VERTEX
  8
0
  5
33B3
 10
701.533
 20
101.535
 30
-1.14405e-13
  70
    32
  0
VERTEX
  8
0
  5
33B4
 10
701.543
 20
101.535
 30
-1.14408e-13
  70
    32
  0
VERTEX
  8
0
  5
33B5
 10
701.554
 20
101.535
 30
-1.14410e-13
  70
    32
  0
VERTEX
  8
0
  5
33B6
 10
701.565
 20
101.535
 30
-1.14413e-13
  70
    32
  0
VERTEX
  8
0
  5
33B7
 10
701.576
 20
101.535
 30
-1.14416e-13
  70
    32
  0
VERTEX
  8
0
  5
33B8
 10
701.586
 20
101.535
 30
-1.14418e-13
  70
    32
  0
VERTEX
  8
0
  5
33B9
 10
701.597
 20
101.535
 30
-1.14421e-13
  70
    32
  0
VERTEX
  8
0
  5
33BA
 10
701.608
 20
101.535
 30
-1.14423e-13
  70
    32
  0
VERTEX
  8
0
  5
33BB
 10
701.619
 20
101.534
 30
-1.14426e-13
  70
    32
  0
VERTEX
  8
0
  5
33BC
 10
701.630
 20
101.534
 30
-1.14428e-13
  70
    32
  0
VERTEX
  8
0
  5
33BD
 10
701.640
 20
101.534
 30
-1.14431e-13
  70
    32
  0
VERTEX
  8
0
  5
33BE
 10
701.651
 20
101.534
 30
-1.14434e-13
  70
    32
  0
VERTEX
  8
0
  5
33BF
 10
701.662
 20
101.534
 30
-1.14436e-13
  70
    32
  0
VERTEX
  8
0
  5
33C0
 10
701.673
 20
101.534
 30
-1.14439e-13
  70
    32
  0
VERTEX
  8
0
  5
33C1
 10
701.683
 20
101.533
 30
-1.14441e-13
  70
    32
  0
VERTEX
  8
0
  5
33C2
 10
701.694
 20
101.533
 30
-1.14444e-13
  70
    32
  0
VERTEX
  8
0
  5
33C3
 10
701.705
 20
101.533
 30
-1.14446e-13
  70
    32
  0
VERTEX
  8
0
  5
33C4
 10
701.716
 20
101.533
 30
-1.14449e-13
  70
    32
  0
VERTEX
  8
0
  5
33C5
 10
701.727
 20
101.532
 30
-1.14452e-13
  70
    32
  0
VERTEX
  8
0
  5
33C6
 10
701.737
 20
101.532
 30
-1.14454e-13
  70
    32
  0
VERTEX
  8
0
  5
33C7
 10
701.748
 20
101.532
 30
-1.14457e-13
  70
    32
  0
VERTEX
  8
0
  5
33C8
 10
701.759
 20
101.532
 30
-1.14459e-13
  70
    32
  0
VERTEX
  8
0
  5
33C9
 10
701.770
 20
101.531
 30
-1.14462e-13
  70
    32
  0
VERTEX
  8
0
  5
33CA
 10
701.781
 20
101.531
 30
-1.14464e-13
  70
    32
  0
VERTEX
  8
0
  5
33CB
 10
701.792
 20
101.531
 30
-1.14467e-13
  70
    32
  0
VERTEX
  8
0
  5
33CC
 10
701.802
 20
101.530
 30
-1.14469e-13
  70
    32
  0
VERTEX
  8
0
  5
33CD
 10
701.813
 20
101.530
 30
-1.14472e-13
  70
    32
  0
VERTEX
  8
0
  5
33CE
 10
701.824
 20
101.530
 30
-1.14474e-13
  70
    32
  0
VERTEX
  8
0
  5
33CF
 10
701.835
 20
101.529
 30
-1.14477e-13
  70
    32
  0
VERTEX
  8
0
  5
33D0
 10
701.846
 20
101.529
 30
-1.14479e-13
  70
    32
  0
VERTEX
  8
0
  5
33D1
 10
701.857
 20
101.528
 30
-1.14482e-13
  70
    32
  0
VERTEX
  8
0
  5
33D2
 10
701.868
 20
101.528
 30
-1.14484e-13
  70
    32
  0
VERTEX
  8
0
  5
33D3
 10
701.878
 20
101.528
 30
-1.14487e-13
  70
    32
  0
VERTEX
  8
0
  5
33D4
 10
701.889
 20
101.527
 30
-1.14489e-13
  70
    32
  0
VERTEX
  8
0
  5
33D5
 10
701.900
 20
101.527
 30
-1.14492e-13
  70
    32
  0
VERTEX
  8
0
  5
33D6
 10
701.911
 20
101.526
 30
-1.14494e-13
  70
    32
  0
VERTEX
  8
0
  5
33D7
 10
701.922
 20
101.526
 30
-1.14497e-13
  70
    32
  0
VERTEX
  8
0
  5
33D8
 10
701.933
 20
101.525
 30
-1.14499e-13
  70
    32
  0
VERTEX
  8
0
  5
33D9
 10
701.944
 20
101.525
 30
-1.14502e-13
  70
    32
  0
VERTEX
  8
0
  5
33DA
 10
701.955
 20
101.524
 30
-1.14504e-13
  70
    32
  0
VERTEX
  8
0
  5
33DB
 10
701.966
 20
101.524
 30
-1.14506e-13
  70
    32
  0
VERTEX
  8
0
  5
33DC
 10
701.976
 20
101.523
 30
-1.14509e-13
  70
    32
  0
VERTEX
  8
0
  5
33DD
 10
701.987
 20
101.522
 30
-1.14511e-13
  70
    32
  0
VERTEX
  8
0
  5
33DE
 10
701.998
 20
101.522
 30
-1.14514e-13
  70
    32
  0
VERTEX
  8
0
  5
33DF
 10
702.009
 20
101.521
 30
-1.14516e-13
  70
    32
  0
VERTEX
  8
0
  5
33E0
 10
702.020
 20
101.521
 30
-1.14518e-13
  70
    32
  0
VERTEX
  8
0
  5
33E1
 10
702.031
 20
101.520
 30
-1.14521e-13
  70
    32
  0
VERTEX
  8
0
  5
33E2
 10
702.042
 20
101.519
 30
-1.14523e-13
  70
    32
  0
VERTEX
  8
0
  5
33E3
 10
702.053
 20
101.519
 30
-1.14525e-13
  70
    32
  0
VERTEX
  8
0
  5
33E4
 10
702.064
 20
101.518
 30
-1.14528e-13
  70
    32
  0
VERTEX
  8
0
  5
33E5
 10
702.075
 20
101.517
 30
-1.14530e-13
  70
    32
  0
VERTEX
  8
0
  5
33E6
 10
702.085
 20
101.517
 30
-1.14533e-13
  70
    32
  0
VERTEX
  8
0
  5
33E7
 10
702.096
 20
101.516
 30
-1.14535e-13
  70
    32
  0
VERTEX
  8
0
  5
33E8
 10
702.107
 20
101.515
 30
-1.14537e-13
  70
    32
  0
VERTEX
  8
0
  5
33E9
 10
702.118
 20
101.514
 30
-1.14539e-13
  70
    32
  0
VERTEX
  8
0
  5
33EA
 10
702.129
 20
101.514
 30
-1.14542e-13
  70
    32
  0
VERTEX
  8
0
  5
33EB
 10
702.140
 20
101.513
 30
-1.14544e-13
  70
    32
  0
VERTEX
  8
0
  5
33EC
 10
702.151
 20
101.512
 30
-1.14546e-13
  70
    32
  0
VERTEX
  8
0
  5
33ED
 10
702.162
 20
101.511
 30
-1.14548e-13
  70
    32
  0
VERTEX
  8
0
  5
33EE
 10
702.173
 20
101.511
 30
-1.14551e-13
  70
    32
  0
VERTEX
  8
0
  5
33EF
 10
702.184
 20
101.510
 30
-1.14553e-13
  70
    32
  0
VERTEX
  8
0
  5
33F0
 10
702.195
 20
101.509
 30
-1.14555e-13
  70
    32
  0
VERTEX
  8
0
  5
33F1
 10
702.206
 20
101.508
 30
-1.14557e-13
  70
    32
  0
VERTEX
  8
0
  5
33F2
 10
702.217
 20
101.507
 30
-1.14560e-13
  70
    32
  0
VERTEX
  8
0
  5
33F3
 10
702.228
 20
101.506
 30
-1.14562e-13
  70
    32
  0
VERTEX
  8
0
  5
33F4
 10
702.239
 20
101.506
 30
-1.14564e-13
  70
    32
  0
VERTEX
  8
0
  5
33F5
 10
702.249
 20
101.505
 30
-1.14566e-13
  70
    32
  0
VERTEX
  8
0
  5
33F6
 10
702.260
 20
101.504
 30
-1.14568e-13
  70
    32
  0
VERTEX
  8
0
  5
33F7
 10
702.271
 20
101.503
 30
-1.14570e-13
  70
    32
  0
VERTEX
  8
0
  5
33F8
 10
702.282
 20
101.502
 30
-1.14572e-13
  70
    32
  0
VERTEX
  8
0
  5
33F9
 10
702.293
 20
101.501
 30
-1.14574e-13
  70
    32
  0
VERTEX
  8
0
  5
33FA
 10
702.304
 20
101.500
 30
-1.14577e-13
  70
    32
  0
VERTEX
  8
0
  5
33FB
 10
702.315
 20
101.499
 30
-1.14579e-13
  70
    32
  0
VERTEX
  8
0
  5
33FC
 10
702.326
 20
101.498
 30
-1.14581e-13
  70
    32
  0
VERTEX
  8
0
  5
33FD
 10
702.337
 20
101.497
 30
-1.14583e-13
  70
    32
  0
VERTEX
  8
0
  5
33FE
 10
702.348
 20
101.496
 30
-1.14585e-13
  70
    32
  0
VERTEX
  8
0
  5
33FF
 10
702.359
 20
101.495
 30
-1.14587e-13
  70
    32
  0
VERTEX
  8
0
  5
3400
 10
702.370
 20
101.494
 30
-1.14589e-13
  70
    32
  0
VERTEX
  8
0
  5
3401
 10
702.381
 20
101.493
 30
-1.14591e-13
  70
    32
  0
VERTEX
  8
0
  5
3402
 10
702.392
 20
101.492
 30
-1.14593e-13
  70
    32
  0
VERTEX
  8
0
  5
3403
 10
702.403
 20
101.491
 30
-1.14595e-13
  70
    32
  0
VERTEX
  8
0
  5
3404
 10
702.414
 20
101.490
 30
-1.14597e-13
  70
    32
  0
VERTEX
  8
0
  5
3405
 10
702.425
 20
101.489
 30
-1.14599e-13
  70
    32
  0
VERTEX
  8
0
  5
3406
 10
702.436
 20
101.487
 30
-1.14600e-13
  70
    32
  0
VERTEX
  8
0
  5
3407
 10
702.447
 20
101.486
 30
-1.14602e-13
  70
    32
  0
VERTEX
  8
0
  5
3408
 10
702.458
 20
101.485
 30
-1.14604e-13
  70
    32
  0
VERTEX
  8
0
  5
3409
 10
702.469
 20
101.484
 30
-1.14606e-13
  70
    32
  0
VERTEX
  8
0
  5
340A
 10
702.480
 20
101.483
 30
-1.14608e-13
  70
    32
  0
VERTEX
  8
0
  5
340B
 10
702.491
 20
101.482
 30
-1.14610e-13
  70
    32
  0
VERTEX
  8
0
  5
340C
 10
702.502
 20
101.480
 30
-1.14611e-13
  70
    32
  0
VERTEX
  8
0
  5
340D
 10
702.512
 20
101.479
 30
-1.14613e-13
  70
    32
  0
VERTEX
  8
0
  5
340E
 10
702.523
 20
101.478
 30
-1.14615e-13
  70
    32
  0
VERTEX
  8
0
  5
340F
 10
702.534
 20
101.477
 30
-1.14617e-13
  70
    32
  0
VERTEX
  8
0
  5
3410
 10
702.545
 20
101.475
 30
-1.14618e-13
  70
    32
  0
VERTEX
  8
0
  5
3411
 10
702.556
 20
101.474
 30
-1.14620e-13
  70
    32
  0
VERTEX
  8
0
  5
3412
 10
702.567
 20
101.473
 30
-1.14622e-13
  70
    32
  0
VERTEX
  8
0
  5
3413
 10
702.578
 20
101.472
 30
-1.14624e-13
  70
    32
  0
VERTEX
  8
0
  5
3414
 10
702.589
 20
101.470
 30
-1.14625e-13
  70
    32
  0
VERTEX
  8
0
  5
3415
 10
702.600
 20
101.469
 30
-1.14627e-13
  70
    32
  0
VERTEX
  8
0
  5
3416
 10
702.611
 20
101.468
 30
-1.14628e-13
  70
    32
  0
VERTEX
  8
0
  5
3417
 10
702.622
 20
101.466
 30
-1.14630e-13
  70
    32
  0
VERTEX
  8
0
  5
3418
 10
702.633
 20
101.465
 30
-1.14632e-13
  70
    32
  0
VERTEX
  8
0
  5
3419
 10
702.644
 20
101.463
 30
-1.14633e-13
  70
    32
  0
VERTEX
  8
0
  5
341A
 10
702.655
 20
101.462
 30
-1.14635e-13
  70
    32
  0
VERTEX
  8
0
  5
341B
 10
702.666
 20
101.461
 30
-1.14636e-13
  70
    32
  0
VERTEX
  8
0
  5
341C
 10
702.677
 20
101.459
 30
-1.14638e-13
  70
    32
  0
VERTEX
  8
0
  5
341D
 10
702.688
 20
101.458
 30
-1.14639e-13
  70
    32
  0
VERTEX
  8
0
  5
341E
 10
702.699
 20
101.456
 30
-1.14641e-13
  70
    32
  0
VERTEX
  8
0
  5
341F
 10
702.710
 20
101.455
 30
-1.14642e-13
  70
    32
  0
VERTEX
  8
0
  5
3420
 10
702.721
 20
101.453
 30
-1.14644e-13
  70
    32
  0
VERTEX
  8
0
  5
3421
 10
702.732
 20
101.452
 30
-1.14645e-13
  70
    32
  0
VERTEX
  8
0
  5
3422
 10
702.743
 20
101.450
 30
-1.14646e-13
  70
    32
  0
VERTEX
  8
0
  5
3423
 10
702.754
 20
101.449
 30
-1.14648e-13
  70
    32
  0
VERTEX
  8
0
  5
3424
 10
702.764
 20
101.447
 30
-1.14649e-13
  70
    32
  0
VERTEX
  8
0
  5
3425
 10
702.775
 20
101.446
 30
-1.14650e-13
  70
    32
  0
VERTEX
  8
0
  5
3426
 10
702.786
 20
101.444
 30
-1.14652e-13
  70
    32
  0
VERTEX
  8
0
  5
3427
 10
702.797
 20
101.443
 30
-1.14653e-13
  70
    32
  0
VERTEX
  8
0
  5
3428
 10
702.808
 20
101.441
 30
-1.14654e-13
  70
    32
  0
VERTEX
  8
0
  5
3429
 10
702.819
 20
101.440
 30
-1.14656e-13
  70
    32
  0
VERTEX
  8
0
  5
342A
 10
702.830
 20
101.438
 30
-1.14657e-13
  70
    32
  0
VERTEX
  8
0
  5
342B
 10
702.841
 20
101.436
 30
-1.14658e-13
  70
    32
  0
VERTEX
  8
0
  5
342C
 10
702.852
 20
101.435
 30
-1.14660e-13
  70
    32
  0
VERTEX
  8
0
  5
342D
 10
702.863
 20
101.433
 30
-1.14661e-13
  70
    32
  0
VERTEX
  8
0
  5
342E
 10
702.874
 20
101.431
 30
-1.14663e-13
  70
    32
  0
VERTEX
  8
0
  5
342F
 10
702.885
 20
101.430
 30
-1.14664e-13
  70
    32
  0
VERTEX
  8
0
  5
3430
 10
702.896
 20
101.428
 30
-1.14666e-13
  70
    32
  0
VERTEX
  8
0
  5
3431
 10
702.907
 20
101.426
 30
-1.14667e-13
  70
    32
  0
VERTEX
  8
0
  5
3432
 10
702.918
 20
101.425
 30
-1.14669e-13
  70
    32
  0
VERTEX
  8
0
  5
3433
 10
702.928
 20
101.423
 30
-1.14671e-13
  70
    32
  0
VERTEX
  8
0
  5
3434
 10
702.939
 20
101.421
 30
-1.14672e-13
  70
    32
  0
VERTEX
  8
0
  5
3435
 10
702.950
 20
101.419
 30
-1.14674e-13
  70
    32
  0
VERTEX
  8
0
  5
3436
 10
702.961
 20
101.417
 30
-1.14675e-13
  70
    32
  0
VERTEX
  8
0
  5
3437
 10
702.972
 20
101.416
 30
-1.14677e-13
  70
    32
  0
VERTEX
  8
0
  5
3438
 10
702.983
 20
101.414
 30
-1.14679e-13
  70
    32
  0
VERTEX
  8
0
  5
3439
 10
702.994
 20
101.412
 30
-1.14680e-13
  70
    32
  0
VERTEX
  8
0
  5
343A
 10
703.005
 20
101.410
 30
-1.14682e-13
  70
    32
  0
VERTEX
  8
0
  5
343B
 10
703.016
 20
101.408
 30
-1.14684e-13
  70
    32
  0
VERTEX
  8
0
  5
343C
 10
703.027
 20
101.407
 30
-1.14686e-13
  70
    32
  0
VERTEX
  8
0
  5
343D
 10
703.037
 20
101.405
 30
-1.14687e-13
  70
    32
  0
VERTEX
  8
0
  5
343E
 10
703.048
 20
101.403
 30
-1.14689e-13
  70
    32
  0
VERTEX
  8
0
  5
343F
 10
703.059
 20
101.401
 30
-1.14691e-13
  70
    32
  0
VERTEX
  8
0
  5
3440
 10
703.070
 20
101.399
 30
-1.14693e-13
  70
    32
  0
VERTEX
  8
0
  5
3441
 10
703.081
 20
101.397
 30
-1.14694e-13
  70
    32
  0
VERTEX
  8
0
  5
3442
 10
703.092
 20
101.395
 30
-1.14696e-13
  70
    32
  0
VERTEX
  8
0
  5
3443
 10
703.103
 20
101.393
 30
-1.14698e-13
  70
    32
  0
VERTEX
  8
0
  5
3444
 10
703.114
 20
101.391
 30
-1.14700e-13
  70
    32
  0
VERTEX
  8
0
  5
3445
 10
703.125
 20
101.389
 30
-1.14702e-13
  70
    32
  0
VERTEX
  8
0
  5
3446
 10
703.135
 20
101.387
 30
-1.14704e-13
  70
    32
  0
VERTEX
  8
0
  5
3447
 10
703.146
 20
101.385
 30
-1.14706e-13
  70
    32
  0
VERTEX
  8
0
  5
3448
 10
703.157
 20
101.383
 30
-1.14708e-13
  70
    32
  0
VERTEX
  8
0
  5
3449
 10
703.168
 20
101.381
 30
-1.14709e-13
  70
    32
  0
VERTEX
  8
0
  5
344A
 10
703.179
 20
101.379
 30
-1.14711e-13
  70
    32
  0
VERTEX
  8
0
  5
344B
 10
703.190
 20
101.377
 30
-1.14713e-13
  70
    32
  0
VERTEX
  8
0
  5
344C
 10
703.201
 20
101.375
 30
-1.14715e-13
  70
    32
  0
VERTEX
  8
0
  5
344D
 10
703.211
 20
101.373
 30
-1.14717e-13
  70
    32
  0
VERTEX
  8
0
  5
344E
 10
703.222
 20
101.371
 30
-1.14719e-13
  70
    32
  0
VERTEX
  8
0
  5
344F
 10
703.233
 20
101.369
 30
-1.14721e-13
  70
    32
  0
VERTEX
  8
0
  5
3450
 10
703.244
 20
101.367
 30
-1.14723e-13
  70
    32
  0
VERTEX
  8
0
  5
3451
 10
703.255
 20
101.364
 30
-1.14725e-13
  70
    32
  0
VERTEX
  8
0
  5
3452
 10
703.266
 20
101.362
 30
-1.14727e-13
  70
    32
  0
VERTEX
  8
0
  5
3453
 10
703.276
 20
101.360
 30
-1.14729e-13
  70
    32
  0
VERTEX
  8
0
  5
3454
 10
703.287
 20
101.358
 30
-1.14732e-13
  70
    32
  0
VERTEX
  8
0
  5
3455
 10
703.298
 20
101.356
 30
-1.14734e-13
  70
    32
  0
VERTEX
  8
0
  5
3456
 10
703.309
 20
101.354
 30
-1.14736e-13
  70
    32
  0
VERTEX
  8
0
  5
3457
 10
703.320
 20
101.351
 30
-1.14738e-13
  70
    32
  0
VERTEX
  8
0
  5
3458
 10
703.330
 20
101.349
 30
-1.14740e-13
  70
    32
  0
VERTEX
  8
0
  5
3459
 10
703.341
 20
101.347
 30
-1.14742e-13
  70
    32
  0
VERTEX
  8
0
  5
345A
 10
703.352
 20
101.345
 30
-1.14744e-13
  70
    32
  0
VERTEX
  8
0
  5
345B
 10
703.363
 20
101.342
 30
-1.14746e-13
  70
    32
  0
VERTEX
  8
0
  5
345C
 10
703.374
 20
101.340
 30
-1.14748e-13
  70
    32
  0
VERTEX
  8
0
  5
345D
 10
703.384
 20
101.338
 30
-1.14750e-13
  70
    32
  0
VERTEX
  8
0
  5
345E
 10
703.395
 20
101.336
 30
-1.14753e-13
  70
    32
  0
VERTEX
  8
0
  5
345F
 10
703.406
 20
101.333
 30
-1.14755e-13
  70
    32
  0
VERTEX
  8
0
  5
3460
 10
703.417
 20
101.331
 30
-1.14757e-13
  70
    32
  0
VERTEX
  8
0
  5
3461
 10
703.428
 20
101.329
 30
-1.14759e-13
  70
    32
  0
VERTEX
  8
0
  5
3462
 10
703.438
 20
101.326
 30
-1.14761e-13
  70
    32
  0
VERTEX
  8
0
  5
3463
 10
703.449
 20
101.324
 30
-1.14763e-13
  70
    32
  0
VERTEX
  8
0
  5
3464
 10
703.460
 20
101.322
 30
-1.14766e-13
  70
    32
  0
VERTEX
  8
0
  5
3465
 10
703.471
 20
101.319
 30
-1.14768e-13
  70
    32
  0
VERTEX
  8
0
  5
3466
 10
703.481
 20
101.317
 30
-1.14770e-13
  70
    32
  0
VERTEX
  8
0
  5
3467
 10
703.492
 20
101.314
 30
-1.14772e-13
  70
    32
  0
VERTEX
  8
0
  5
3468
 10
703.503
 20
101.312
 30
-1.14774e-13
  70
    32
  0
VERTEX
  8
0
  5
3469
 10
703.514
 20
101.309
 30
-1.14777e-13
  70
    32
  0
VERTEX
  8
0
  5
346A
 10
703.524
 20
101.307
 30
-1.14779e-13
  70
    32
  0
VERTEX
  8
0
  5
346B
 10
703.535
 20
101.305
 30
-1.14781e-13
  70
    32
  0
VERTEX
  8
0
  5
346C
 10
703.546
 20
101.302
 30
-1.14783e-13
  70
    32
  0
VERTEX
  8
0
  5
346D
 10
703.556
 20
101.300
 30
-1.14786e-13
  70
    32
  0
VERTEX
  8
0
  5
346E
 10
703.567
 20
101.297
 30
-1.14788e-13
  70
    32
  0
VERTEX
  8
0
  5
346F
 10
703.578
 20
101.295
 30
-1.14790e-13
  70
    32
  0
VERTEX
  8
0
  5
3470
 10
703.588
 20
101.292
 30
-1.14792e-13
  70
    32
  0
VERTEX
  8
0
  5
3471
 10
703.599
 20
101.289
 30
-1.14795e-13
  70
    32
  0
VERTEX
  8
0
  5
3472
 10
703.610
 20
101.287
 30
-1.14797e-13
  70
    32
  0
VERTEX
  8
0
  5
3473
 10
703.621
 20
101.284
 30
-1.14799e-13
  70
    32
  0
VERTEX
  8
0
  5
3474
 10
703.631
 20
101.282
 30
-1.14801e-13
  70
    32
  0
VERTEX
  8
0
  5
3475
 10
703.642
 20
101.279
 30
-1.14804e-13
  70
    32
  0
VERTEX
  8
0
  5
3476
 10
703.653
 20
101.277
 30
-1.14806e-13
  70
    32
  0
VERTEX
  8
0
  5
3477
 10
703.663
 20
101.274
 30
-1.14808e-13
  70
    32
  0
VERTEX
  8
0
  5
3478
 10
703.674
 20
101.271
 30
-1.14810e-13
  70
    32
  0
VERTEX
  8
0
  5
3479
 10
703.684
 20
101.269
 30
-1.14813e-13
  70
    32
  0
VERTEX
  8
0
  5
347A
 10
703.695
 20
101.266
 30
-1.14815e-13
  70
    32
  0
VERTEX
  8
0
  5
347B
 10
703.706
 20
101.263
 30
-1.14817e-13
  70
    32
  0
VERTEX
  8
0
  5
347C
 10
703.716
 20
101.261
 30
-1.14819e-13
  70
    32
  0
VERTEX
  8
0
  5
347D
 10
703.727
 20
101.258
 30
-1.14822e-13
  70
    32
  0
VERTEX
  8
0
  5
347E
 10
703.738
 20
101.255
 30
-1.14824e-13
  70
    32
  0
VERTEX
  8
0
  5
347F
 10
703.748
 20
101.253
 30
-1.14826e-13
  70
    32
  0
VERTEX
  8
0
  5
3480
 10
703.759
 20
101.250
 30
-1.14829e-13
  70
    32
  0
VERTEX
  8
0
  5
3481
 10
703.769
 20
101.247
 30
-1.14831e-13
  70
    32
  0
VERTEX
  8
0
  5
3482
 10
703.780
 20
101.244
 30
-1.14833e-13
  70
    32
  0
VERTEX
  8
0
  5
3483
 10
703.791
 20
101.242
 30
-1.14835e-13
  70
    32
  0
VERTEX
  8
0
  5
3484
 10
703.801
 20
101.239
 30
-1.14838e-13
  70
    32
  0
VERTEX
  8
0
  5
3485
 10
703.812
 20
101.236
 30
-1.14840e-13
  70
    32
  0
VERTEX
  8
0
  5
3486
 10
703.822
 20
101.233
 30
-1.14842e-13
  70
    32
  0
VERTEX
  8
0
  5
3487
 10
703.833
 20
101.230
 30
-1.14844e-13
  70
    32
  0
VERTEX
  8
0
  5
3488
 10
703.843
 20
101.228
 30
-1.14847e-13
  70
    32
  0
VERTEX
  8
0
  5
3489
 10
703.854
 20
101.225
 30
-1.14849e-13
  70
    32
  0
VERTEX
  8
0
  5
348A
 10
703.865
 20
101.222
 30
-1.14851e-13
  70
    32
  0
VERTEX
  8
0
  5
348B
 10
703.875
 20
101.219
 30
-1.14853e-13
  70
    32
  0
VERTEX
  8
0
  5
348C
 10
703.886
 20
101.216
 30
-1.14855e-13
  70
    32
  0
VERTEX
  8
0
  5
348D
 10
703.896
 20
101.213
 30
-1.14858e-13
  70
    32
  0
VERTEX
  8
0
  5
348E
 10
703.907
 20
101.210
 30
-1.14860e-13
  70
    32
  0
VERTEX
  8
0
  5
348F
 10
703.917
 20
101.208
 30
-1.14862e-13
  70
    32
  0
VERTEX
  8
0
  5
3490
 10
703.928
 20
101.205
 30
-1.14864e-13
  70
    32
  0
VERTEX
  8
0
  5
3491
 10
703.938
 20
101.202
 30
-1.14867e-13
  70
    32
  0
VERTEX
  8
0
  5
3492
 10
703.949
 20
101.199
 30
-1.14869e-13
  70
    32
  0
VERTEX
  8
0
  5
3493
 10
703.959
 20
101.196
 30
-1.14871e-13
  70
    32
  0
VERTEX
  8
0
  5
3494
 10
703.970
 20
101.193
 30
-1.14873e-13
  70
    32
  0
VERTEX
  8
0
  5
3495
 10
703.980
 20
101.190
 30
-1.14875e-13
  70
    32
  0
VERTEX
  8
0
  5
3496
 10
703.991
 20
101.187
 30
-1.14878e-13
  70
    32
  0
VERTEX
  8
0
  5
3497
 10
704.001
 20
101.184
 30
-1.14880e-13
  70
    32
  0
VERTEX
  8
0
  5
3498
 10
704.011
 20
101.181
 30
-1.14882e-13
  70
    32
  0
VERTEX
  8
0
  5
3499
 10
704.022
 20
101.178
 30
-1.14884e-13
  70
    32
  0
VERTEX
  8
0
  5
349A
 10
704.032
 20
101.175
 30
-1.14886e-13
  70
    32
  0
VERTEX
  8
0
  5
349B
 10
704.043
 20
101.172
 30
-1.14888e-13
  70
    32
  0
VERTEX
  8
0
  5
349C
 10
704.053
 20
101.169
 30
-1.14889e-13
  70
    32
  0
VERTEX
  8
0
  5
349D
 10
704.064
 20
101.166
 30
-1.14891e-13
  70
    32
  0
VERTEX
  8
0
  5
349E
 10
704.074
 20
101.163
 30
-1.14892e-13
  70
    32
  0
VERTEX
  8
0
  5
349F
 10
704.084
 20
101.159
 30
-1.14894e-13
  70
    32
  0
VERTEX
  8
0
  5
34A0
 10
704.095
 20
101.156
 30
-1.14895e-13
  70
    32
  0
VERTEX
  8
0
  5
34A1
 10
704.105
 20
101.153
 30
-1.14896e-13
  70
    32
  0
VERTEX
  8
0
  5
34A2
 10
704.115
 20
101.150
 30
-1.14896e-13
  70
    32
  0
VERTEX
  8
0
  5
34A3
 10
704.126
 20
101.147
 30
-1.14897e-13
  70
    32
  0
VERTEX
  8
0
  5
34A4
 10
704.136
 20
101.144
 30
-1.14898e-13
  70
    32
  0
VERTEX
  8
0
  5
34A5
 10
704.147
 20
101.141
 30
-1.14898e-13
  70
    32
  0
VERTEX
  8
0
  5
34A6
 10
704.157
 20
101.137
 30
-1.14899e-13
  70
    32
  0
VERTEX
  8
0
  5
34A7
 10
704.167
 20
101.134
 30
-1.14899e-13
  70
    32
  0
VERTEX
  8
0
  5
34A8
 10
704.178
 20
101.131
 30
-1.14899e-13
  70
    32
  0
VERTEX
  8
0
  5
34A9
 10
704.188
 20
101.128
 30
-1.14900e-13
  70
    32
  0
VERTEX
  8
0
  5
34AA
 10
704.198
 20
101.125
 30
-1.14900e-13
  70
    32
  0
VERTEX
  8
0
  5
34AB
 10
704.208
 20
101.121
 30
-1.14900e-13
  70
    32
  0
VERTEX
  8
0
  5
34AC
 10
704.219
 20
101.118
 30
-1.14900e-13
  70
    32
  0
VERTEX
  8
0
  5
34AD
 10
704.229
 20
101.115
 30
-1.14900e-13
  70
    32
  0
VERTEX
  8
0
  5
34AE
 10
704.239
 20
101.112
 30
-1.14900e-13
  70
    32
  0
VERTEX
  8
0
  5
34AF
 10
704.250
 20
101.108
 30
-1.14900e-13
  70
    32
  0
VERTEX
  8
0
  5
34B0
 10
704.260
 20
101.105
 30
-1.14900e-13
  70
    32
  0
SEQEND
  8
0
  5
34B1
  0
POLYLINE
  8
0
  5
34B2
  66
     1
 10
0.000000
 20
0.000000
 30
0.000000
  70
     8
  0
VERTEX
  8
0
  5
34B3
 10
698.763
 20
101.105
 30
-1.14000e-13
  70
    32
  0
VERTEX
  8
0
  5
34B4
 10
698.773
 20
101.108
 30
-1.14000e-13
  70
    32
  0
VERTEX
  8
0
  5
34B5
 10
698.783
 20
101.112
 30
-1.14000e-13
  70
    32
  0
VERTEX
  8
0
  5
34B6
 10
698.793
 20
101.115
 30
-1.14000e-13
  70
    32
  0
VERTEX
  8
0
  5
34B7
 10
698.804
 20
101.118
 30
-1.14000e-13
  70
    32
  0
VERTEX
  8
0
  5
34B8
 10
698.814
 20
101.121
 30
-1.14000e-13
  70
    32
  0
VERTEX
  8
0
  5
34B9
 10
698.824
 20
101.125
 30
-1.14000e-13
  70
    32
  0
VERTEX
  8
0
  5
34BA
 10
698.835
 20
101.128
 30
-1.14000e-13
  70
    32
  0
VERTEX
  8
0
  5
34BB
 10
698.845
 20
101.131
 30
-1.14001e-13
  70
    32
  0
VERTEX
  8
0
  5
34BC
 10
698.855
 20
101.134
 30
-1.14001e-13
  70
    32
  0
VERTEX
  8
0
  5
34BD
 10
698.866
 20
101.137
 30
-1.14001e-13
  70
    32
  0
VERTEX
  8
0
  5
34BE
 10
698.876
 20
101.141
 30
-1.14002e-13
  70
    32
  0
VERTEX
  8
0
  5
34BF
 10
698.886
 20
101.144
 30
-1.14002e-13
  70
    32
  0
VERTEX
  8
0
  5
34C0
 10
698.897
 20
101.147
 30
-1.14003e-13
  70
    32
  0
VERTEX
  8
0
  5
34C1
 10
698.907
 20
101.150
 30
-1.14004e-13
  70
    32
  0
VERTEX
  8
0
  5
34C2
 10
698.917
 20
101.153
 30
-1.14004e-13
  70
    32
  0
VERTEX
  8
0
  5
34C3
 10
698.928
 20
101.156
 30
-1.14005e-13
  70
    32
  0
VERTEX
  8
0
  5
34C4
 10
698.938
 20
101.159
 30
-1.14006e-13
  70
    32
  0
VERTEX
  8
0
  5
34C5
 10
698.949
 20
101.163
 30
-1.14008e-13
  70
    32
  0
VERTEX
  8
0
  5
34C6
 10
698.959
 20
101.166
 30
-1.14009e-13
  70
    32
  0
VERTEX
  8
0
  5
34C7
 10
698.969
 20
101.169
 30
-1.14011e-13
  70
    32
  0
VERTEX
  8
0
  5
34C8
 10
698.980
 20
101.172
 30
-1.14012e-13
  70
    32
  0
VERTEX
  8
0
  5
34C9
 10
698.990
 20
101.175
 30
-1.14014e-13
  70
    32
  0
VERTEX
  8
0
  5
34CA
 10
699.001
 20
101.178
 30
-1.14016e-13
  70
    32
  0
VERTEX
  8
0
  5
34CB
 10
699.011
 20
101.181
 30
-1.14018e-13
  70
    32
  0
VERTEX
  8
0
  5
34CC
 10
699.022
 20
101.184
 30
-1.14020e-13
  70
    32
  0
VERTEX
  8
0
  5
34CD
 10
699.032
 20
101.187
 30
-1.14022e-13
  70
    32
  0
VERTEX
  8
0
  5
34CE
 10
699.042
 20
101.190
 30
-1.14025e-13
  70
    32
  0
VERTEX
  8
0
  5
34CF
 10
699.053
 20
101.193
 30
-1.14027e-13
  70
    32
  0
VERTEX
  8
0
  5
34D0
 10
699.063
 20
101.196
 30
-1.14029e-13
  70
    32
  0
VERTEX
  8
0
  5
34D1
 10
699.074
 20
101.199
 30
-1.14031e-13
  70
    32
  0
VERTEX
  8
0
  5
34D2
 10
699.084
 20
101.202
 30
-1.14033e-13
  70
    32
  0
VERTEX
  8
0
  5
34D3
 10
699.095
 20
101.205
 30
-1.14036e-13
  70
    32
  0
VERTEX
  8
0
  5
34D4
 10
699.105
 20
101.208
 30
-1.14038e-13
  70
    32
  0
VERTEX
  8
0
  5
34D5
 10
699.116
 20
101.210
 30
-1.14040e-13
  70
    32
  0
VERTEX
  8
0
  5
34D6
 10
699.126
 20
101.213
 30
-1.14042e-13
  70
    32
  0
VERTEX
  8
0
  5
34D7
 10
699.137
 20
101.216
 30
-1.14045e-13
  70
    32
  0
VERTEX
  8
0
  5
34D8
 10
699.147
 20
101.219
 30
-1.14047e-13
  70
    32
  0
VERTEX
  8
0
  5
34D9
 10
699.158
 20
101.222
 30
-1.14049e-13
  70
    32
  0
VERTEX
  8
0
  5
34DA
 10
699.169
 20
101.225
 30
-1.14051e-13
  70
    32
  0
VERTEX
  8
0
  5
34DB
 10
699.179
 20
101.228
 30
-1.14053e-13
  70
    32
  0
VERTEX
  8
0
  5
34DC
 10
699.190
 20
101.230
 30
-1.14056e-13
  70
    32
  0
VERTEX
  8
0
  5
34DD
 10
699.200
 20
101.233
 30
-1.14058e-13
  70
    32
  0
VERTEX
  8
0
  5
34DE
 10
699.211
 20
101.236
 30
-1.14060e-13
  70
    32
  0
VERTEX
  8
0
  5
34DF
 10
699.221
 20
101.239
 30
-1.14062e-13
  70
    32
  0
VERTEX
  8
0
  5
34E0
 10
699.232
 20
101.242
 30
-1.14065e-13
  70
    32
  0
VERTEX
  8
0
  5
34E1
 10
699.242
 20
101.244
 30
-1.14067e-13
  70
    32
  0
VERTEX
  8
0
  5
34E2
 10
699.253
 20
101.247
 30
-1.14069e-13
  70
    32
  0
VERTEX
  8
0
  5
34E3
 10
699.264
 20
101.250
 30
-1.14071e-13
  70
    32
  0
VERTEX
  8
0
  5
34E4
 10
699.274
 20
101.253
 30
-1.14074e-13
  70
    32
  0
VERTEX
  8
0
  5
34E5
 10
699.285
 20
101.255
 30
-1.14076e-13
  70
    32
  0
VERTEX
  8
0
  5
34E6
 10
699.296
 20
101.258
 30
-1.14078e-13
  70
    32
  0
VERTEX
  8
0
  5
34E7
 10
699.306
 20
101.261
 30
-1.14081e-13
  70
    32
  0
VERTEX
  8
0
  5
34E8
 10
699.317
 20
101.263
 30
-1.14083e-13
  70
    32
  0
VERTEX
  8
0
  5
34E9
 10
699.327
 20
101.266
 30
-1.14085e-13
  70
    32
  0
VERTEX
  8
0
  5
34EA
 10
699.338
 20
101.269
 30
-1.14087e-13
  70
    32
  0
VERTEX
  8
0
  5
34EB
 10
699.349
 20
101.271
 30
-1.14090e-13
  70
    32
  0
VERTEX
  8
0
  5
34EC
 10
699.359
 20
101.274
 30
-1.14092e-13
  70
    32
  0
VERTEX
  8
0
  5
34ED
 10
699.370
 20
101.277
 30
-1.14094e-13
  70
    32
  0
VERTEX
  8
0
  5
34EE
 10
699.381
 20
101.279
 30
-1.14096e-13
  70
    32
  0
VERTEX
  8
0
  5
34EF
 10
699.391
 20
101.282
 30
-1.14099e-13
  70
    32
  0
VERTEX
  8
0
  5
34F0
 10
699.402
 20
101.284
 30
-1.14101e-13
  70
    32
  0
VERTEX
  8
0
  5
34F1
 10
699.413
 20
101.287
 30
-1.14103e-13
  70
    32
  0
VERTEX
  8
0
  5
34F2
 10
699.423
 20
101.289
 30
-1.14105e-13
  70
    32
  0
VERTEX
  8
0
  5
34F3
 10
699.434
 20
101.292
 30
-1.14108e-13
  70
    32
  0
VERTEX
  8
0
  5
34F4
 10
699.445
 20
101.295
 30
-1.14110e-13
  70
    32
  0
VERTEX
  8
0
  5
34F5
 10
699.455
 20
101.297
 30
-1.14112e-13
  70
    32
  0
VERTEX
  8
0
  5
34F6
 10
699.466
 20
101.300
 30
-1.14114e-13
  70
    32
  0
VERTEX
  8
0
  5
34F7
 10
699.477
 20
101.302
 30
-1.14117e-13
  70
    32
  0
VERTEX
  8
0
  5
34F8
 10
699.488
 20
101.305
 30
-1.14119e-13
  70
    32
  0
VERTEX
  8
0
  5
34F9
 10
699.498
 20
101.307
 30
-1.14121e-13
  70
    32
  0
VERTEX
  8
0
  5
34FA
 10
699.509
 20
101.309
 30
-1.14123e-13
  70
    32
  0
VERTEX
  8
0
  5
34FB
 10
699.520
 20
101.312
 30
-1.14126e-13
  70
    32
  0
VERTEX
  8
0
  5
34FC
 10
699.530
 20
101.314
 30
-1.14128e-13
  70
    32
  0
VERTEX
  8
0
  5
34FD
 10
699.541
 20
101.317
 30
-1.14130e-13
  70
    32
  0
VERTEX
  8
0
  5
34FE
 10
699.552
 20
101.319
 30
-1.14132e-13
  70
    32
  0
VERTEX
  8
0
  5
34FF
 10
699.563
 20
101.322
 30
-1.14134e-13
  70
    32
  0
VERTEX
  8
0
  5
3500
 10
699.573
 20
101.324
 30
-1.14137e-13
  70
    32
  0
VERTEX
  8
0
  5
3501
 10
699.584
 20
101.326
 30
-1.14139e-13
  70
    32
  0
VERTEX
  8
0
  5
3502
 10
699.595
 20
101.329
 30
-1.14141e-13
  70
    32
  0
VERTEX
  8
0
  5
3503
 10
699.606
 20
101.331
 30
-1.14143e-13
  70
    32
  0
VERTEX
  8
0
  5
3504
 10
699.617
 20
101.333
 30
-1.14145e-13
  70
    32
  0
VERTEX
  8
0
  5
3505
 10
699.627
 20
101.336
 30
-1.14147e-13
  70
    32
  0
VERTEX
  8
0
  5
3506
 10
699.638
 20
101.338
 30
-1.14150e-13
  70
    32
  0
VERTEX
  8
0
  5
3507
 10
699.649
 20
101.340
 30
-1.14152e-13
  70
    32
  0
VERTEX
  8
0
  5
3508
 10
699.660
 20
101.342
 30
-1.14154e-13
  70
    32
  0
VERTEX
  8
0
  5
3509
 10
699.670
 20
101.345
 30
-1.14156e-13
  70
    32
  0
VERTEX
  8
0
  5
350A
 10
699.681
 20
101.347
 30
-1.14158e-13
  70
    32
  0
VERTEX
  8
0
  5
350B
 10
699.692
 20
101.349
 30
-1.14160e-13
  70
    32
  0
VERTEX
  8
0
  5
350C
 10
699.703
 20
101.351
 30
-1.14162e-13
  70
    32
  0
VERTEX
  8
0
  5
350D
 10
699.714
 20
101.354
 30
-1.14164e-13
  70
    32
  0
VERTEX
  8
0
  5
350E
 10
699.724
 20
101.356
 30
-1.14166e-13
  70
    32
  0
VERTEX
  8
0
  5
350F
 10
699.735
 20
101.358
 30
-1.14168e-13
  70
    32
  0
VERTEX
  8
0
  5
3510
 10
699.746
 20
101.360
 30
-1.14171e-13
  70
    32
  0
VERTEX
  8
0
  5
3511
 10
699.757
 20
101.362
 30
-1.14173e-13
  70
    32
  0
VERTEX
  8
0
  5
3512
 10
699.768
 20
101.364
 30
-1.14175e-13
  70
    32
  0
VERTEX
  8
0
  5
3513
 10
699.779
 20
101.367
 30
-1.14177e-13
  70
    32
  0
VERTEX
  8
0
  5
3514
 10
699.789
 20
101.369
 30
-1.14179e-13
  70
    32
  0
VERTEX
  8
0
  5
3515
 10
699.800
 20
101.371
 30
-1.14181e-13
  70
    32
  0
VERTEX
  8
0
  5
3516
 10
699.811
 20
101.373
 30
-1.14183e-13
  70
    32
  0
VERTEX
  8
0
  5
3517
 10
699.822
 20
101.375
 30
-1.14185e-13
  70
    32
  0
VERTEX
  8
0
  5
3518
 10
699.833
 20
101.377
 30
-1.14187e-13
  70
    32
  0
VERTEX
  8
0
  5
3519
 10
699.844
 20
101.379
 30
-1.14189e-13
  70
    32
  0
VERTEX
  8
0
  5
351A
 10
699.855
 20
101.381
 30
-1.14191e-13
  70
    32
  0
VERTEX
  8
0
  5
351B
 10
699.865
 20
101.383
 30
-1.14192e-13
  70
    32
  0
VERTEX
  8
0
  5
351C
 10
699.876
 20
101.385
 30
-1.14194e-13
  70
    32
  0
VERTEX
  8
0
  5
351D
 10
699.887
 20
101.387
 30
-1.14196e-13
  70
    32
  0
VERTEX
  8
0
  5
351E
 10
699.898
 20
101.389
 30
-1.14198e-13
  70
    32
  0
VERTEX
  8
0
  5
351F
 10
699.909
 20
101.391
 30
-1.14200e-13
  70
    32
  0
VERTEX
  8
0
  5
3520
 10
699.920
 20
101.393
 30
-1.14202e-13
  70
    32
  0
VERTEX
  8
0
  5
3521
 10
699.931
 20
101.395
 30
-1.14204e-13
  70
    32
  0
VERTEX
  8
0
  5
3522
 10
699.941
 20
101.397
 30
-1.14206e-13
  70
    32
  0
VERTEX
  8
0
  5
3523
 10
699.952
 20
101.399
 30
-1.14207e-13
  70
    32
  0
VERTEX
  8
0
  5
3524
 10
699.963
 20
101.401
 30
-1.14209e-13
  70
    32
  0
VERTEX
  8
0
  5
3525
 10
699.974
 20
101.403
 30
-1.14211e-13
  70
    32
  0
VERTEX
  8
0
  5
3526
 10
699.985
 20
101.405
 30
-1.14213e-13
  70
    32
  0
VERTEX
  8
0
  5
3527
 10
699.996
 20
101.407
 30
-1.14214e-13
  70
    32
  0
VERTEX
  8
0
  5
3528
 10
700.007
 20
101.408
 30
-1.14216e-13
  70
    32
  0
VERTEX
  8
0
  5
3529
 10
700.018
 20
101.410
 30
-1.14218e-13
  70
    32
  0
VERTEX
  8
0
  5
352A
 10
700.029
 20
101.412
 30
-1.14220e-13
  70
    32
  0
VERTEX
  8
0
  5
352B
 10
700.040
 20
101.414
 30
-1.14221e-13
  70
    32
  0
VERTEX
  8
0
  5
352C
 10
700.050
 20
101.416
 30
-1.14223e-13
  70
    32
  0
VERTEX
  8
0
  5
352D
 10
700.061
 20
101.417
 30
-1.14225e-13
  70
    32
  0
VERTEX
  8
0
  5
352E
 10
700.072
 20
101.419
 30
-1.14226e-13
  70
    32
  0
VERTEX
  8
0
  5
352F
 10
700.083
 20
101.421
 30
-1.14228e-13
  70
    32
  0
VERTEX
  8
0
  5
3530
 10
700.094
 20
101.423
 30
-1.14229e-13
  70
    32
  0
VERTEX
  8
0
  5
3531
 10
700.105
 20
101.425
 30
-1.14231e-13
  70
    32
  0
VERTEX
  8
0
  5
3532
 10
700.116
 20
101.426
 30
-1.14233e-13
  70
    32
  0
VERTEX
  8
0
  5
3533
 10
700.127
 20
101.428
 30
-1.14234e-13
  70
    32
  0
VERTEX
  8
0
  5
3534
 10
700.138
 20
101.430
 30
-1.14236e-13
  70
    32
  0
VERTEX
  8
0
  5
3535
 10
700.149
 20
101.431
 30
-1.14237e-13
  70
    32
  0
VERTEX
  8
0
  5
3536
 10
700.160
 20
101.433
 30
-1.14239e-13
  70
    32
  0
VERTEX
  8
0
  5
3537
 10
700.171
 20
101.435
 30
-1.14240e-13
  70
    32
  0
VERTEX
  8
0
  5
3538
 10
700.182
 20
101.436
 30
-1.14242e-13
  70
    32
  0
VERTEX
  8
0
  5
3539
 10
700.192
 20
101.438
 30
-1.14243e-13
  70
    32
  0
VERTEX
  8
0
  5
353A
 10
700.203
 20
101.440
 30
-1.14244e-13
  70
    32
  0
VERTEX
  8
0
  5
353B
 10
700.214
 20
101.441
 30
-1.14246e-13
  70
    32
  0
VERTEX
  8
0
  5
353C
 10
700.225
 20
101.443
 30
-1.14247e-13
  70
    32
  0
VERTEX
  8
0
  5
353D
 10
700.236
 20
101.444
 30
-1.14248e-13
  70
    32
  0
VERTEX
  8
0
  5
353E
 10
700.247
 20
101.446
 30
-1.14250e-13
  70
    32
  0
VERTEX
  8
0
  5
353F
 10
700.258
 20
101.447
 30
-1.14251e-13
  70
    32
  0
VERTEX
  8
0
  5
3540
 10
700.269
 20
101.449
 30
-1.14252e-13
  70
    32
  0
VERTEX
  8
0
  5
3541
 10
700.280
 20
101.450
 30
-1.14254e-13
  70
    32
  0
VERTEX
  8
0
  5
3542
 10
700.291
 20
101.452
 30
-1.14255e-13
  70
    32
  0
VERTEX
  8
0
  5
3543
 10
700.302
 20
101.453
 30
-1.14256e-13
  70
    32
  0
VERTEX
  8
0
  5
3544
 10
700.313
 20
101.455
 30
-1.14258e-13
  70
    32
  0
VERTEX
  8
0
  5
3545
 10
700.324
 20
101.456
 30
-1.14259e-13
  70
    32
  0
VERTEX
  8
0
  5
3546
 10
700.335
 20
101.458
 30
-1.14261e-13
  70
    32
  0
VERTEX
  8
0
  5
3547
 10
700.346
 20
101.459
 30
-1.14262e-13
  70
    32
  0
VERTEX
  8
0
  5
3548
 10
700.357
 20
101.461
 30
-1.14264e-13
  70
    32
  0
VERTEX
  8
0
  5
3549
 10
700.368
 20
101.462
 30
-1.14265e-13
  70
    32
  0
VERTEX
  8
0
  5
354A
 10
700.379
 20
101.463
 30
-1.14267e-13
  70
    32
  0
VERTEX
  8
0
  5
354B
 10
700.390
 20
101.465
 30
-1.14268e-13
  70
    32
  0
VERTEX
  8
0
  5
354C
 10
700.400
 20
101.466
 30
-1.14270e-13
  70
    32
  0
VERTEX
  8
0
  5
354D
 10
700.411
 20
101.468
 30
-1.14271e-13
  70
    32
  0
VERTEX
  8
0
  5
354E
 10
700.422
 20
101.469
 30
-1.14273e-13
  70
    32
  0
VERTEX
  8
0
  5
354F
 10
700.433
 20
101.470
 30
-1.14274e-13
  70
    32
  0
VERTEX
  8
0
  5
3550
 10
700.444
 20
101.472
 30
-1.14276e-13
  70
    32
  0
VERTEX
  8
0
  5
3551
 10
700.455
 20
101.473
 30
-1.14278e-13
  70
    32
  0
VERTEX
  8
0
  5
3552
 10
700.466
 20
101.474
 30
-1.14279e-13
  70
    32
  0
VERTEX
  8
0
  5
3553
 10
700.477
 20
101.475
 30
-1.14281e-13
  70
    32
  0
VERTEX
  8
0
  5
3554
 10
700.488
 20
101.477
 30
-1.14283e-13
  70
    32
  0
VERTEX
  8
0
  5
3555
 10
700.499
 20
101.478
 30
-1.14284e-13
  70
    32
  0
VERTEX
  8
0
  5
3556
 10
700.510
 20
101.479
 30
-1.14286e-13
  70
    32
  0
VERTEX
  8
0
  5
3557
 10
700.521
 20
101.480
 30
-1.14288e-13
  70
    32
  0
VERTEX
  8
0
  5
3558
 10
700.532
 20
101.482
 30
-1.14289e-13
  70
    32
  0
VERTEX
  8
0
  5
3559
 10
700.543
 20
101.483
 30
-1.14291e-13
  70
    32
  0
VERTEX
  8
0
  5
355A
 10
700.554
 20
101.484
 30
-1.14293e-13
  70
    32
  0
VERTEX
  8
0
  5
355B
 10
700.565
 20
101.485
 30
-1.14294e-13
  70
    32
  0
VERTEX
  8
0
  5
355C
 10
700.576
 20
101.486
 30
-1.14296e-13
  70
    32
  0
VERTEX
  8
0
  5
355D
 10
700.587
 20
101.487
 30
-1.14298e-13
  70
    32
  0
VERTEX
  8
0
  5
355E
 10
700.598
 20
101.489
 30
-1.14299e-13
  70
    32
  0
VERTEX
  8
0
  5
355F
 10
700.609
 20
101.490
 30
-1.14301e-13
  70
    32
  0
VERTEX
  8
0
  5
3560
 10
700.620
 20
101.491
 30
-1.14303e-13
  70
    32
  0
VERTEX
  8
0
  5
3561
 10
700.631
 20
101.492
 30
-1.14305e-13
  70
    32
  0
VERTEX
  8
0
  5
3562
 10
700.642
 20
101.493
 30
-1.14306e-13
  70
    32
  0
VERTEX
  8
0
  5
3563
 10
700.653
 20
101.494
 30
-1.14308e-13
  70
    32
  0
VERTEX
  8
0
  5
3564
 10
700.664
 20
101.495
 30
-1.14310e-13
  70
    32
  0
VERTEX
  8
0
  5
3565
 10
700.674
 20
101.496
 30
-1.14311e-13
  70
    32
  0
VERTEX
  8
0
  5
3566
 10
700.685
 20
101.497
 30
-1.14313e-13
  70
    32
  0
VERTEX
  8
0
  5
3567
 10
700.696
 20
101.498
 30
-1.14315e-13
  70
    32
  0
VERTEX
  8
0
  5
3568
 10
700.707
 20
101.499
 30
-1.14317e-13
  70
    32
  0
VERTEX
  8
0
  5
3569
 10
700.718
 20
101.500
 30
-1.14318e-13
  70
    32
  0
VERTEX
  8
0
  5
356A
 10
700.729
 20
101.501
 30
-1.14320e-13
  70
    32
  0
VERTEX
  8
0
  5
356B
 10
700.740
 20
101.502
 30
-1.14322e-13
  70
    32
  0
VERTEX
  8
0
  5
356C
 10
700.751
 20
101.503
 30
-1.14324e-13
  70
    32
  0
VERTEX
  8
0
  5
356D
 10
700.762
 20
101.504
 30
-1.14325e-13
  70
    32
  0
VERTEX
  8
0
  5
356E
 10
700.773
 20
101.505
 30
-1.14327e-13
  70
    32
  0
VERTEX
  8
0
  5
356F
 10
700.784
 20
101.506
 30
-1.14329e-13
  70
    32
  0
VERTEX
  8
0
  5
3570
 10
700.795
 20
101.506
 30
-1.14330e-13
  70
    32
  0
VERTEX
  8
0
  5
3571
 10
700.806
 20
101.507
 30
-1.14332e-13
  70
    32
  0
VERTEX
  8
0
  5
3572
 10
700.817
 20
101.508
 30
-1.14334e-13
  70
    32
  0
VERTEX
  8
0
  5
3573
 10
700.828
 20
101.509
 30
-1.14335e-13
  70
    32
  0
VERTEX
  8
0
  5
3574
 10
700.839
 20
101.510
 30
-1.14337e-13
  70
    32
  0
VERTEX
  8
0
  5
3575
 10
700.850
 20
101.511
 30
-1.14339e-13
  70
    32
  0
VERTEX
  8
0
  5
3576
 10
700.861
 20
101.511
 30
-1.14340e-13
  70
    32
  0
VERTEX
  8
0
  5
3577
 10
700.871
 20
101.512
 30
-1.14342e-13
  70
    32
  0
VERTEX
  8
0
  5
3578
 10
700.882
 20
101.513
 30
-1.14344e-13
  70
    32
  0
VERTEX
  8
0
  5
3579
 10
700.893
 20
101.514
 30
-1.14345e-13
  70
    32
  0
VERTEX
  8
0
  5
357A
 10
700.904
 20
101.514
 30
-1.14347e-13
  70
    32
  0
VERTEX
  8
0
  5
357B
 10
700.915
 20
101.515
 30
-1.14348e-13
  70
    32
  0
VERTEX
  8
0
  5
357C
 10
700.926
 20
101.516
 30
-1.14350e-13
  70
    32
  0
VERTEX
  8
0
  5
357D
 10
700.937
 20
101.517
 30
-1.14352e-13
  70
    32
  0
VERTEX
  8
0
  5
357E
 10
700.948
 20
101.517
 30
-1.14353e-13
  70
    32
  0
VERTEX
  8
0
  5
357F
 10
700.959
 20
101.518
 30
-1.14355e-13
  70
    32
  0
VERTEX
  8
0
  5
3580
 10
700.970
 20
101.519
 30
-1.14356e-13
  70
    32
  0
VERTEX
  8
0
  5
3581
 10
700.981
 20
101.519
 30
-1.14358e-13
  70
    32
  0
VERTEX
  8
0
  5
3582
 10
700.992
 20
101.520
 30
-1.14359e-13
  70
    32
  0
VERTEX
  8
0
  5
3583
 10
701.003
 20
101.521
 30
-1.14361e-13
  70
    32
  0
VERTEX
  8
0
  5
3584
 10
701.013
 20
101.521
 30
-1.14362e-13
  70
    32
  0
VERTEX
  8
0
  5
3585
 10
701.024
 20
101.522
 30
-1.14364e-13
  70
    32
  0
VERTEX
  8
0
  5
3586
 10
701.035
 20
101.522
 30
-1.14365e-13
  70
    32
  0
VERTEX
  8
0
  5
3587
 10
701.046
 20
101.523
 30
-1.14366e-13
  70
    32
  0
VERTEX
  8
0
  5
3588
 10
701.057
 20
101.524
 30
-1.14368e-13
  70
    32
  0
VERTEX
  8
0
  5
3589
 10
701.068
 20
101.524
 30
-1.14369e-13
  70
    32
  0
VERTEX
  8
0
  5
358A
 10
701.079
 20
101.525
 30
-1.14370e-13
  70
    32
  0
VERTEX
  8
0
  5
358B
 10
701.090
 20
101.525
 30
-1.14372e-13
  70
    32
  0
VERTEX
  8
0
  5
358C
 10
701.101
 20
101.526
 30
-1.14373e-13
  70
    32
  0
VERTEX
  8
0
  5
358D
 10
701.111
 20
101.526
 30
-1.14374e-13
  70
    32
  0
VERTEX
  8
0
  5
358E
 10
701.122
 20
101.527
 30
-1.14376e-13
  70
    32
  0
VERTEX
  8
0
  5
358F
 10
701.133
 20
101.527
 30
-1.14377e-13
  70
    32
  0
VERTEX
  8
0
  5
3590
 10
701.144
 20
101.528
 30
-1.14378e-13
  70
    32
  0
VERTEX
  8
0
  5
3591
 10
701.155
 20
101.528
 30
-1.14379e-13
  70
    32
  0
VERTEX
  8
0
  5
3592
 10
701.166
 20
101.528
 30
-1.14380e-13
  70
    32
  0
VERTEX
  8
0
  5
3593
 10
701.177
 20
101.529
 30
-1.14381e-13
  70
    32
  0
VERTEX
  8
0
  5
3594
 10
701.188
 20
101.529
 30
-1.14382e-13
  70
    32
  0
VERTEX
  8
0
  5
3595
 10
701.198
 20
101.530
 30
-1.14384e-13
  70
    32
  0
VERTEX
  8
0
  5
3596
 10
701.209
 20
101.530
 30
-1.14385e-13
  70
    32
  0
VERTEX
  8
0
  5
3597
 10
701.220
 20
101.530
 30
-1.14386e-13
  70
    32
  0
VERTEX
  8
0
  5
3598
 10
701.231
 20
101.531
 30
-1.14387e-13
  70
    32
  0
VERTEX
  8
0
  5
3599
 10
701.242
 20
101.531
 30
-1.14388e-13
  70
    32
  0
VERTEX
  8
0
  5
359A
 10
701.253
 20
101.531
 30
-1.14388e-13
  70
    32
  0
VERTEX
  8
0
  5
359B
 10
701.263
 20
101.532
 30
-1.14389e-13
  70
    32
  0
VERTEX
  8
0
  5
359C
 10
701.274
 20
101.532
 30
-1.14390e-13
  70
    32
  0
VERTEX
  8
0
  5
359D
 10
701.285
 20
101.532
 30
-1.14391e-13
  70
    32
  0
VERTEX
  8
0
  5
359E
 10
701.296
 20
101.532
 30
-1.14392e-13
  70
    32
  0
VERTEX
  8
0
  5
359F
 10
701.307
 20
101.533
 30
-1.14393e-13
  70
    32
  0
VERTEX
  8
0
  5
35A0
 10
701.317
 20
101.533
 30
-1.14393e-13
  70
    32
  0
VERTEX
  8
0
  5
35A1
 10
701.328
 20
101.533
 30
-1.14394e-13
  70
    32
  0
VERTEX
  8
0
  5
35A2
 10
701.339
 20
101.533
 30
-1.14395e-13
  70
    32
  0
VERTEX
  8
0
  5
35A3
 10
701.350
 20
101.534
 30
-1.14395e-13
  70
    32
  0
VERTEX
  8
0
  5
35A4
 10
701.361
 20
101.534
 30
-1.14396e-13
  70
    32
  0
VERTEX
  8
0
  5
35A5
 10
701.371
 20
101.534
 30
-1.14396e-13
  70
    32
  0
VERTEX
  8
0
  5
35A6
 10
701.382
 20
101.534
 30
-1.14397e-13
  70
    32
  0
VERTEX
  8
0
  5
35A7
 10
701.393
 20
101.534
 30
-1.14397e-13
  70
    32
  0
VERTEX
  8
0
  5
35A8
 10
701.404
 20
101.534
 30
-1.14398e-13
  70
    32
  0
VERTEX
  8
0
  5
35A9
 10
701.415
 20
101.535
 30
-1.14398e-13
  70
    32
  0
VERTEX
  8
0
  5
35AA
 10
701.425
 20
101.535
 30
-1.14399e-13
  70
    32
  0
VERTEX
  8
0
  5
35AB
 10
701.436
 20
101.535
 30
-1.14399e-13
  70
    32
  0
VERTEX
  8
0
  5
35AC
 10
701.447
 20
101.535
 30
-1.14399e-13
  70
    32
  0
VERTEX
  8
0
  5
35AD
 10
701.458
 20
101.535
 30
-1.14399e-13
  70
    32
  0
VERTEX
  8
0
  5
35AE
 10
701.468
 20
101.535
 30
-1.14400e-13
  70
    32
  0
VERTEX
  8
0
  5
35AF
 10
701.479
 20
101.535
 30
-1.14400e-13
  70
    32
  0
VERTEX
  8
0
  5
35B0
 10
701.490
 20
101.535
 30
-1.14400e-13
  70
    32
  0
VERTEX
  8
0
  5
35B1
 10
701.501
 20
101.535
 30
-1.14400e-13
  70
    32
  0
VERTEX
  8
0
  5
35B2
 10
701.511
 20
101.535
 30
-1.14400e-13
  70
    32
  0
SEQEND
  8
0
  5
35B3
  0
ARC
  5
2F04
  8
0
 10
701.5112652587622506
 20
92.5350682550880066
 30
-0.0000000000001137
 40
8.9999999999999876
 50
107.782592944474203
 51
72.2174070555257543
  0
POLYLINE
  8
0
  5
35B4
  66
     1
 10
0.000000
 20
0.000000
 30
0.000000
  70
     8
  0
VERTEX
  8
0
  5
35B5
 10
701.511
 20
208.535
 30
-1.14400e-13
  70
    32
  0
VERTEX
  8
0
  5
35B6
 10
701.501
 20
208.535
 30
-1.14400e-13
  70
    32
  0
VERTEX
  8
0
  5
35B7
 10
701.490
 20
208.535
 30
-1.14400e-13
  70
    32
  0
VERTEX
  8
0
  5
35B8
 10
701.479
 20
208.535
 30
-1.14400e-13
  70
    32
  0
VERTEX
  8
0
  5
35B9
 10
701.468
 20
208.535
 30
-1.14400e-13
  70
    32
  0
VERTEX
  8
0
  5
35BA
 10
701.458
 20
208.535
 30
-1.14399e-13
  70
    32
  0
VERTEX
  8
0
  5
35BB
 10
701.447
 20
208.535
 30
-1.14399e-13
  70
    32
  0
VERTEX
  8
0
  5
35BC
 10
701.436
 20
208.535
 30
-1.14399e-13
  70
    32
  0
VERTEX
  8
0
  5
35BD
 10
701.425
 20
208.535
 30
-1.14399e-13
  70
    32
  0
VERTEX
  8
0
  5
35BE
 10
701.415
 20
208.536
 30
-1.14398e-13
  70
    32
  0
VERTEX
  8
0
  5
35BF
 10
701.404
 20
208.536
 30
-1.14398e-13
  70
    32
  0
VERTEX
  8
0
  5
35C0
 10
701.393
 20
208.536
 30
-1.14397e-13
  70
    32
  0
VERTEX
  8
0
  5
35C1
 10
701.382
 20
208.536
 30
-1.14397e-13
  70
    32
  0
VERTEX
  8
0
  5
35C2
 10
701.371
 20
208.536
 30
-1.14396e-13
  70
    32
  0
VERTEX
  8
0
  5
35C3
 10
701.361
 20
208.536
 30
-1.14396e-13
  70
    32
  0
VERTEX
  8
0
  5
35C4
 10
701.350
 20
208.537
 30
-1.14395e-13
  70
    32
  0
VERTEX
  8
0
  5
35C5
 10
701.339
 20
208.537
 30
-1.14395e-13
  70
    32
  0
VERTEX
  8
0
  5
35C6
 10
701.328
 20
208.537
 30
-1.14394e-13
  70
    32
  0
VERTEX
  8
0
  5
35C7
 10
701.317
 20
208.537
 30
-1.14393e-13
  70
    32
  0
VERTEX
  8
0
  5
35C8
 10
701.307
 20
208.537
 30
-1.14393e-13
  70
    32
  0
VERTEX
  8
0
  5
35C9
 10
701.296
 20
208.538
 30
-1.14392e-13
  70
    32
  0
VERTEX
  8
0
  5
35CA
 10
701.285
 20
208.538
 30
-1.14391e-13
  70
    32
  0
VERTEX
  8
0
  5
35CB
 10
701.274
 20
208.538
 30
-1.14390e-13
  70
    32
  0
VERTEX
  8
0
  5
35CC
 10
701.263
 20
208.539
 30
-1.14389e-13
  70
    32
  0
VERTEX
  8
0
  5
35CD
 10
701.253
 20
208.539
 30
-1.14388e-13
  70
    32
  0
VERTEX
  8
0
  5
35CE
 10
701.242
 20
208.539
 30
-1.14388e-13
  70
    32
  0
VERTEX
  8
0
  5
35CF
 10
701.231
 20
208.539
 30
-1.14387e-13
  70
    32
  0
VERTEX
  8
0
  5
35D0
 10
701.220
 20
208.540
 30
-1.14386e-13
  70
    32
  0
VERTEX
  8
0
  5
35D1
 10
701.209
 20
208.540
 30
-1.14385e-13
  70
    32
  0
VERTEX
  8
0
  5
35D2
 10
701.198
 20
208.541
 30
-1.14384e-13
  70
    32
  0
VERTEX
  8
0
  5
35D3
 10
701.188
 20
208.541
 30
-1.14382e-13
  70
    32
  0
VERTEX
  8
0
  5
35D4
 10
701.177
 20
208.541
 30
-1.14381e-13
  70
    32
  0
VERTEX
  8
0
  5
35D5
 10
701.166
 20
208.542
 30
-1.14380e-13
  70
    32
  0
VERTEX
  8
0
  5
35D6
 10
701.155
 20
208.542
 30
-1.14379e-13
  70
    32
  0
VERTEX
  8
0
  5
35D7
 10
701.144
 20
208.543
 30
-1.14378e-13
  70
    32
  0
VERTEX
  8
0
  5
35D8
 10
701.133
 20
208.543
 30
-1.14377e-13
  70
    32
  0
VERTEX
  8
0
  5
35D9
 10
701.122
 20
208.544
 30
-1.14376e-13
  70
    32
  0
VERTEX
  8
0
  5
35DA
 10
701.111
 20
208.544
 30
-1.14374e-13
  70
    32
  0
VERTEX
  8
0
  5
35DB
 10
701.101
 20
208.545
 30
-1.14373e-13
  70
    32
  0
VERTEX
  8
0
  5
35DC
 10
701.090
 20
208.545
 30
-1.14372e-13
  70
    32
  0
VERTEX
  8
0
  5
35DD
 10
701.079
 20
208.546
 30
-1.14370e-13
  70
    32
  0
VERTEX
  8
0
  5
35DE
 10
701.068
 20
208.546
 30
-1.14369e-13
  70
    32
  0
VERTEX
  8
0
  5
35DF
 10
701.057
 20
208.547
 30
-1.14368e-13
  70
    32
  0
VERTEX
  8
0
  5
35E0
 10
701.046
 20
208.547
 30
-1.14366e-13
  70
    32
  0
VERTEX
  8
0
  5
35E1
 10
701.035
 20
208.548
 30
-1.14365e-13
  70
    32
  0
VERTEX
  8
0
  5
35E2
 10
701.024
 20
208.548
 30
-1.14364e-13
  70
    32
  0
VERTEX
  8
0
  5
35E3
 10
701.013
 20
208.549
 30
-1.14362e-13
  70
    32
  0
VERTEX
  8
0
  5
35E4
 10
701.003
 20
208.550
 30
-1.14361e-13
  70
    32
  0
VERTEX
  8
0
  5
35E5
 10
700.992
 20
208.550
 30
-1.14359e-13
  70
    32
  0
VERTEX
  8
0
  5
35E6
 10
700.981
 20
208.551
 30
-1.14358e-13
  70
    32
  0
VERTEX
  8
0
  5
35E7
 10
700.970
 20
208.551
 30
-1.14356e-13
  70
    32
  0
VERTEX
  8
0
  5
35E8
 10
700.959
 20
208.552
 30
-1.14355e-13
  70
    32
  0
VERTEX
  8
0
  5
35E9
 10
700.948
 20
208.553
 30
-1.14353e-13
  70
    32
  0
VERTEX
  8
0
  5
35EA
 10
700.937
 20
208.554
 30
-1.14352e-13
  70
    32
  0
VERTEX
  8
0
  5
35EB
 10
700.926
 20
208.554
 30
-1.14350e-13
  70
    32
  0
VERTEX
  8
0
  5
35EC
 10
700.915
 20
208.555
 30
-1.14348e-13
  70
    32
  0
VERTEX
  8
0
  5
35ED
 10
700.904
 20
208.556
 30
-1.14347e-13
  70
    32
  0
VERTEX
  8
0
  5
35EE
 10
700.893
 20
208.556
 30
-1.14345e-13
  70
    32
  0
VERTEX
  8
0
  5
35EF
 10
700.882
 20
208.557
 30
-1.14344e-13
  70
    32
  0
VERTEX
  8
0
  5
35F0
 10
700.871
 20
208.558
 30
-1.14342e-13
  70
    32
  0
VERTEX
  8
0
  5
35F1
 10
700.861
 20
208.559
 30
-1.14340e-13
  70
    32
  0
VERTEX
  8
0
  5
35F2
 10
700.850
 20
208.560
 30
-1.14339e-13
  70
    32
  0
VERTEX
  8
0
  5
35F3
 10
700.839
 20
208.560
 30
-1.14337e-13
  70
    32
  0
VERTEX
  8
0
  5
35F4
 10
700.828
 20
208.561
 30
-1.14335e-13
  70
    32
  0
VERTEX
  8
0
  5
35F5
 10
700.817
 20
208.562
 30
-1.14334e-13
  70
    32
  0
VERTEX
  8
0
  5
35F6
 10
700.806
 20
208.563
 30
-1.14332e-13
  70
    32
  0
VERTEX
  8
0
  5
35F7
 10
700.795
 20
208.564
 30
-1.14330e-13
  70
    32
  0
VERTEX
  8
0
  5
35F8
 10
700.784
 20
208.565
 30
-1.14329e-13
  70
    32
  0
VERTEX
  8
0
  5
35F9
 10
700.773
 20
208.565
 30
-1.14327e-13
  70
    32
  0
VERTEX
  8
0
  5
35FA
 10
700.762
 20
208.566
 30
-1.14325e-13
  70
    32
  0
VERTEX
  8
0
  5
35FB
 10
700.751
 20
208.567
 30
-1.14324e-13
  70
    32
  0
VERTEX
  8
0
  5
35FC
 10
700.740
 20
208.568
 30
-1.14322e-13
  70
    32
  0
VERTEX
  8
0
  5
35FD
 10
700.729
 20
208.569
 30
-1.14320e-13
  70
    32
  0
VERTEX
  8
0
  5
35FE
 10
700.718
 20
208.570
 30
-1.14318e-13
  70
    32
  0
VERTEX
  8
0
  5
35FF
 10
700.707
 20
208.571
 30
-1.14317e-13
  70
    32
  0
VERTEX
  8
0
  5
3600
 10
700.696
 20
208.572
 30
-1.14315e-13
  70
    32
  0
VERTEX
  8
0
  5
3601
 10
700.685
 20
208.573
 30
-1.14313e-13
  70
    32
  0
VERTEX
  8
0
  5
3602
 10
700.674
 20
208.574
 30
-1.14311e-13
  70
    32
  0
VERTEX
  8
0
  5
3603
 10
700.664
 20
208.575
 30
-1.14310e-13
  70
    32
  0
VERTEX
  8
0
  5
3604
 10
700.653
 20
208.576
 30
-1.14308e-13
  70
    32
  0
VERTEX
  8
0
  5
3605
 10
700.642
 20
208.577
 30
-1.14306e-13
  70
    32
  0
VERTEX
  8
0
  5
3606
 10
700.631
 20
208.578
 30
-1.14305e-13
  70
    32
  0
VERTEX
  8
0
  5
3607
 10
700.620
 20
208.579
 30
-1.14303e-13
  70
    32
  0
VERTEX
  8
0
  5
3608
 10
700.609
 20
208.581
 30
-1.14301e-13
  70
    32
  0
VERTEX
  8
0
  5
3609
 10
700.598
 20
208.582
 30
-1.14299e-13
  70
    32
  0
VERTEX
  8
0
  5
360A
 10
700.587
 20
208.583
 30
-1.14298e-13
  70
    32
  0
VERTEX
  8
0
  5
360B
 10
700.576
 20
208.584
 30
-1.14296e-13
  70
    32
  0
VERTEX
  8
0
  5
360C
 10
700.565
 20
208.585
 30
-1.14294e-13
  70
    32
  0
VERTEX
  8
0
  5
360D
 10
700.554
 20
208.586
 30
-1.14293e-13
  70
    32
  0
VERTEX
  8
0
  5
360E
 10
700.543
 20
208.587
 30
-1.14291e-13
  70
    32
  0
VERTEX
  8
0
  5
360F
 10
700.532
 20
208.589
 30
-1.14289e-13
  70
    32
  0
VERTEX
  8
0
  5
3610
 10
700.521
 20
208.590
 30
-1.14288e-13
  70
    32
  0
VERTEX
  8
0
  5
3611
 10
700.510
 20
208.591
 30
-1.14286e-13
  70
    32
  0
VERTEX
  8
0
  5
3612
 10
700.499
 20
208.592
 30
-1.14284e-13
  70
    32
  0
VERTEX
  8
0
  5
3613
 10
700.488
 20
208.593
 30
-1.14283e-13
  70
    32
  0
VERTEX
  8
0
  5
3614
 10
700.477
 20
208.595
 30
-1.14281e-13
  70
    32
  0
VERTEX
  8
0
  5
3615
 10
700.466
 20
208.596
 30
-1.14279e-13
  70
    32
  0
VERTEX
  8
0
  5
3616
 10
700.455
 20
208.597
 30
-1.14278e-13
  70
    32
  0
VERTEX
  8
0
  5
3617
 10
700.444
 20
208.599
 30
-1.14276e-13
  70
    32
  0
VERTEX
  8
0
  5
3618
 10
700.433
 20
208.600
 30
-1.14274e-13
  70
    32
  0
VERTEX
  8
0
  5
3619
 10
700.422
 20
208.601
 30
-1.14273e-13
  70
    32
  0
VERTEX
  8
0
  5
361A
 10
700.411
 20
208.603
 30
-1.14271e-13
  70
    32
  0
VERTEX
  8
0
  5
361B
 10
700.400
 20
208.604
 30
-1.14270e-13
  70
    32
  0
VERTEX
  8
0
  5
361C
 10
700.390
 20
208.605
 30
-1.14268e-13
  70
    32
  0
VERTEX
  8
0
  5
361D
 10
700.379
 20
208.607
 30
-1.14267e-13
  70
    32
  0
VERTEX
  8
0
  5
361E
 10
700.368
 20
208.608
 30
-1.14265e-13
  70
    32
  0
VERTEX
  8
0
  5
361F
 10
700.357
 20
208.609
 30
-1.14264e-13
  70
    32
  0
VERTEX
  8
0
  5
3620
 10
700.346
 20
208.611
 30
-1.14262e-13
  70
    32
  0
VERTEX
  8
0
  5
3621
 10
700.335
 20
208.612
 30
-1.14261e-13
  70
    32
  0
VERTEX
  8
0
  5
3622
 10
700.324
 20
208.614
 30
-1.14259e-13
  70
    32
  0
VERTEX
  8
0
  5
3623
 10
700.313
 20
208.615
 30
-1.14258e-13
  70
    32
  0
VERTEX
  8
0
  5
3624
 10
700.302
 20
208.617
 30
-1.14256e-13
  70
    32
  0
VERTEX
  8
0
  5
3625
 10
700.291
 20
208.618
 30
-1.14255e-13
  70
    32
  0
VERTEX
  8
0
  5
3626
 10
700.280
 20
208.620
 30
-1.14254e-13
  70
    32
  0
VERTEX
  8
0
  5
3627
 10
700.269
 20
208.621
 30
-1.14252e-13
  70
    32
  0
VERTEX
  8
0
  5
3628
 10
700.258
 20
208.623
 30
-1.14251e-13
  70
    32
  0
VERTEX
  8
0
  5
3629
 10
700.247
 20
208.624
 30
-1.14250e-13
  70
    32
  0
VERTEX
  8
0
  5
362A
 10
700.236
 20
208.626
 30
-1.14248e-13
  70
    32
  0
VERTEX
  8
0
  5
362B
 10
700.225
 20
208.627
 30
-1.14247e-13
  70
    32
  0
VERTEX
  8
0
  5
362C
 10
700.214
 20
208.629
 30
-1.14246e-13
  70
    32
  0
VERTEX
  8
0
  5
362D
 10
700.203
 20
208.631
 30
-1.14244e-13
  70
    32
  0
VERTEX
  8
0
  5
362E
 10
700.192
 20
208.632
 30
-1.14243e-13
  70
    32
  0
VERTEX
  8
0
  5
362F
 10
700.182
 20
208.634
 30
-1.14242e-13
  70
    32
  0
VERTEX
  8
0
  5
3630
 10
700.171
 20
208.635
 30
-1.14240e-13
  70
    32
  0
VERTEX
  8
0
  5
3631
 10
700.160
 20
208.637
 30
-1.14239e-13
  70
    32
  0
VERTEX
  8
0
  5
3632
 10
700.149
 20
208.639
 30
-1.14237e-13
  70
    32
  0
VERTEX
  8
0
  5
3633
 10
700.138
 20
208.640
 30
-1.14236e-13
  70
    32
  0
VERTEX
  8
0
  5
3634
 10
700.127
 20
208.642
 30
-1.14234e-13
  70
    32
  0
VERTEX
  8
0
  5
3635
 10
700.116
 20
208.644
 30
-1.14233e-13
  70
    32
  0
VERTEX
  8
0
  5
3636
 10
700.105
 20
208.646
 30
-1.14231e-13
  70
    32
  0
VERTEX
  8
0
  5
3637
 10
700.094
 20
208.647
 30
-1.14229e-13
  70
    32
  0
VERTEX
  8
0
  5
3638
 10
700.083
 20
208.649
 30
-1.14228e-13
  70
    32
  0
VERTEX
  8
0
  5
3639
 10
700.072
 20
208.651
 30
-1.14226e-13
  70
    32
  0
VERTEX
  8
0
  5
363A
 10
700.061
 20
208.653
 30
-1.14225e-13
  70
    32
  0
VERTEX
  8
0
  5
363B
 10
700.050
 20
208.654
 30
-1.14223e-13
  70
    32
  0
VERTEX
  8
0
  5
363C
 10
700.040
 20
208.656
 30
-1.14221e-13
  70
    32
  0
VERTEX
  8
0
  5
363D
 10
700.029
 20
208.658
 30
-1.14220e-13
  70
    32
  0
VERTEX
  8
0
  5
363E
 10
700.018
 20
208.660
 30
-1.14218e-13
  70
    32
  0
VERTEX
  8
0
  5
363F
 10
700.007
 20
208.662
 30
-1.14216e-13
  70
    32
  0
VERTEX
  8
0
  5
3640
 10
699.996
 20
208.664
 30
-1.14214e-13
  70
    32
  0
VERTEX
  8
0
  5
3641
 10
699.985
 20
208.665
 30
-1.14213e-13
  70
    32
  0
VERTEX
  8
0
  5
3642
 10
699.974
 20
208.667
 30
-1.14211e-13
  70
    32
  0
VERTEX
  8
0
  5
3643
 10
699.963
 20
208.669
 30
-1.14209e-13
  70
    32
  0
VERTEX
  8
0
  5
3644
 10
699.952
 20
208.671
 30
-1.14207e-13
  70
    32
  0
VERTEX
  8
0
  5
3645
 10
699.941
 20
208.673
 30
-1.14206e-13
  70
    32
  0
VERTEX
  8
0
  5
3646
 10
699.931
 20
208.675
 30
-1.14204e-13
  70
    32
  0
VERTEX
  8
0
  5
3647
 10
699.920
 20
208.677
 30
-1.14202e-13
  70
    32
  0
VERTEX
  8
0
  5
3648
 10
699.909
 20
208.679
 30
-1.14200e-13
  70
    32
  0
VERTEX
  8
0
  5
3649
 10
699.898
 20
208.681
 30
-1.14198e-13
  70
    32
  0
VERTEX
  8
0
  5
364A
 10
699.887
 20
208.683
 30
-1.14196e-13
  70
    32
  0
VERTEX
  8
0
  5
364B
 10
699.876
 20
208.685
 30
-1.14194e-13
  70
    32
  0
VERTEX
  8
0
  5
364C
 10
699.865
 20
208.687
 30
-1.14192e-13
  70
    32
  0
VERTEX
  8
0
  5
364D
 10
699.855
 20
208.689
 30
-1.14191e-13
  70
    32
  0
VERTEX
  8
0
  5
364E
 10
699.844
 20
208.691
 30
-1.14189e-13
  70
    32
  0
VERTEX
  8
0
  5
364F
 10
699.833
 20
208.693
 30
-1.14187e-13
  70
    32
  0
VERTEX
  8
0
  5
3650
 10
699.822
 20
208.695
 30
-1.14185e-13
  70
    32
  0
VERTEX
  8
0
  5
3651
 10
699.811
 20
208.697
 30
-1.14183e-13
  70
    32
  0
VERTEX
  8
0
  5
3652
 10
699.800
 20
208.699
 30
-1.14181e-13
  70
    32
  0
VERTEX
  8
0
  5
3653
 10
699.789
 20
208.701
 30
-1.14179e-13
  70
    32
  0
VERTEX
  8
0
  5
3654
 10
699.779
 20
208.704
 30
-1.14177e-13
  70
    32
  0
VERTEX
  8
0
  5
3655
 10
699.768
 20
208.706
 30
-1.14175e-13
  70
    32
  0
VERTEX
  8
0
  5
3656
 10
699.757
 20
208.708
 30
-1.14173e-13
  70
    32
  0
VERTEX
  8
0
  5
3657
 10
699.746
 20
208.710
 30
-1.14171e-13
  70
    32
  0
VERTEX
  8
0
  5
3658
 10
699.735
 20
208.712
 30
-1.14168e-13
  70
    32
  0
VERTEX
  8
0
  5
3659
 10
699.724
 20
208.714
 30
-1.14166e-13
  70
    32
  0
VERTEX
  8
0
  5
365A
 10
699.714
 20
208.717
 30
-1.14164e-13
  70
    32
  0
VERTEX
  8
0
  5
365B
 10
699.703
 20
208.719
 30
-1.14162e-13
  70
    32
  0
VERTEX
  8
0
  5
365C
 10
699.692
 20
208.721
 30
-1.14160e-13
  70
    32
  0
VERTEX
  8
0
  5
365D
 10
699.681
 20
208.723
 30
-1.14158e-13
  70
    32
  0
VERTEX
  8
0
  5
365E
 10
699.670
 20
208.725
 30
-1.14156e-13
  70
    32
  0
VERTEX
  8
0
  5
365F
 10
699.660
 20
208.728
 30
-1.14154e-13
  70
    32
  0
VERTEX
  8
0
  5
3660
 10
699.649
 20
208.730
 30
-1.14152e-13
  70
    32
  0
VERTEX
  8
0
  5
3661
 10
699.638
 20
208.732
 30
-1.14150e-13
  70
    32
  0
VERTEX
  8
0
  5
3662
 10
699.627
 20
208.735
 30
-1.14147e-13
  70
    32
  0
VERTEX
  8
0
  5
3663
 10
699.617
 20
208.737
 30
-1.14145e-13
  70
    32
  0
VERTEX
  8
0
  5
3664
 10
699.606
 20
208.739
 30
-1.14143e-13
  70
    32
  0
VERTEX
  8
0
  5
3665
 10
699.595
 20
208.742
 30
-1.14141e-13
  70
    32
  0
VERTEX
  8
0
  5
3666
 10
699.584
 20
208.744
 30
-1.14139e-13
  70
    32
  0
VERTEX
  8
0
  5
3667
 10
699.573
 20
208.746
 30
-1.14137e-13
  70
    32
  0
VERTEX
  8
0
  5
3668
 10
699.563
 20
208.749
 30
-1.14134e-13
  70
    32
  0
VERTEX
  8
0
  5
3669
 10
699.552
 20
208.751
 30
-1.14132e-13
  70
    32
  0
VERTEX
  8
0
  5
366A
 10
699.541
 20
208.753
 30
-1.14130e-13
  70
    32
  0
VERTEX
  8
0
  5
366B
 10
699.530
 20
208.756
 30
-1.14128e-13
  70
    32
  0
VERTEX
  8
0
  5
366C
 10
699.520
 20
208.758
 30
-1.14126e-13
  70
    32
  0
VERTEX
  8
0
  5
366D
 10
699.509
 20
208.761
 30
-1.14123e-13
  70
    32
  0
VERTEX
  8
0
  5
366E
 10
699.498
 20
208.763
 30
-1.14121e-13
  70
    32
  0
VERTEX
  8
0
  5
366F
 10
699.488
 20
208.766
 30
-1.14119e-13
  70
    32
  0
VERTEX
  8
0
  5
3670
 10
699.477
 20
208.768
 30
-1.14117e-13
  70
    32
  0
VERTEX
  8
0
  5
3671
 10
699.466
 20
208.771
 30
-1.14114e-13
  70
    32
  0
VERTEX
  8
0
  5
3672
 10
699.455
 20
208.773
 30
-1.14112e-13
  70
    32
  0
VERTEX
  8
0
  5
3673
 10
699.445
 20
208.776
 30
-1.14110e-13
  70
    32
  0
VERTEX
  8
0
  5
3674
 10
699.434
 20
208.778
 30
-1.14108e-13
  70
    32
  0
VERTEX
  8
0
  5
3675
 10
699.423
 20
208.781
 30
-1.14105e-13
  70
    32
  0
VERTEX
  8
0
  5
3676
 10
699.413
 20
208.783
 30
-1.14103e-13
  70
    32
  0
VERTEX
  8
0
  5
3677
 10
699.402
 20
208.786
 30
-1.14101e-13
  70
    32
  0
VERTEX
  8
0
  5
3678
 10
699.391
 20
208.788
 30
-1.14099e-13
  70
    32
  0
VERTEX
  8
0
  5
3679
 10
699.381
 20
208.791
 30
-1.14096e-13
  70
    32
  0
VERTEX
  8
0
  5
367A
 10
699.370
 20
208.794
 30
-1.14094e-13
  70
    32
  0
VERTEX
  8
0
  5
367B
 10
699.359
 20
208.796
 30
-1.14092e-13
  70
    32
  0
VERTEX
  8
0
  5
367C
 10
699.349
 20
208.799
 30
-1.14090e-13
  70
    32
  0
VERTEX
  8
0
  5
367D
 10
699.338
 20
208.801
 30
-1.14087e-13
  70
    32
  0
VERTEX
  8
0
  5
367E
 10
699.327
 20
208.804
 30
-1.14085e-13
  70
    32
  0
VERTEX
  8
0
  5
367F
 10
699.317
 20
208.807
 30
-1.14083e-13
  70
    32
  0
VERTEX
  8
0
  5
3680
 10
699.306
 20
208.809
 30
-1.14081e-13
  70
    32
  0
VERTEX
  8
0
  5
3681
 10
699.296
 20
208.812
 30
-1.14078e-13
  70
    32
  0
VERTEX
  8
0
  5
3682
 10
699.285
 20
208.815
 30
-1.14076e-13
  70
    32
  0
VERTEX
  8
0
  5
3683
 10
699.274
 20
208.818
 30
-1.14074e-13
  70
    32
  0
VERTEX
  8
0
  5
3684
 10
699.264
 20
208.820
 30
-1.14071e-13
  70
    32
  0
VERTEX
  8
0
  5
3685
 10
699.253
 20
208.823
 30
-1.14069e-13
  70
    32
  0
VERTEX
  8
0
  5
3686
 10
699.242
 20
208.826
 30
-1.14067e-13
  70
    32
  0
VERTEX
  8
0
  5
3687
 10
699.232
 20
208.829
 30
-1.14065e-13
  70
    32
  0
VERTEX
  8
0
  5
3688
 10
699.221
 20
208.831
 30
-1.14062e-13
  70
    32
  0
VERTEX
  8
0
  5
3689
 10
699.211
 20
208.834
 30
-1.14060e-13
  70
    32
  0
VERTEX
  8
0
  5
368A
 10
699.200
 20
208.837
 30
-1.14058e-13
  70
    32
  0
VERTEX
  8
0
  5
368B
 10
699.190
 20
208.840
 30
-1.14056e-13
  70
    32
  0
VERTEX
  8
0
  5
368C
 10
699.179
 20
208.843
 30
-1.14053e-13
  70
    32
  0
VERTEX
  8
0
  5
368D
 10
699.169
 20
208.845
 30
-1.14051e-13
  70
    32
  0
VERTEX
  8
0
  5
368E
 10
699.158
 20
208.848
 30
-1.14049e-13
  70
    32
  0
VERTEX
  8
0
  5
368F
 10
699.147
 20
208.851
 30
-1.14047e-13
  70
    32
  0
VERTEX
  8
0
  5
3690
 10
699.137
 20
208.854
 30
-1.14045e-13
  70
    32
  0
VERTEX
  8
0
  5
3691
 10
699.126
 20
208.857
 30
-1.14042e-13
  70
    32
  0
VERTEX
  8
0
  5
3692
 10
699.116
 20
208.860
 30
-1.14040e-13
  70
    32
  0
VERTEX
  8
0
  5
3693
 10
699.105
 20
208.863
 30
-1.14038e-13
  70
    32
  0
VERTEX
  8
0
  5
3694
 10
699.095
 20
208.866
 30
-1.14036e-13
  70
    32
  0
VERTEX
  8
0
  5
3695
 10
699.084
 20
208.868
 30
-1.14033e-13
  70
    32
  0
VERTEX
  8
0
  5
3696
 10
699.074
 20
208.871
 30
-1.14031e-13
  70
    32
  0
VERTEX
  8
0
  5
3697
 10
699.063
 20
208.874
 30
-1.14029e-13
  70
    32
  0
VERTEX
  8
0
  5
3698
 10
699.053
 20
208.877
 30
-1.14027e-13
  70
    32
  0
VERTEX
  8
0
  5
3699
 10
699.042
 20
208.880
 30
-1.14025e-13
  70
    32
  0
VERTEX
  8
0
  5
369A
 10
699.032
 20
208.883
 30
-1.14022e-13
  70
    32
  0
VERTEX
  8
0
  5
369B
 10
699.022
 20
208.886
 30
-1.14020e-13
  70
    32
  0
VERTEX
  8
0
  5
369C
 10
699.011
 20
208.889
 30
-1.14018e-13
  70
    32
  0
VERTEX
  8
0
  5
369D
 10
699.001
 20
208.892
 30
-1.14016e-13
  70
    32
  0
VERTEX
  8
0
  5
369E
 10
698.990
 20
208.895
 30
-1.14014e-13
  70
    32
  0
VERTEX
  8
0
  5
369F
 10
698.980
 20
208.898
 30
-1.14012e-13
  70
    32
  0
VERTEX
  8
0
  5
36A0
 10
698.969
 20
208.901
 30
-1.14011e-13
  70
    32
  0
VERTEX
  8
0
  5
36A1
 10
698.959
 20
208.905
 30
-1.14009e-13
  70
    32
  0
VERTEX
  8
0
  5
36A2
 10
698.949
 20
208.908
 30
-1.14008e-13
  70
    32
  0
VERTEX
  8
0
  5
36A3
 10
698.938
 20
208.911
 30
-1.14006e-13
  70
    32
  0
VERTEX
  8
0
  5
36A4
 10
698.928
 20
208.914
 30
-1.14005e-13
  70
    32
  0
VERTEX
  8
0
  5
36A5
 10
698.917
 20
208.917
 30
-1.14004e-13
  70
    32
  0
VERTEX
  8
0
  5
36A6
 10
698.907
 20
208.920
 30
-1.14004e-13
  70
    32
  0
VERTEX
  8
0
  5
36A7
 10
698.897
 20
208.923
 30
-1.14003e-13
  70
    32
  0
VERTEX
  8
0
  5
36A8
 10
698.886
 20
208.926
 30
-1.14002e-13
  70
    32
  0
VERTEX
  8
0
  5
36A9
 10
698.876
 20
208.930
 30
-1.14002e-13
  70
    32
  0
VERTEX
  8
0
  5
36AA
 10
698.866
 20
208.933
 30
-1.14001e-13
  70
    32
  0
VERTEX
  8
0
  5
36AB
 10
698.855
 20
208.936
 30
-1.14001e-13
  70
    32
  0
VERTEX
  8
0
  5
36AC
 10
698.845
 20
208.939
 30
-1.14001e-13
  70
    32
  0
VERTEX
  8
0
  5
36AD
 10
698.835
 20
208.942
 30
-1.14000e-13
  70
    32
  0
VERTEX
  8
0
  5
36AE
 10
698.824
 20
208.946
 30
-1.14000e-13
  70
    32
  0
VERTEX
  8
0
  5
36AF
 10
698.814
 20
208.949
 30
-1.14000e-13
  70
    32
  0
VERTEX
  8
0
  5
36B0
 10
698.804
 20
208.952
 30
-1.14000e-13
  70
    32
  0
VERTEX
  8
0
  5
36B1
 10
698.793
 20
208.955
 30
-1.14000e-13
  70
    32
  0
VERTEX
  8
0
  5
36B2
 10
698.783
 20
208.959
 30
-1.14000e-13
  70
    32
  0
VERTEX
  8
0
  5
36B3
 10
698.773
 20
208.962
 30
-1.14000e-13
  70
    32
  0
VERTEX
  8
0
  5
36B4
 10
698.763
 20
208.965
 30
-1.14000e-13
  70
    32
  0
SEQEND
  8
0
  5
36B5
  0
POLYLINE
  8
0
  5
36B6
  66
     1
 10
0.000000
 20
0.000000
 30
0.000000
  70
     8
  0
VERTEX
  8
0
  5
36B7
 10
704.260
 20
208.965
 30
-1.14900e-13
  70
    32
  0
VERTEX
  8
0
  5
36B8
 10
704.250
 20
208.962
 30
-1.14900e-13
  70
    32
  0
VERTEX
  8
0
  5
36B9
 10
704.239
 20
208.959
 30
-1.14900e-13
  70
    32
  0
VERTEX
  8
0
  5
36BA
 10
704.229
 20
208.955
 30
-1.14900e-13
  70
    32
  0
VERTEX
  8
0
  5
36BB
 10
704.219
 20
208.952
 30
-1.14900e-13
  70
    32
  0
VERTEX
  8
0
  5
36BC
 10
704.208
 20
208.949
 30
-1.14900e-13
  70
    32
  0
VERTEX
  8
0
  5
36BD
 10
704.198
 20
208.946
 30
-1.14900e-13
  70
    32
  0
VERTEX
  8
0
  5
36BE
 10
704.188
 20
208.942
 30
-1.14900e-13
  70
    32
  0
VERTEX
  8
0
  5
36BF
 10
704.178
 20
208.939
 30
-1.14899e-13
  70
    32
  0
VERTEX
  8
0
  5
36C0
 10
704.167
 20
208.936
 30
-1.14899e-13
  70
    32
  0
VERTEX
  8
0
  5
36C1
 10
704.157
 20
208.933
 30
-1.14899e-13
  70
    32
  0
VERTEX
  8
0
  5
36C2
 10
704.147
 20
208.930
 30
-1.14898e-13
  70
    32
  0
VERTEX
  8
0
  5
36C3
 10
704.136
 20
208.926
 30
-1.14898e-13
  70
    32
  0
VERTEX
  8
0
  5
36C4
 10
704.126
 20
208.923
 30
-1.14897e-13
  70
    32
  0
VERTEX
  8
0
  5
36C5
 10
704.115
 20
208.920
 30
-1.14896e-13
  70
    32
  0
VERTEX
  8
0
  5
36C6
 10
704.105
 20
208.917
 30
-1.14896e-13
  70
    32
  0
VERTEX
  8
0
  5
36C7
 10
704.095
 20
208.914
 30
-1.14895e-13
  70
    32
  0
VERTEX
  8
0
  5
36C8
 10
704.084
 20
208.911
 30
-1.14894e-13
  70
    32
  0
VERTEX
  8
0
  5
36C9
 10
704.074
 20
208.908
 30
-1.14892e-13
  70
    32
  0
VERTEX
  8
0
  5
36CA
 10
704.064
 20
208.905
 30
-1.14891e-13
  70
    32
  0
VERTEX
  8
0
  5
36CB
 10
704.053
 20
208.901
 30
-1.14889e-13
  70
    32
  0
VERTEX
  8
0
  5
36CC
 10
704.043
 20
208.898
 30
-1.14888e-13
  70
    32
  0
VERTEX
  8
0
  5
36CD
 10
704.032
 20
208.895
 30
-1.14886e-13
  70
    32
  0
VERTEX
  8
0
  5
36CE
 10
704.022
 20
208.892
 30
-1.14884e-13
  70
    32
  0
VERTEX
  8
0
  5
36CF
 10
704.011
 20
208.889
 30
-1.14882e-13
  70
    32
  0
VERTEX
  8
0
  5
36D0
 10
704.001
 20
208.886
 30
-1.14880e-13
  70
    32
  0
VERTEX
  8
0
  5
36D1
 10
703.991
 20
208.883
 30
-1.14878e-13
  70
    32
  0
VERTEX
  8
0
  5
36D2
 10
703.980
 20
208.880
 30
-1.14875e-13
  70
    32
  0
VERTEX
  8
0
  5
36D3
 10
703.970
 20
208.877
 30
-1.14873e-13
  70
    32
  0
VERTEX
  8
0
  5
36D4
 10
703.959
 20
208.874
 30
-1.14871e-13
  70
    32
  0
VERTEX
  8
0
  5
36D5
 10
703.949
 20
208.871
 30
-1.14869e-13
  70
    32
  0
VERTEX
  8
0
  5
36D6
 10
703.938
 20
208.868
 30
-1.14867e-13
  70
    32
  0
VERTEX
  8
0
  5
36D7
 10
703.928
 20
208.866
 30
-1.14864e-13
  70
    32
  0
VERTEX
  8
0
  5
36D8
 10
703.917
 20
208.863
 30
-1.14862e-13
  70
    32
  0
VERTEX
  8
0
  5
36D9
 10
703.907
 20
208.860
 30
-1.14860e-13
  70
    32
  0
VERTEX
  8
0
  5
36DA
 10
703.896
 20
208.857
 30
-1.14858e-13
  70
    32
  0
VERTEX
  8
0
  5
36DB
 10
703.886
 20
208.854
 30
-1.14855e-13
  70
    32
  0
VERTEX
  8
0
  5
36DC
 10
703.875
 20
208.851
 30
-1.14853e-13
  70
    32
  0
VERTEX
  8
0
  5
36DD
 10
703.865
 20
208.848
 30
-1.14851e-13
  70
    32
  0
VERTEX
  8
0
  5
36DE
 10
703.854
 20
208.845
 30
-1.14849e-13
  70
    32
  0
VERTEX
  8
0
  5
36DF
 10
703.843
 20
208.843
 30
-1.14847e-13
  70
    32
  0
VERTEX
  8
0
  5
36E0
 10
703.833
 20
208.840
 30
-1.14844e-13
  70
    32
  0
VERTEX
  8
0
  5
36E1
 10
703.822
 20
208.837
 30
-1.14842e-13
  70
    32
  0
VERTEX
  8
0
  5
36E2
 10
703.812
 20
208.834
 30
-1.14840e-13
  70
    32
  0
VERTEX
  8
0
  5
36E3
 10
703.801
 20
208.831
 30
-1.14838e-13
  70
    32
  0
VERTEX
  8
0
  5
36E4
 10
703.791
 20
208.829
 30
-1.14835e-13
  70
    32
  0
VERTEX
  8
0
  5
36E5
 10
703.780
 20
208.826
 30
-1.14833e-13
  70
    32
  0
VERTEX
  8
0
  5
36E6
 10
703.769
 20
208.823
 30
-1.14831e-13
  70
    32
  0
VERTEX
  8
0
  5
36E7
 10
703.759
 20
208.820
 30
-1.14829e-13
  70
    32
  0
VERTEX
  8
0
  5
36E8
 10
703.748
 20
208.818
 30
-1.14826e-13
  70
    32
  0
VERTEX
  8
0
  5
36E9
 10
703.738
 20
208.815
 30
-1.14824e-13
  70
    32
  0
VERTEX
  8
0
  5
36EA
 10
703.727
 20
208.812
 30
-1.14822e-13
  70
    32
  0
VERTEX
  8
0
  5
36EB
 10
703.716
 20
208.809
 30
-1.14819e-13
  70
    32
  0
VERTEX
  8
0
  5
36EC
 10
703.706
 20
208.807
 30
-1.14817e-13
  70
    32
  0
VERTEX
  8
0
  5
36ED
 10
703.695
 20
208.804
 30
-1.14815e-13
  70
    32
  0
VERTEX
  8
0
  5
36EE
 10
703.684
 20
208.801
 30
-1.14813e-13
  70
    32
  0
VERTEX
  8
0
  5
36EF
 10
703.674
 20
208.799
 30
-1.14810e-13
  70
    32
  0
VERTEX
  8
0
  5
36F0
 10
703.663
 20
208.796
 30
-1.14808e-13
  70
    32
  0
VERTEX
  8
0
  5
36F1
 10
703.653
 20
208.794
 30
-1.14806e-13
  70
    32
  0
VERTEX
  8
0
  5
36F2
 10
703.642
 20
208.791
 30
-1.14804e-13
  70
    32
  0
VERTEX
  8
0
  5
36F3
 10
703.631
 20
208.788
 30
-1.14801e-13
  70
    32
  0
VERTEX
  8
0
  5
36F4
 10
703.621
 20
208.786
 30
-1.14799e-13
  70
    32
  0
VERTEX
  8
0
  5
36F5
 10
703.610
 20
208.783
 30
-1.14797e-13
  70
    32
  0
VERTEX
  8
0
  5
36F6
 10
703.599
 20
208.781
 30
-1.14795e-13
  70
    32
  0
VERTEX
  8
0
  5
36F7
 10
703.588
 20
208.778
 30
-1.14792e-13
  70
    32
  0
VERTEX
  8
0
  5
36F8
 10
703.578
 20
208.776
 30
-1.14790e-13
  70
    32
  0
VERTEX
  8
0
  5
36F9
 10
703.567
 20
208.773
 30
-1.14788e-13
  70
    32
  0
VERTEX
  8
0
  5
36FA
 10
703.556
 20
208.771
 30
-1.14786e-13
  70
    32
  0
VERTEX
  8
0
  5
36FB
 10
703.546
 20
208.768
 30
-1.14783e-13
  70
    32
  0
VERTEX
  8
0
  5
36FC
 10
703.535
 20
208.766
 30
-1.14781e-13
  70
    32
  0
VERTEX
  8
0
  5
36FD
 10
703.524
 20
208.763
 30
-1.14779e-13
  70
    32
  0
VERTEX
  8
0
  5
36FE
 10
703.514
 20
208.761
 30
-1.14777e-13
  70
    32
  0
VERTEX
  8
0
  5
36FF
 10
703.503
 20
208.758
 30
-1.14774e-13
  70
    32
  0
VERTEX
  8
0
  5
3700
 10
703.492
 20
208.756
 30
-1.14772e-13
  70
    32
  0
VERTEX
  8
0
  5
3701
 10
703.481
 20
208.753
 30
-1.14770e-13
  70
    32
  0
VERTEX
  8
0
  5
3702
 10
703.471
 20
208.751
 30
-1.14768e-13
  70
    32
  0
VERTEX
  8
0
  5
3703
 10
703.460
 20
208.749
 30
-1.14766e-13
  70
    32
  0
VERTEX
  8
0
  5
3704
 10
703.449
 20
208.746
 30
-1.14763e-13
  70
    32
  0
VERTEX
  8
0
  5
3705
 10
703.438
 20
208.744
 30
-1.14761e-13
  70
    32
  0
VERTEX
  8
0
  5
3706
 10
703.428
 20
208.742
 30
-1.14759e-13
  70
    32
  0
VERTEX
  8
0
  5
3707
 10
703.417
 20
208.739
 30
-1.14757e-13
  70
    32
  0
VERTEX
  8
0
  5
3708
 10
703.406
 20
208.737
 30
-1.14755e-13
  70
    32
  0
VERTEX
  8
0
  5
3709
 10
703.395
 20
208.735
 30
-1.14753e-13
  70
    32
  0
VERTEX
  8
0
  5
370A
 10
703.384
 20
208.732
 30
-1.14750e-13
  70
    32
  0
VERTEX
  8
0
  5
370B
 10
703.374
 20
208.730
 30
-1.14748e-13
  70
    32
  0
VERTEX
  8
0
  5
370C
 10
703.363
 20
208.728
 30
-1.14746e-13
  70
    32
  0
VERTEX
  8
0
  5
370D
 10
703.352
 20
208.725
 30
-1.14744e-13
  70
    32
  0
VERTEX
  8
0
  5
370E
 10
703.341
 20
208.723
 30
-1.14742e-13
  70
    32
  0
VERTEX
  8
0
  5
370F
 10
703.330
 20
208.721
 30
-1.14740e-13
  70
    32
  0
VERTEX
  8
0
  5
3710
 10
703.320
 20
208.719
 30
-1.14738e-13
  70
    32
  0
VERTEX
  8
0
  5
3711
 10
703.309
 20
208.717
 30
-1.14736e-13
  70
    32
  0
VERTEX
  8
0
  5
3712
 10
703.298
 20
208.714
 30
-1.14734e-13
  70
    32
  0
VERTEX
  8
0
  5
3713
 10
703.287
 20
208.712
 30
-1.14732e-13
  70
    32
  0
VERTEX
  8
0
  5
3714
 10
703.276
 20
208.710
 30
-1.14729e-13
  70
    32
  0
VERTEX
  8
0
  5
3715
 10
703.266
 20
208.708
 30
-1.14727e-13
  70
    32
  0
VERTEX
  8
0
  5
3716
 10
703.255
 20
208.706
 30
-1.14725e-13
  70
    32
  0
VERTEX
  8
0
  5
3717
 10
703.244
 20
208.704
 30
-1.14723e-13
  70
    32
  0
VERTEX
  8
0
  5
3718
 10
703.233
 20
208.701
 30
-1.14721e-13
  70
    32
  0
VERTEX
  8
0
  5
3719
 10
703.222
 20
208.699
 30
-1.14719e-13
  70
    32
  0
VERTEX
  8
0
  5
371A
 10
703.211
 20
208.697
 30
-1.14717e-13
  70
    32
  0
VERTEX
  8
0
  5
371B
 10
703.201
 20
208.695
 30
-1.14715e-13
  70
    32
  0
VERTEX
  8
0
  5
371C
 10
703.190
 20
208.693
 30
-1.14713e-13
  70
    32
  0
VERTEX
  8
0
  5
371D
 10
703.179
 20
208.691
 30
-1.14711e-13
  70
    32
  0
VERTEX
  8
0
  5
371E
 10
703.168
 20
208.689
 30
-1.14709e-13
  70
    32
  0
VERTEX
  8
0
  5
371F
 10
703.157
 20
208.687
 30
-1.14708e-13
  70
    32
  0
VERTEX
  8
0
  5
3720
 10
703.146
 20
208.685
 30
-1.14706e-13
  70
    32
  0
VERTEX
  8
0
  5
3721
 10
703.135
 20
208.683
 30
-1.14704e-13
  70
    32
  0
VERTEX
  8
0
  5
3722
 10
703.125
 20
208.681
 30
-1.14702e-13
  70
    32
  0
VERTEX
  8
0
  5
3723
 10
703.114
 20
208.679
 30
-1.14700e-13
  70
    32
  0
VERTEX
  8
0
  5
3724
 10
703.103
 20
208.677
 30
-1.14698e-13
  70
    32
  0
VERTEX
  8
0
  5
3725
 10
703.092
 20
208.675
 30
-1.14696e-13
  70
    32
  0
VERTEX
  8
0
  5
3726
 10
703.081
 20
208.673
 30
-1.14694e-13
  70
    32
  0
VERTEX
  8
0
  5
3727
 10
703.070
 20
208.671
 30
-1.14693e-13
  70
    32
  0
VERTEX
  8
0
  5
3728
 10
703.059
 20
208.669
 30
-1.14691e-13
  70
    32
  0
VERTEX
  8
0
  5
3729
 10
703.048
 20
208.667
 30
-1.14689e-13
  70
    32
  0
VERTEX
  8
0
  5
372A
 10
703.037
 20
208.665
 30
-1.14687e-13
  70
    32
  0
VERTEX
  8
0
  5
372B
 10
703.027
 20
208.664
 30
-1.14686e-13
  70
    32
  0
VERTEX
  8
0
  5
372C
 10
703.016
 20
208.662
 30
-1.14684e-13
  70
    32
  0
VERTEX
  8
0
  5
372D
 10
703.005
 20
208.660
 30
-1.14682e-13
  70
    32
  0
VERTEX
  8
0
  5
372E
 10
702.994
 20
208.658
 30
-1.14680e-13
  70
    32
  0
VERTEX
  8
0
  5
372F
 10
702.983
 20
208.656
 30
-1.14679e-13
  70
    32
  0
VERTEX
  8
0
  5
3730
 10
702.972
 20
208.654
 30
-1.14677e-13
  70
    32
  0
VERTEX
  8
0
  5
3731
 10
702.961
 20
208.653
 30
-1.14675e-13
  70
    32
  0
VERTEX
  8
0
  5
3732
 10
702.950
 20
208.651
 30
-1.14674e-13
  70
    32
  0
VERTEX
  8
0
  5
3733
 10
702.939
 20
208.649
 30
-1.14672e-13
  70
    32
  0
VERTEX
  8
0
  5
3734
 10
702.928
 20
208.647
 30
-1.14671e-13
  70
    32
  0
VERTEX
  8
0
  5
3735
 10
702.918
 20
208.646
 30
-1.14669e-13
  70
    32
  0
VERTEX
  8
0
  5
3736
 10
702.907
 20
208.644
 30
-1.14667e-13
  70
    32
  0
VERTEX
  8
0
  5
3737
 10
702.896
 20
208.642
 30
-1.14666e-13
  70
    32
  0
VERTEX
  8
0
  5
3738
 10
702.885
 20
208.640
 30
-1.14664e-13
  70
    32
  0
VERTEX
  8
0
  5
3739
 10
702.874
 20
208.639
 30
-1.14663e-13
  70
    32
  0
VERTEX
  8
0
  5
373A
 10
702.863
 20
208.637
 30
-1.14661e-13
  70
    32
  0
VERTEX
  8
0
  5
373B
 10
702.852
 20
208.635
 30
-1.14660e-13
  70
    32
  0
VERTEX
  8
0
  5
373C
 10
702.841
 20
208.634
 30
-1.14658e-13
  70
    32
  0
VERTEX
  8
0
  5
373D
 10
702.830
 20
208.632
 30
-1.14657e-13
  70
    32
  0
VERTEX
  8
0
  5
373E
 10
702.819
 20
208.631
 30
-1.14656e-13
  70
    32
  0
VERTEX
  8
0
  5
373F
 10
702.808
 20
208.629
 30
-1.14654e-13
  70
    32
  0
VERTEX
  8
0
  5
3740
 10
702.797
 20
208.627
 30
-1.14653e-13
  70
    32
  0
VERTEX
  8
0
  5
3741
 10
702.786
 20
208.626
 30
-1.14652e-13
  70
    32
  0
VERTEX
  8
0
  5
3742
 10
702.775
 20
208.624
 30
-1.14650e-13
  70
    32
  0
VERTEX
  8
0
  5
3743
 10
702.764
 20
208.623
 30
-1.14649e-13
  70
    32
  0
VERTEX
  8
0
  5
3744
 10
702.754
 20
208.621
 30
-1.14648e-13
  70
    32
  0
VERTEX
  8
0
  5
3745
 10
702.743
 20
208.620
 30
-1.14646e-13
  70
    32
  0
VERTEX
  8
0
  5
3746
 10
702.732
 20
208.618
 30
-1.14645e-13
  70
    32
  0
VERTEX
  8
0
  5
3747
 10
702.721
 20
208.617
 30
-1.14644e-13
  70
    32
  0
VERTEX
  8
0
  5
3748
 10
702.710
 20
208.615
 30
-1.14642e-13
  70
    32
  0
VERTEX
  8
0
  5
3749
 10
702.699
 20
208.614
 30
-1.14641e-13
  70
    32
  0
VERTEX
  8
0
  5
374A
 10
702.688
 20
208.612
 30
-1.14639e-13
  70
    32
  0
VERTEX
  8
0
  5
374B
 10
702.677
 20
208.611
 30
-1.14638e-13
  70
    32
  0
VERTEX
  8
0
  5
374C
 10
702.666
 20
208.609
 30
-1.14636e-13
  70
    32
  0
VERTEX
  8
0
  5
374D
 10
702.655
 20
208.608
 30
-1.14635e-13
  70
    32
  0
VERTEX
  8
0
  5
374E
 10
702.644
 20
208.607
 30
-1.14633e-13
  70
    32
  0
VERTEX
  8
0
  5
374F
 10
702.633
 20
208.605
 30
-1.14632e-13
  70
    32
  0
VERTEX
  8
0
  5
3750
 10
702.622
 20
208.604
 30
-1.14630e-13
  70
    32
  0
VERTEX
  8
0
  5
3751
 10
702.611
 20
208.603
 30
-1.14628e-13
  70
    32
  0
VERTEX
  8
0
  5
3752
 10
702.600
 20
208.601
 30
-1.14627e-13
  70
    32
  0
VERTEX
  8
0
  5
3753
 10
702.589
 20
208.600
 30
-1.14625e-13
  70
    32
  0
VERTEX
  8
0
  5
3754
 10
702.578
 20
208.599
 30
-1.14624e-13
  70
    32
  0
VERTEX
  8
0
  5
3755
 10
702.567
 20
208.597
 30
-1.14622e-13
  70
    32
  0
VERTEX
  8
0
  5
3756
 10
702.556
 20
208.596
 30
-1.14620e-13
  70
    32
  0
VERTEX
  8
0
  5
3757
 10
702.545
 20
208.595
 30
-1.14618e-13
  70
    32
  0
VERTEX
  8
0
  5
3758
 10
702.534
 20
208.593
 30
-1.14617e-13
  70
    32
  0
VERTEX
  8
0
  5
3759
 10
702.523
 20
208.592
 30
-1.14615e-13
  70
    32
  0
VERTEX
  8
0
  5
375A
 10
702.512
 20
208.591
 30
-1.14613e-13
  70
    32
  0
VERTEX
  8
0
  5
375B
 10
702.502
 20
208.590
 30
-1.14611e-13
  70
    32
  0
VERTEX
  8
0
  5
375C
 10
702.491
 20
208.589
 30
-1.14610e-13
  70
    32
  0
VERTEX
  8
0
  5
375D
 10
702.480
 20
208.587
 30
-1.14608e-13
  70
    32
  0
VERTEX
  8
0
  5
375E
 10
702.469
 20
208.586
 30
-1.14606e-13
  70
    32
  0
VERTEX
  8
0
  5
375F
 10
702.458
 20
208.585
 30
-1.14604e-13
  70
    32
  0
VERTEX
  8
0
  5
3760
 10
702.447
 20
208.584
 30
-1.14602e-13
  70
    32
  0
VERTEX
  8
0
  5
3761
 10
702.436
 20
208.583
 30
-1.14600e-13
  70
    32
  0
VERTEX
  8
0
  5
3762
 10
702.425
 20
208.582
 30
-1.14599e-13
  70
    32
  0
VERTEX
  8
0
  5
3763
 10
702.414
 20
208.581
 30
-1.14597e-13
  70
    32
  0
VERTEX
  8
0
  5
3764
 10
702.403
 20
208.579
 30
-1.14595e-13
  70
    32
  0
VERTEX
  8
0
  5
3765
 10
702.392
 20
208.578
 30
-1.14593e-13
  70
    32
  0
VERTEX
  8
0
  5
3766
 10
702.381
 20
208.577
 30
-1.14591e-13
  70
    32
  0
VERTEX
  8
0
  5
3767
 10
702.370
 20
208.576
 30
-1.14589e-13
  70
    32
  0
VERTEX
  8
0
  5
3768
 10
702.359
 20
208.575
 30
-1.14587e-13
  70
    32
  0
VERTEX
  8
0
  5
3769
 10
702.348
 20
208.574
 30
-1.14585e-13
  70
    32
  0
VERTEX
  8
0
  5
376A
 10
702.337
 20
208.573
 30
-1.14583e-13
  70
    32
  0
VERTEX
  8
0
  5
376B
 10
702.326
 20
208.572
 30
-1.14581e-13
  70
    32
  0
VERTEX
  8
0
  5
376C
 10
702.315
 20
208.571
 30
-1.14579e-13
  70
    32
  0
VERTEX
  8
0
  5
376D
 10
702.304
 20
208.570
 30
-1.14577e-13
  70
    32
  0
VERTEX
  8
0
  5
376E
 10
702.293
 20
208.569
 30
-1.14574e-13
  70
    32
  0
VERTEX
  8
0
  5
376F
 10
702.282
 20
208.568
 30
-1.14572e-13
  70
    32
  0
VERTEX
  8
0
  5
3770
 10
702.271
 20
208.567
 30
-1.14570e-13
  70
    32
  0
VERTEX
  8
0
  5
3771
 10
702.260
 20
208.566
 30
-1.14568e-13
  70
    32
  0
VERTEX
  8
0
  5
3772
 10
702.249
 20
208.565
 30
-1.14566e-13
  70
    32
  0
VERTEX
  8
0
  5
3773
 10
702.239
 20
208.565
 30
-1.14564e-13
  70
    32
  0
VERTEX
  8
0
  5
3774
 10
702.228
 20
208.564
 30
-1.14562e-13
  70
    32
  0
VERTEX
  8
0
  5
3775
 10
702.217
 20
208.563
 30
-1.14560e-13
  70
    32
  0
VERTEX
  8
0
  5
3776
 10
702.206
 20
208.562
 30
-1.14557e-13
  70
    32
  0
VERTEX
  8
0
  5
3777
 10
702.195
 20
208.561
 30
-1.14555e-13
  70
    32
  0
VERTEX
  8
0
  5
3778
 10
702.184
 20
208.560
 30
-1.14553e-13
  70
    32
  0
VERTEX
  8
0
  5
3779
 10
702.173
 20
208.560
 30
-1.14551e-13
  70
    32
  0
VERTEX
  8
0
  5
377A
 10
702.162
 20
208.559
 30
-1.14548e-13
  70
    32
  0
VERTEX
  8
0
  5
377B
 10
702.151
 20
208.558
 30
-1.14546e-13
  70
    32
  0
VERTEX
  8
0
  5
377C
 10
702.140
 20
208.557
 30
-1.14544e-13
  70
    32
  0
VERTEX
  8
0
  5
377D
 10
702.129
 20
208.556
 30
-1.14542e-13
  70
    32
  0
VERTEX
  8
0
  5
377E
 10
702.118
 20
208.556
 30
-1.14539e-13
  70
    32
  0
VERTEX
  8
0
  5
377F
 10
702.107
 20
208.555
 30
-1.14537e-13
  70
    32
  0
VERTEX
  8
0
  5
3780
 10
702.096
 20
208.554
 30
-1.14535e-13
  70
    32
  0
VERTEX
  8
0
  5
3781
 10
702.085
 20
208.554
 30
-1.14533e-13
  70
    32
  0
VERTEX
  8
0
  5
3782
 10
702.075
 20
208.553
 30
-1.14530e-13
  70
    32
  0
VERTEX
  8
0
  5
3783
 10
702.064
 20
208.552
 30
-1.14528e-13
  70
    32
  0
VERTEX
  8
0
  5
3784
 10
702.053
 20
208.551
 30
-1.14525e-13
  70
    32
  0
VERTEX
  8
0
  5
3785
 10
702.042
 20
208.551
 30
-1.14523e-13
  70
    32
  0
VERTEX
  8
0
  5
3786
 10
702.031
 20
208.550
 30
-1.14521e-13
  70
    32
  0
VERTEX
  8
0
  5
3787
 10
702.020
 20
208.550
 30
-1.14518e-13
  70
    32
  0
VERTEX
  8
0
  5
3788
 10
702.009
 20
208.549
 30
-1.14516e-13
  70
    32
  0
VERTEX
  8
0
  5
3789
 10
701.998
 20
208.548
 30
-1.14514e-13
  70
    32
  0
VERTEX
  8
0
  5
378A
 10
701.987
 20
208.548
 30
-1.14511e-13
  70
    32
  0
VERTEX
  8
0
  5
378B
 10
701.976
 20
208.547
 30
-1.14509e-13
  70
    32
  0
VERTEX
  8
0
  5
378C
 10
701.966
 20
208.547
 30
-1.14506e-13
  70
    32
  0
VERTEX
  8
0
  5
378D
 10
701.955
 20
208.546
 30
-1.14504e-13
  70
    32
  0
VERTEX
  8
0
  5
378E
 10
701.944
 20
208.546
 30
-1.14502e-13
  70
    32
  0
VERTEX
  8
0
  5
378F
 10
701.933
 20
208.545
 30
-1.14499e-13
  70
    32
  0
VERTEX
  8
0
  5
3790
 10
701.922
 20
208.545
 30
-1.14497e-13
  70
    32
  0
VERTEX
  8
0
  5
3791
 10
701.911
 20
208.544
 30
-1.14494e-13
  70
    32
  0
VERTEX
  8
0
  5
3792
 10
701.900
 20
208.544
 30
-1.14492e-13
  70
    32
  0
VERTEX
  8
0
  5
3793
 10
701.889
 20
208.543
 30
-1.14489e-13
  70
    32
  0
VERTEX
  8
0
  5
3794
 10
701.878
 20
208.543
 30
-1.14487e-13
  70
    32
  0
VERTEX
  8
0
  5
3795
 10
701.868
 20
208.542
 30
-1.14484e-13
  70
    32
  0
VERTEX
  8
0
  5
3796
 10
701.857
 20
208.542
 30
-1.14482e-13
  70
    32
  0
VERTEX
  8
0
  5
3797
 10
701.846
 20
208.541
 30
-1.14479e-13
  70
    32
  0
VERTEX
  8
0
  5
3798
 10
701.835
 20
208.541
 30
-1.14477e-13
  70
    32
  0
VERTEX
  8
0
  5
3799
 10
701.824
 20
208.541
 30
-1.14474e-13
  70
    32
  0
VERTEX
  8
0
  5
379A
 10
701.813
 20
208.540
 30
-1.14472e-13
  70
    32
  0
VERTEX
  8
0
  5
379B
 10
701.802
 20
208.540
 30
-1.14469e-13
  70
    32
  0
VERTEX
  8
0
  5
379C
 10
701.792
 20
208.539
 30
-1.14467e-13
  70
    32
  0
VERTEX
  8
0
  5
379D
 10
701.781
 20
208.539
 30
-1.14464e-13
  70
    32
  0
VERTEX
  8
0
  5
379E
 10
701.770
 20
208.539
 30
-1.14462e-13
  70
    32
  0
VERTEX
  8
0
  5
379F
 10
701.759
 20
208.539
 30
-1.14459e-13
  70
    32
  0
VERTEX
  8
0
  5
37A0
 10
701.748
 20
208.538
 30
-1.14457e-13
  70
    32
  0
VERTEX
  8
0
  5
37A1
 10
701.737
 20
208.538
 30
-1.14454e-13
  70
    32
  0
VERTEX
  8
0
  5
37A2
 10
701.727
 20
208.538
 30
-1.14452e-13
  70
    32
  0
VERTEX
  8
0
  5
37A3
 10
701.716
 20
208.537
 30
-1.14449e-13
  70
    32
  0
VERTEX
  8
0
  5
37A4
 10
701.705
 20
208.537
 30
-1.14446e-13
  70
    32
  0
VERTEX
  8
0
  5
37A5
 10
701.694
 20
208.537
 30
-1.14444e-13
  70
    32
  0
VERTEX
  8
0
  5
37A6
 10
701.683
 20
208.537
 30
-1.14441e-13
  70
    32
  0
VERTEX
  8
0
  5
37A7
 10
701.673
 20
208.537
 30
-1.14439e-13
  70
    32
  0
VERTEX
  8
0
  5
37A8
 10
701.662
 20
208.536
 30
-1.14436e-13
  70
    32
  0
VERTEX
  8
0
  5
37A9
 10
701.651
 20
208.536
 30
-1.14434e-13
  70
    32
  0
VERTEX
  8
0
  5
37AA
 10
701.640
 20
208.536
 30
-1.14431e-13
  70
    32
  0
VERTEX
  8
0
  5
37AB
 10
701.630
 20
208.536
 30
-1.14428e-13
  70
    32
  0
VERTEX
  8
0
  5
37AC
 10
701.619
 20
208.536
 30
-1.14426e-13
  70
    32
  0
VERTEX
  8
0
  5
37AD
 10
701.608
 20
208.536
 30
-1.14423e-13
  70
    32
  0
VERTEX
  8
0
  5
37AE
 10
701.597
 20
208.535
 30
-1.14421e-13
  70
    32
  0
VERTEX
  8
0
  5
37AF
 10
701.586
 20
208.535
 30
-1.14418e-13
  70
    32
  0
VERTEX
  8
0
  5
37B0
 10
701.576
 20
208.535
 30
-1.14416e-13
  70
    32
  0
VERTEX
  8
0
  5
37B1
 10
701.565
 20
208.535
 30
-1.14413e-13
  70
    32
  0
VERTEX
  8
0
  5
37B2
 10
701.554
 20
208.535
 30
-1.14410e-13
  70
    32
  0
VERTEX
  8
0
  5
37B3
 10
701.543
 20
208.535
 30
-1.14408e-13
  70
    32
  0
VERTEX
  8
0
  5
37B4
 10
701.533
 20
208.535
 30
-1.14405e-13
  70
    32
  0
VERTEX
  8
0
  5
37B5
 10
701.522
 20
208.535
 30
-1.14403e-13
  70
    32
  0
VERTEX
  8
0
  5
37B6
 10
701.511
 20
208.535
 30
-1.14400e-13
  70
    32
  0
SEQEND
  8
0
  5
37B7
  0
ARC
  5
2F07
  8
0
 10
701.5112652587622506
 20
217.5350682550881913
 30
-0.0000000000001137
 40
8.9999999999999876
 50
287.7825929444742883
 51
252.2174070555257117
  0
ARC
  5
2F08
  8
0
 10
701.511265258762478
 20
155.0350682550881913
 30
-0.0000000000001137
 40
53.9999999999998224
 50
2.9176735344623479
 51
87.0823264655377187
  0
ARC
  5
2F09
  8
0
 10
701.5112652587623643
 20
155.0350682550879924
 30
-0.0000000000001137
 40
54.0000000000001208
 50
92.9176735344626223
 51
177.0823264655373919
  0
ARC
  5
2F0A
  8
0
 10
701.5112652587621369
 20
155.0350682550879924
 30
-0.0000000000001137
 40
53.9999999999999432
 50
182.9176735344622955
 51
267.0823264655376192
  0
ARC
  5
2F0B
  8
0
 10
701.5112652587623643
 20
155.0350682550879924
 30
-0.0000000000001137
 40
53.9999999999999503
 50
272.9176735344623808
 51
357.0823264655376192
  0
CIRCLE
  5
2F0C
  8
0
 10
701.5112652587622506
 20
155.0350682550881061
 30
-0.0000000000001137
 40
51.0000000000000284
  0
CIRCLE
  5
2F0D
  8
0
 10
701.5112652587622506
 20
155.0350682550881061
 30
-0.0000000000001137
 40
82.5000000000000284
  0
CIRCLE
  5
2F0E
  8
0
 10
701.5112652587622506
 20
155.0350682550881061
 30
-0.0000000000001137
 40
27.2500000000000284
  0
CIRCLE
  5
2F0F
  8
0
  6
VERDECKT
 62
     1
 10
701.5112652587622506
 20
155.0350682550881061
 30
-0.0000000000001137
 40
25.8872335056913698
  0
CIRCLE
  5
2F10
  8
0
  6
VERDECKT
 62
     1
 10
701.5112652587622506
 20
155.0350682550881061
 30
-0.0000000000001137
 40
26.5003458496272017
  0
CIRCLE
  5
2F11
  8
0
  6
VERDECKT
 62
     1
 10
701.5112652587622506
 20
155.0350682550881061
 30
-0.0000000000001137
 40
28.8948358403397414
  0
CIRCLE
  5
2F12
  8
0
  6
VERDECKT
 62
     1
 10
701.5112652587622506
 20
155.0350682550881061
 30
-0.0000000000001137
 40
30.1500000000000092
  0
ENDBLK
  5
2F14
  8
0
  0
BLOCK
  8
0
  2
A$CC4EB6825
 70
     0
 10
0.0
 20
0.0
 30
0.0
  3
A$CC4EB6825
  1

  0
LINE
  5
2F18
  8
0
 10
747.585681377555602
 20
-22.997165644013581
 30
0.0000000000000112
 11
799.3601483889383417
 21
-22.997165644013581
 31
0.0000000000000112
210
0.0
220
1.0
230
-0.0000000000000002
  0
ARC
  5
2F19
  8
0
 10
-753.4725690336395019
 20
-17.5928455446197702
 30
-0.0000000000000061
 40
6.5000000000197806
210
0.0
220
-0.0000000000000002
230
-1.0
 50
353.0200771855160156
 51
359.9999999999869829
  0
ARC
  5
2F1A
  8
0
 10
-793.4732607328544418
 20
-17.5928455446197702
 30
-0.0000000000000061
 40
6.5000000000197806
210
0.0
220
-0.0000000000000002
230
-1.0
 50
180.0000000000129887
 51
186.9799228144838992
  0
LINE
  5
2F1B
  8
0
 10
747.585681377555602
 20
-22.997165644013581
 30
0.0000000000000112
 11
747.0207418641393815
 21
-18.38273552123594
 31
0.0000000000000102
210
0.0
220
1.0
230
-0.0000000000000002
  0
LINE
  5
2F1C
  8
0
 10
799.3601483889383417
 20
-22.997165644013581
 30
0.0000000000000112
 11
799.9250879023544485
 21
-18.38273552123594
 31
0.0000000000000102
210
0.0
220
1.0
230
-0.0000000000000002
  0
LINE
  5
2F1D
  8
0
 10
799.9732607328742233
 20
60.8225090428170319
 30
-0.0000000000000074
 11
799.9732607328742233
 21
-17.5928455446212517
 31
0.00000000000001
210
0.0
220
1.0
230
-0.0000000000000002
  0
LINE
  5
2F1E
  8
0
 10
746.9725690336197204
 20
60.8225090428170319
 30
-0.0000000000000074
 11
746.9725690336197204
 21
-17.5928455446212517
 31
0.00000000000001
210
0.0
220
1.0
230
-0.0000000000000002
  0
LINE
  5
2F1F
  8
0
 10
746.6203494703354409
 20
62.4637579226382513
 30
-0.0000000000000078
 11
744.578079042907234
 21
67.0028343559864652
 31
-0.0000000000000088
210
0.0
220
1.0
230
-0.0000000000000002
  0
LINE
  5
2F20
  8
0
 10
800.3254802961585028
 20
62.4637579226382513
 30
-0.0000000000000078
 11
802.367750723586596
 21
67.0028343559864652
 31
-0.0000000000000088
210
0.0
220
1.0
230
-0.0000000000000002
  0
ARC
  5
2F21
  8
0
 10
-742.9725690336206299
 20
60.8225090428170674
 30
-0.0000000000000061
 40
3.9999999999992042
210
0.0
220
-0.0000000000000002
230
-1.0
 50
155.7755505218584915
 51
180.0000000000005969
  0
ARC
  5
2F22
  8
0
 10
-803.9732607328732001
 20
60.8225090428170674
 30
-0.0000000000000061
 40
3.9999999999990901
210
0.0
220
-0.0000000000000002
230
-1.0
 50
359.9999999999993747
 51
24.2244494781422297
  0
LINE
  5
2F23
  8
0
 10
803.6229148832469491
 20
67.0028343559863799
 30
-0.0000000000000088
 11
743.3229148832468809
 21
67.0028343559863799
 31
-0.0000000000000088
210
0.0
220
1.0
230
-0.0000000000000002
  0
POLYLINE
  8
0
  5
37B8
  66
     1
 10
0.000000
 20
0.000000
 30
0.000000
  70
     8
  0
VERTEX
  8
0
  5
37B9
 10
827.403
 20
109.003
 30
-1.81000e-14
  70
    32
  0
VERTEX
  8
0
  5
37BA
 10
827.400
 20
109.007
 30
-1.81000e-14
  70
    32
  0
VERTEX
  8
0
  5
37BB
 10
827.396
 20
109.010
 30
-1.81000e-14
  70
    32
  0
VERTEX
  8
0
  5
37BC
 10
827.393
 20
109.014
 30
-1.81000e-14
  70
    32
  0
VERTEX
  8
0
  5
37BD
 10
827.390
 20
109.018
 30
-1.81001e-14
  70
    32
  0
VERTEX
  8
0
  5
37BE
 10
827.387
 20
109.022
 30
-1.81002e-14
  70
    32
  0
VERTEX
  8
0
  5
37BF
 10
827.383
 20
109.025
 30
-1.81003e-14
  70
    32
  0
VERTEX
  8
0
  5
37C0
 10
827.380
 20
109.029
 30
-1.81005e-14
  70
    32
  0
VERTEX
  8
0
  5
37C1
 10
827.377
 20
109.033
 30
-1.81007e-14
  70
    32
  0
VERTEX
  8
0
  5
37C2
 10
827.374
 20
109.037
 30
-1.81010e-14
  70
    32
  0
VERTEX
  8
0
  5
37C3
 10
827.371
 20
109.040
 30
-1.81013e-14
  70
    32
  0
VERTEX
  8
0
  5
37C4
 10
827.367
 20
109.044
 30
-1.81017e-14
  70
    32
  0
VERTEX
  8
0
  5
37C5
 10
827.364
 20
109.048
 30
-1.81023e-14
  70
    32
  0
VERTEX
  8
0
  5
37C6
 10
827.361
 20
109.051
 30
-1.81029e-14
  70
    32
  0
VERTEX
  8
0
  5
37C7
 10
827.358
 20
109.055
 30
-1.81036e-14
  70
    32
  0
VERTEX
  8
0
  5
37C8
 10
827.355
 20
109.059
 30
-1.81044e-14
  70
    32
  0
VERTEX
  8
0
  5
37C9
 10
827.352
 20
109.062
 30
-1.81054e-14
  70
    32
  0
VERTEX
  8
0
  5
37CA
 10
827.349
 20
109.066
 30
-1.81065e-14
  70
    32
  0
VERTEX
  8
0
  5
37CB
 10
827.345
 20
109.069
 30
-1.81077e-14
  70
    32
  0
VERTEX
  8
0
  5
37CC
 10
827.342
 20
109.073
 30
-1.81090e-14
  70
    32
  0
VERTEX
  8
0
  5
37CD
 10
827.339
 20
109.076
 30
-1.81105e-14
  70
    32
  0
VERTEX
  8
0
  5
37CE
 10
827.336
 20
109.080
 30
-1.81122e-14
  70
    32
  0
VERTEX
  8
0
  5
37CF
 10
827.333
 20
109.084
 30
-1.81140e-14
  70
    32
  0
VERTEX
  8
0
  5
37D0
 10
827.330
 20
109.087
 30
-1.81160e-14
  70
    32
  0
VERTEX
  8
0
  5
37D1
 10
827.327
 20
109.091
 30
-1.81181e-14
  70
    32
  0
VERTEX
  8
0
  5
37D2
 10
827.324
 20
109.094
 30
-1.81202e-14
  70
    32
  0
VERTEX
  8
0
  5
37D3
 10
827.321
 20
109.098
 30
-1.81223e-14
  70
    32
  0
VERTEX
  8
0
  5
37D4
 10
827.318
 20
109.101
 30
-1.81244e-14
  70
    32
  0
VERTEX
  8
0
  5
37D5
 10
827.315
 20
109.104
 30
-1.81264e-14
  70
    32
  0
VERTEX
  8
0
  5
37D6
 10
827.312
 20
109.108
 30
-1.81283e-14
  70
    32
  0
VERTEX
  8
0
  5
37D7
 10
827.309
 20
109.111
 30
-1.81303e-14
  70
    32
  0
VERTEX
  8
0
  5
37D8
 10
827.306
 20
109.115
 30
-1.81322e-14
  70
    32
  0
VERTEX
  8
0
  5
37D9
 10
827.303
 20
109.118
 30
-1.81340e-14
  70
    32
  0
VERTEX
  8
0
  5
37DA
 10
827.300
 20
109.122
 30
-1.81359e-14
  70
    32
  0
VERTEX
  8
0
  5
37DB
 10
827.298
 20
109.125
 30
-1.81377e-14
  70
    32
  0
VERTEX
  8
0
  5
37DC
 10
827.295
 20
109.128
 30
-1.81394e-14
  70
    32
  0
VERTEX
  8
0
  5
37DD
 10
827.292
 20
109.132
 30
-1.81411e-14
  70
    32
  0
VERTEX
  8
0
  5
37DE
 10
827.289
 20
109.135
 30
-1.81428e-14
  70
    32
  0
VERTEX
  8
0
  5
37DF
 10
827.286
 20
109.138
 30
-1.81445e-14
  70
    32
  0
VERTEX
  8
0
  5
37E0
 10
827.283
 20
109.142
 30
-1.81461e-14
  70
    32
  0
VERTEX
  8
0
  5
37E1
 10
827.280
 20
109.145
 30
-1.81477e-14
  70
    32
  0
VERTEX
  8
0
  5
37E2
 10
827.278
 20
109.148
 30
-1.81493e-14
  70
    32
  0
VERTEX
  8
0
  5
37E3
 10
827.275
 20
109.151
 30
-1.81508e-14
  70
    32
  0
VERTEX
  8
0
  5
37E4
 10
827.272
 20
109.155
 30
-1.81523e-14
  70
    32
  0
VERTEX
  8
0
  5
37E5
 10
827.269
 20
109.158
 30
-1.81538e-14
  70
    32
  0
VERTEX
  8
0
  5
37E6
 10
827.266
 20
109.161
 30
-1.81552e-14
  70
    32
  0
VERTEX
  8
0
  5
37E7
 10
827.264
 20
109.164
 30
-1.81566e-14
  70
    32
  0
VERTEX
  8
0
  5
37E8
 10
827.261
 20
109.168
 30
-1.81580e-14
  70
    32
  0
VERTEX
  8
0
  5
37E9
 10
827.258
 20
109.171
 30
-1.81594e-14
  70
    32
  0
VERTEX
  8
0
  5
37EA
 10
827.255
 20
109.174
 30
-1.81607e-14
  70
    32
  0
VERTEX
  8
0
  5
37EB
 10
827.253
 20
109.177
 30
-1.81620e-14
  70
    32
  0
VERTEX
  8
0
  5
37EC
 10
827.250
 20
109.180
 30
-1.81633e-14
  70
    32
  0
VERTEX
  8
0
  5
37ED
 10
827.247
 20
109.183
 30
-1.81645e-14
  70
    32
  0
VERTEX
  8
0
  5
37EE
 10
827.245
 20
109.186
 30
-1.81657e-14
  70
    32
  0
VERTEX
  8
0
  5
37EF
 10
827.242
 20
109.189
 30
-1.81669e-14
  70
    32
  0
VERTEX
  8
0
  5
37F0
 10
827.239
 20
109.193
 30
-1.81680e-14
  70
    32
  0
VERTEX
  8
0
  5
37F1
 10
827.237
 20
109.196
 30
-1.81692e-14
  70
    32
  0
VERTEX
  8
0
  5
37F2
 10
827.234
 20
109.199
 30
-1.81703e-14
  70
    32
  0
VERTEX
  8
0
  5
37F3
 10
827.231
 20
109.202
 30
-1.81713e-14
  70
    32
  0
VERTEX
  8
0
  5
37F4
 10
827.229
 20
109.205
 30
-1.81724e-14
  70
    32
  0
VERTEX
  8
0
  5
37F5
 10
827.226
 20
109.208
 30
-1.81734e-14
  70
    32
  0
VERTEX
  8
0
  5
37F6
 10
827.224
 20
109.211
 30
-1.81744e-14
  70
    32
  0
VERTEX
  8
0
  5
37F7
 10
827.221
 20
109.214
 30
-1.81754e-14
  70
    32
  0
VERTEX
  8
0
  5
37F8
 10
827.219
 20
109.217
 30
-1.81763e-14
  70
    32
  0
VERTEX
  8
0
  5
37F9
 10
827.216
 20
109.220
 30
-1.81772e-14
  70
    32
  0
VERTEX
  8
0
  5
37FA
 10
827.213
 20
109.223
 30
-1.81781e-14
  70
    32
  0
VERTEX
  8
0
  5
37FB
 10
827.211
 20
109.225
 30
-1.81790e-14
  70
    32
  0
VERTEX
  8
0
  5
37FC
 10
827.208
 20
109.228
 30
-1.81798e-14
  70
    32
  0
VERTEX
  8
0
  5
37FD
 10
827.206
 20
109.231
 30
-1.81807e-14
  70
    32
  0
VERTEX
  8
0
  5
37FE
 10
827.203
 20
109.234
 30
-1.81815e-14
  70
    32
  0
VERTEX
  8
0
  5
37FF
 10
827.201
 20
109.237
 30
-1.81823e-14
  70
    32
  0
VERTEX
  8
0
  5
3800
 10
827.199
 20
109.240
 30
-1.81830e-14
  70
    32
  0
VERTEX
  8
0
  5
3801
 10
827.196
 20
109.243
 30
-1.81838e-14
  70
    32
  0
VERTEX
  8
0
  5
3802
 10
827.194
 20
109.246
 30
-1.81845e-14
  70
    32
  0
VERTEX
  8
0
  5
3803
 10
827.191
 20
109.248
 30
-1.81852e-14
  70
    32
  0
VERTEX
  8
0
  5
3804
 10
827.189
 20
109.251
 30
-1.81858e-14
  70
    32
  0
VERTEX
  8
0
  5
3805
 10
827.186
 20
109.254
 30
-1.81865e-14
  70
    32
  0
VERTEX
  8
0
  5
3806
 10
827.184
 20
109.257
 30
-1.81871e-14
  70
    32
  0
VERTEX
  8
0
  5
3807
 10
827.182
 20
109.259
 30
-1.81877e-14
  70
    32
  0
VERTEX
  8
0
  5
3808
 10
827.179
 20
109.262
 30
-1.81883e-14
  70
    32
  0
VERTEX
  8
0
  5
3809
 10
827.177
 20
109.265
 30
-1.81889e-14
  70
    32
  0
VERTEX
  8
0
  5
380A
 10
827.175
 20
109.268
 30
-1.81894e-14
  70
    32
  0
VERTEX
  8
0
  5
380B
 10
827.172
 20
109.270
 30
-1.81900e-14
  70
    32
  0
VERTEX
  8
0
  5
380C
 10
827.170
 20
109.273
 30
-1.81905e-14
  70
    32
  0
VERTEX
  8
0
  5
380D
 10
827.168
 20
109.276
 30
-1.81910e-14
  70
    32
  0
VERTEX
  8
0
  5
380E
 10
827.166
 20
109.278
 30
-1.81915e-14
  70
    32
  0
VERTEX
  8
0
  5
380F
 10
827.163
 20
109.281
 30
-1.81919e-14
  70
    32
  0
VERTEX
  8
0
  5
3810
 10
827.161
 20
109.284
 30
-1.81924e-14
  70
    32
  0
VERTEX
  8
0
  5
3811
 10
827.159
 20
109.286
 30
-1.81928e-14
  70
    32
  0
VERTEX
  8
0
  5
3812
 10
827.157
 20
109.289
 30
-1.81932e-14
  70
    32
  0
VERTEX
  8
0
  5
3813
 10
827.154
 20
109.291
 30
-1.81936e-14
  70
    32
  0
VERTEX
  8
0
  5
3814
 10
827.152
 20
109.294
 30
-1.81940e-14
  70
    32
  0
VERTEX
  8
0
  5
3815
 10
827.150
 20
109.296
 30
-1.81944e-14
  70
    32
  0
VERTEX
  8
0
  5
3816
 10
827.148
 20
109.299
 30
-1.81947e-14
  70
    32
  0
VERTEX
  8
0
  5
3817
 10
827.146
 20
109.301
 30
-1.81951e-14
  70
    32
  0
VERTEX
  8
0
  5
3818
 10
827.143
 20
109.304
 30
-1.81954e-14
  70
    32
  0
VERTEX
  8
0
  5
3819
 10
827.141
 20
109.306
 30
-1.81957e-14
  70
    32
  0
VERTEX
  8
0
  5
381A
 10
827.139
 20
109.309
 30
-1.81960e-14
  70
    32
  0
VERTEX
  8
0
  5
381B
 10
827.137
 20
109.311
 30
-1.81963e-14
  70
    32
  0
VERTEX
  8
0
  5
381C
 10
827.135
 20
109.314
 30
-1.81965e-14
  70
    32
  0
VERTEX
  8
0
  5
381D
 10
827.133
 20
109.316
 30
-1.81968e-14
  70
    32
  0
VERTEX
  8
0
  5
381E
 10
827.131
 20
109.319
 30
-1.81970e-14
  70
    32
  0
VERTEX
  8
0
  5
381F
 10
827.129
 20
109.321
 30
-1.81972e-14
  70
    32
  0
VERTEX
  8
0
  5
3820
 10
827.127
 20
109.323
 30
-1.81975e-14
  70
    32
  0
VERTEX
  8
0
  5
3821
 10
827.125
 20
109.326
 30
-1.81977e-14
  70
    32
  0
VERTEX
  8
0
  5
3822
 10
827.123
 20
109.328
 30
-1.81979e-14
  70
    32
  0
VERTEX
  8
0
  5
3823
 10
827.121
 20
109.330
 30
-1.81980e-14
  70
    32
  0
VERTEX
  8
0
  5
3824
 10
827.119
 20
109.333
 30
-1.81982e-14
  70
    32
  0
VERTEX
  8
0
  5
3825
 10
827.117
 20
109.335
 30
-1.81984e-14
  70
    32
  0
VERTEX
  8
0
  5
3826
 10
827.115
 20
109.337
 30
-1.81985e-14
  70
    32
  0
VERTEX
  8
0
  5
3827
 10
827.113
 20
109.340
 30
-1.81987e-14
  70
    32
  0
VERTEX
  8
0
  5
3828
 10
827.111
 20
109.342
 30
-1.81988e-14
  70
    32
  0
VERTEX
  8
0
  5
3829
 10
827.109
 20
109.344
 30
-1.81989e-14
  70
    32
  0
VERTEX
  8
0
  5
382A
 10
827.107
 20
109.346
 30
-1.81990e-14
  70
    32
  0
VERTEX
  8
0
  5
382B
 10
827.105
 20
109.349
 30
-1.81991e-14
  70
    32
  0
VERTEX
  8
0
  5
382C
 10
827.103
 20
109.351
 30
-1.81992e-14
  70
    32
  0
VERTEX
  8
0
  5
382D
 10
827.101
 20
109.353
 30
-1.81993e-14
  70
    32
  0
VERTEX
  8
0
  5
382E
 10
827.100
 20
109.355
 30
-1.81994e-14
  70
    32
  0
VERTEX
  8
0
  5
382F
 10
827.098
 20
109.357
 30
-1.81995e-14
  70
    32
  0
VERTEX
  8
0
  5
3830
 10
827.096
 20
109.359
 30
-1.81996e-14
  70
    32
  0
VERTEX
  8
0
  5
3831
 10
827.094
 20
109.361
 30
-1.81996e-14
  70
    32
  0
VERTEX
  8
0
  5
3832
 10
827.092
 20
109.364
 30
-1.81997e-14
  70
    32
  0
VERTEX
  8
0
  5
3833
 10
827.090
 20
109.366
 30
-1.81997e-14
  70
    32
  0
VERTEX
  8
0
  5
3834
 10
827.089
 20
109.368
 30
-1.81998e-14
  70
    32
  0
VERTEX
  8
0
  5
3835
 10
827.087
 20
109.370
 30
-1.81998e-14
  70
    32
  0
VERTEX
  8
0
  5
3836
 10
827.085
 20
109.372
 30
-1.81998e-14
  70
    32
  0
VERTEX
  8
0
  5
3837
 10
827.083
 20
109.374
 30
-1.81999e-14
  70
    32
  0
VERTEX
  8
0
  5
3838
 10
827.082
 20
109.376
 30
-1.81999e-14
  70
    32
  0
VERTEX
  8
0
  5
3839
 10
827.080
 20
109.378
 30
-1.81999e-14
  70
    32
  0
VERTEX
  8
0
  5
383A
 10
827.078
 20
109.380
 30
-1.81999e-14
  70
    32
  0
VERTEX
  8
0
  5
383B
 10
827.077
 20
109.382
 30
-1.82000e-14
  70
    32
  0
VERTEX
  8
0
  5
383C
 10
827.075
 20
109.384
 30
-1.82000e-14
  70
    32
  0
VERTEX
  8
0
  5
383D
 10
827.073
 20
109.386
 30
-1.82000e-14
  70
    32
  0
VERTEX
  8
0
  5
383E
 10
827.072
 20
109.388
 30
-1.82000e-14
  70
    32
  0
VERTEX
  8
0
  5
383F
 10
827.070
 20
109.389
 30
-1.82000e-14
  70
    32
  0
VERTEX
  8
0
  5
3840
 10
827.068
 20
109.391
 30
-1.82000e-14
  70
    32
  0
VERTEX
  8
0
  5
3841
 10
827.067
 20
109.393
 30
-1.82000e-14
  70
    32
  0
VERTEX
  8
0
  5
3842
 10
827.065
 20
109.395
 30
-1.82000e-14
  70
    32
  0
VERTEX
  8
0
  5
3843
 10
827.064
 20
109.397
 30
-1.82000e-14
  70
    32
  0
VERTEX
  8
0
  5
3844
 10
827.062
 20
109.399
 30
-1.82000e-14
  70
    32
  0
VERTEX
  8
0
  5
3845
 10
827.061
 20
109.401
 30
-1.82000e-14
  70
    32
  0
VERTEX
  8
0
  5
3846
 10
827.059
 20
109.402
 30
-1.82000e-14
  70
    32
  0
VERTEX
  8
0
  5
3847
 10
827.058
 20
109.404
 30
-1.82000e-14
  70
    32
  0
VERTEX
  8
0
  5
3848
 10
827.056
 20
109.406
 30
-1.82000e-14
  70
    32
  0
VERTEX
  8
0
  5
3849
 10
827.055
 20
109.408
 30
-1.82000e-14
  70
    32
  0
VERTEX
  8
0
  5
384A
 10
827.053
 20
109.409
 30
-1.82000e-14
  70
    32
  0
VERTEX
  8
0
  5
384B
 10
827.052
 20
109.411
 30
-1.82000e-14
  70
    32
  0
VERTEX
  8
0
  5
384C
 10
827.050
 20
109.413
 30
-1.82000e-14
  70
    32
  0
VERTEX
  8
0
  5
384D
 10
827.049
 20
109.414
 30
-1.82000e-14
  70
    32
  0
VERTEX
  8
0
  5
384E
 10
827.047
 20
109.416
 30
-1.82000e-14
  70
    32
  0
VERTEX
  8
0
  5
384F
 10
827.046
 20
109.418
 30
-1.82000e-14
  70
    32
  0
VERTEX
  8
0
  5
3850
 10
827.044
 20
109.419
 30
-1.82000e-14
  70
    32
  0
VERTEX
  8
0
  5
3851
 10
827.043
 20
109.421
 30
-1.82000e-14
  70
    32
  0
VERTEX
  8
0
  5
3852
 10
827.042
 20
109.422
 30
-1.82000e-14
  70
    32
  0
VERTEX
  8
0
  5
3853
 10
827.040
 20
109.424
 30
-1.82000e-14
  70
    32
  0
VERTEX
  8
0
  5
3854
 10
827.039
 20
109.426
 30
-1.82000e-14
  70
    32
  0
VERTEX
  8
0
  5
3855
 10
827.038
 20
109.427
 30
-1.82000e-14
  70
    32
  0
VERTEX
  8
0
  5
3856
 10
827.036
 20
109.429
 30
-1.82000e-14
  70
    32
  0
VERTEX
  8
0
  5
3857
 10
827.035
 20
109.430
 30
-1.82000e-14
  70
    32
  0
VERTEX
  8
0
  5
3858
 10
827.034
 20
109.432
 30
-1.82000e-14
  70
    32
  0
VERTEX
  8
0
  5
3859
 10
827.033
 20
109.433
 30
-1.82000e-14
  70
    32
  0
VERTEX
  8
0
  5
385A
 10
827.031
 20
109.435
 30
-1.82000e-14
  70
    32
  0
VERTEX
  8
0
  5
385B
 10
827.030
 20
109.436
 30
-1.82000e-14
  70
    32
  0
VERTEX
  8
0
  5
385C
 10
827.029
 20
109.438
 30
-1.82000e-14
  70
    32
  0
VERTEX
  8
0
  5
385D
 10
827.028
 20
109.439
 30
-1.82000e-14
  70
    32
  0
VERTEX
  8
0
  5
385E
 10
827.026
 20
109.440
 30
-1.82000e-14
  70
    32
  0
VERTEX
  8
0
  5
385F
 10
827.025
 20
109.442
 30
-1.82000e-14
  70
    32
  0
VERTEX
  8
0
  5
3860
 10
827.024
 20
109.443
 30
-1.82000e-14
  70
    32
  0
VERTEX
  8
0
  5
3861
 10
827.023
 20
109.445
 30
-1.82000e-14
  70
    32
  0
VERTEX
  8
0
  5
3862
 10
827.022
 20
109.446
 30
-1.82000e-14
  70
    32
  0
VERTEX
  8
0
  5
3863
 10
827.021
 20
109.447
 30
-1.82000e-14
  70
    32
  0
VERTEX
  8
0
  5
3864
 10
827.019
 20
109.448
 30
-1.82000e-14
  70
    32
  0
VERTEX
  8
0
  5
3865
 10
827.018
 20
109.450
 30
-1.82000e-14
  70
    32
  0
VERTEX
  8
0
  5
3866
 10
827.017
 20
109.451
 30
-1.82000e-14
  70
    32
  0
VERTEX
  8
0
  5
3867
 10
827.016
 20
109.452
 30
-1.82000e-14
  70
    32
  0
VERTEX
  8
0
  5
3868
 10
827.015
 20
109.454
 30
-1.82000e-14
  70
    32
  0
VERTEX
  8
0
  5
3869
 10
827.014
 20
109.455
 30
-1.82000e-14
  70
    32
  0
VERTEX
  8
0
  5
386A
 10
827.013
 20
109.456
 30
-1.82000e-14
  70
    32
  0
VERTEX
  8
0
  5
386B
 10
827.012
 20
109.457
 30
-1.82000e-14
  70
    32
  0
VERTEX
  8
0
  5
386C
 10
827.011
 20
109.458
 30
-1.82000e-14
  70
    32
  0
VERTEX
  8
0
  5
386D
 10
827.010
 20
109.460
 30
-1.82000e-14
  70
    32
  0
VERTEX
  8
0
  5
386E
 10
827.009
 20
109.461
 30
-1.82000e-14
  70
    32
  0
VERTEX
  8
0
  5
386F
 10
827.008
 20
109.462
 30
-1.82000e-14
  70
    32
  0
VERTEX
  8
0
  5
3870
 10
827.007
 20
109.463
 30
-1.82000e-14
  70
    32
  0
VERTEX
  8
0
  5
3871
 10
827.006
 20
109.464
 30
-1.82000e-14
  70
    32
  0
VERTEX
  8
0
  5
3872
 10
827.005
 20
109.465
 30
-1.82000e-14
  70
    32
  0
VERTEX
  8
0
  5
3873
 10
827.004
 20
109.466
 30
-1.82000e-14
  70
    32
  0
VERTEX
  8
0
  5
3874
 10
827.003
 20
109.467
 30
-1.82000e-14
  70
    32
  0
VERTEX
  8
0
  5
3875
 10
827.002
 20
109.468
 30
-1.82000e-14
  70
    32
  0
VERTEX
  8
0
  5
3876
 10
827.002
 20
109.469
 30
-1.82000e-14
  70
    32
  0
VERTEX
  8
0
  5
3877
 10
827.001
 20
109.470
 30
-1.82000e-14
  70
    32
  0
VERTEX
  8
0
  5
3878
 10
827.000
 20
109.471
 30
-1.82000e-14
  70
    32
  0
VERTEX
  8
0
  5
3879
 10
826.999
 20
109.472
 30
-1.82000e-14
  70
    32
  0
VERTEX
  8
0
  5
387A
 10
826.998
 20
109.473
 30
-1.82000e-14
  70
    32
  0
VERTEX
  8
0
  5
387B
 10
826.997
 20
109.474
 30
-1.82000e-14
  70
    32
  0
VERTEX
  8
0
  5
387C
 10
826.997
 20
109.475
 30
-1.82000e-14
  70
    32
  0
VERTEX
  8
0
  5
387D
 10
826.996
 20
109.476
 30
-1.82000e-14
  70
    32
  0
VERTEX
  8
0
  5
387E
 10
826.995
 20
109.477
 30
-1.82000e-14
  70
    32
  0
VERTEX
  8
0
  5
387F
 10
826.994
 20
109.478
 30
-1.82000e-14
  70
    32
  0
VERTEX
  8
0
  5
3880
 10
826.994
 20
109.479
 30
-1.82000e-14
  70
    32
  0
VERTEX
  8
0
  5
3881
 10
826.993
 20
109.480
 30
-1.82000e-14
  70
    32
  0
VERTEX
  8
0
  5
3882
 10
826.992
 20
109.480
 30
-1.82000e-14
  70
    32
  0
VERTEX
  8
0
  5
3883
 10
826.991
 20
109.481
 30
-1.82000e-14
  70
    32
  0
VERTEX
  8
0
  5
3884
 10
826.991
 20
109.482
 30
-1.82000e-14
  70
    32
  0
VERTEX
  8
0
  5
3885
 10
826.990
 20
109.483
 30
-1.82000e-14
  70
    32
  0
VERTEX
  8
0
  5
3886
 10
826.989
 20
109.484
 30
-1.82000e-14
  70
    32
  0
VERTEX
  8
0
  5
3887
 10
826.989
 20
109.484
 30
-1.82000e-14
  70
    32
  0
VERTEX
  8
0
  5
3888
 10
826.988
 20
109.485
 30
-1.82000e-14
  70
    32
  0
VERTEX
  8
0
  5
3889
 10
826.987
 20
109.486
 30
-1.82000e-14
  70
    32
  0
VERTEX
  8
0
  5
388A
 10
826.987
 20
109.487
 30
-1.82000e-14
  70
    32
  0
VERTEX
  8
0
  5
388B
 10
826.986
 20
109.487
 30
-1.82000e-14
  70
    32
  0
VERTEX
  8
0
  5
388C
 10
826.986
 20
109.488
 30
-1.82000e-14
  70
    32
  0
VERTEX
  8
0
  5
388D
 10
826.985
 20
109.489
 30
-1.82000e-14
  70
    32
  0
VERTEX
  8
0
  5
388E
 10
826.984
 20
109.489
 30
-1.82000e-14
  70
    32
  0
VERTEX
  8
0
  5
388F
 10
826.984
 20
109.490
 30
-1.82000e-14
  70
    32
  0
VERTEX
  8
0
  5
3890
 10
826.983
 20
109.491
 30
-1.82000e-14
  70
    32
  0
VERTEX
  8
0
  5
3891
 10
826.983
 20
109.491
 30
-1.82000e-14
  70
    32
  0
VERTEX
  8
0
  5
3892
 10
826.982
 20
109.492
 30
-1.82000e-14
  70
    32
  0
VERTEX
  8
0
  5
3893
 10
826.982
 20
109.492
 30
-1.82000e-14
  70
    32
  0
VERTEX
  8
0
  5
3894
 10
826.981
 20
109.493
 30
-1.82000e-14
  70
    32
  0
VERTEX
  8
0
  5
3895
 10
826.981
 20
109.493
 30
-1.82000e-14
  70
    32
  0
VERTEX
  8
0
  5
3896
 10
826.980
 20
109.494
 30
-1.82000e-14
  70
    32
  0
VERTEX
  8
0
  5
3897
 10
826.980
 20
109.495
 30
-1.82000e-14
  70
    32
  0
VERTEX
  8
0
  5
3898
 10
826.980
 20
109.495
 30
-1.82000e-14
  70
    32
  0
VERTEX
  8
0
  5
3899
 10
826.979
 20
109.495
 30
-1.82000e-14
  70
    32
  0
VERTEX
  8
0
  5
389A
 10
826.979
 20
109.496
 30
-1.82000e-14
  70
    32
  0
VERTEX
  8
0
  5
389B
 10
826.978
 20
109.496
 30
-1.82000e-14
  70
    32
  0
VERTEX
  8
0
  5
389C
 10
826.978
 20
109.497
 30
-1.82000e-14
  70
    32
  0
VERTEX
  8
0
  5
389D
 10
826.978
 20
109.497
 30
-1.82000e-14
  70
    32
  0
VERTEX
  8
0
  5
389E
 10
826.977
 20
109.498
 30
-1.82000e-14
  70
    32
  0
VERTEX
  8
0
  5
389F
 10
826.977
 20
109.498
 30
-1.82000e-14
  70
    32
  0
VERTEX
  8
0
  5
38A0
 10
826.977
 20
109.498
 30
-1.82000e-14
  70
    32
  0
VERTEX
  8
0
  5
38A1
 10
826.976
 20
109.499
 30
-1.82000e-14
  70
    32
  0
VERTEX
  8
0
  5
38A2
 10
826.976
 20
109.499
 30
-1.82000e-14
  70
    32
  0
VERTEX
  8
0
  5
38A3
 10
826.976
 20
109.499
 30
-1.82000e-14
  70
    32
  0
VERTEX
  8
0
  5
38A4
 10
826.976
 20
109.500
 30
-1.82000e-14
  70
    32
  0
VERTEX
  8
0
  5
38A5
 10
826.975
 20
109.500
 30
-1.82000e-14
  70
    32
  0
VERTEX
  8
0
  5
38A6
 10
826.975
 20
109.500
 30
-1.82000e-14
  70
    32
  0
VERTEX
  8
0
  5
38A7
 10
826.975
 20
109.501
 30
-1.82000e-14
  70
    32
  0
VERTEX
  8
0
  5
38A8
 10
826.975
 20
109.501
 30
-1.82000e-14
  70
    32
  0
VERTEX
  8
0
  5
38A9
 10
826.974
 20
109.501
 30
-1.82000e-14
  70
    32
  0
VERTEX
  8
0
  5
38AA
 10
826.974
 20
109.501
 30
-1.82000e-14
  70
    32
  0
VERTEX
  8
0
  5
38AB
 10
826.974
 20
109.502
 30
-1.82000e-14
  70
    32
  0
VERTEX
  8
0
  5
38AC
 10
826.974
 20
109.502
 30
-1.82000e-14
  70
    32
  0
VERTEX
  8
0
  5
38AD
 10
826.974
 20
109.502
 30
-1.82000e-14
  70
    32
  0
VERTEX
  8
0
  5
38AE
 10
826.974
 20
109.502
 30
-1.82000e-14
  70
    32
  0
VERTEX
  8
0
  5
38AF
 10
826.973
 20
109.502
 30
-1.82000e-14
  70
    32
  0
VERTEX
  8
0
  5
38B0
 10
826.973
 20
109.502
 30
-1.82000e-14
  70
    32
  0
VERTEX
  8
0
  5
38B1
 10
826.973
 20
109.502
 30
-1.82000e-14
  70
    32
  0
VERTEX
  8
0
  5
38B2
 10
826.973
 20
109.503
 30
-1.82000e-14
  70
    32
  0
VERTEX
  8
0
  5
38B3
 10
826.973
 20
109.503
 30
-1.82000e-14
  70
    32
  0
VERTEX
  8
0
  5
38B4
 10
826.973
 20
109.503
 30
-1.82000e-14
  70
    32
  0
VERTEX
  8
0
  5
38B5
 10
826.973
 20
109.503
 30
-1.82000e-14
  70
    32
  0
VERTEX
  8
0
  5
38B6
 10
826.973
 20
109.503
 30
-1.82000e-14
  70
    32
  0
VERTEX
  8
0
  5
38B7
 10
826.973
 20
109.503
 30
-1.82000e-14
  70
    32
  0
VERTEX
  8
0
  5
38B8
 10
826.973
 20
109.503
 30
-1.82000e-14
  70
    32
  0
SEQEND
  8
0
  5
38B9
  0
POLYLINE
  8
0
  5
38BA
  66
     1
 10
0.000000
 20
0.000000
 30
0.000000
  70
     8
  0
VERTEX
  8
0
  5
38BB
 10
719.973
 20
109.503
 30
-1.82000e-14
  70
    32
  0
VERTEX
  8
0
  5
38BC
 10
719.973
 20
109.503
 30
-1.82000e-14
  70
    32
  0
VERTEX
  8
0
  5
38BD
 10
719.973
 20
109.503
 30
-1.82000e-14
  70
    32
  0
VERTEX
  8
0
  5
38BE
 10
719.973
 20
109.503
 30
-1.82000e-14
  70
    32
  0
VERTEX
  8
0
  5
38BF
 10
719.973
 20
109.503
 30
-1.82000e-14
  70
    32
  0
VERTEX
  8
0
  5
38C0
 10
719.973
 20
109.503
 30
-1.82000e-14
  70
    32
  0
VERTEX
  8
0
  5
38C1
 10
719.973
 20
109.503
 30
-1.82000e-14
  70
    32
  0
VERTEX
  8
0
  5
38C2
 10
719.973
 20
109.502
 30
-1.82000e-14
  70
    32
  0
VERTEX
  8
0
  5
38C3
 10
719.972
 20
109.502
 30
-1.82000e-14
  70
    32
  0
VERTEX
  8
0
  5
38C4
 10
719.972
 20
109.502
 30
-1.82000e-14
  70
    32
  0
VERTEX
  8
0
  5
38C5
 10
719.972
 20
109.502
 30
-1.82000e-14
  70
    32
  0
VERTEX
  8
0
  5
38C6
 10
719.972
 20
109.502
 30
-1.82000e-14
  70
    32
  0
VERTEX
  8
0
  5
38C7
 10
719.972
 20
109.502
 30
-1.82000e-14
  70
    32
  0
VERTEX
  8
0
  5
38C8
 10
719.972
 20
109.502
 30
-1.82000e-14
  70
    32
  0
VERTEX
  8
0
  5
38C9
 10
719.972
 20
109.501
 30
-1.82000e-14
  70
    32
  0
VERTEX
  8
0
  5
38CA
 10
719.971
 20
109.501
 30
-1.82000e-14
  70
    32
  0
VERTEX
  8
0
  5
38CB
 10
719.971
 20
109.501
 30
-1.82000e-14
  70
    32
  0
VERTEX
  8
0
  5
38CC
 10
719.971
 20
109.501
 30
-1.82000e-14
  70
    32
  0
VERTEX
  8
0
  5
38CD
 10
719.971
 20
109.500
 30
-1.82000e-14
  70
    32
  0
VERTEX
  8
0
  5
38CE
 10
719.971
 20
109.500
 30
-1.82000e-14
  70
    32
  0
VERTEX
  8
0
  5
38CF
 10
719.970
 20
109.500
 30
-1.82000e-14
  70
    32
  0
VERTEX
  8
0
  5
38D0
 10
719.970
 20
109.499
 30
-1.82000e-14
  70
    32
  0
VERTEX
  8
0
  5
38D1
 10
719.970
 20
109.499
 30
-1.82000e-14
  70
    32
  0
VERTEX
  8
0
  5
38D2
 10
719.969
 20
109.499
 30
-1.82000e-14
  70
    32
  0
VERTEX
  8
0
  5
38D3
 10
719.969
 20
109.498
 30
-1.82000e-14
  70
    32
  0
VERTEX
  8
0
  5
38D4
 10
719.969
 20
109.498
 30
-1.82000e-14
  70
    32
  0
VERTEX
  8
0
  5
38D5
 10
719.968
 20
109.498
 30
-1.82000e-14
  70
    32
  0
VERTEX
  8
0
  5
38D6
 10
719.968
 20
109.497
 30
-1.82000e-14
  70
    32
  0
VERTEX
  8
0
  5
38D7
 10
719.968
 20
109.497
 30
-1.82000e-14
  70
    32
  0
VERTEX
  8
0
  5
38D8
 10
719.967
 20
109.496
 30
-1.82000e-14
  70
    32
  0
VERTEX
  8
0
  5
38D9
 10
719.967
 20
109.496
 30
-1.82000e-14
  70
    32
  0
VERTEX
  8
0
  5
38DA
 10
719.967
 20
109.495
 30
-1.82000e-14
  70
    32
  0
VERTEX
  8
0
  5
38DB
 10
719.966
 20
109.495
 30
-1.82000e-14
  70
    32
  0
VERTEX
  8
0
  5
38DC
 10
719.966
 20
109.495
 30
-1.82000e-14
  70
    32
  0
VERTEX
  8
0
  5
38DD
 10
719.965
 20
109.494
 30
-1.82000e-14
  70
    32
  0
VERTEX
  8
0
  5
38DE
 10
719.965
 20
109.493
 30
-1.82000e-14
  70
    32
  0
VERTEX
  8
0
  5
38DF
 10
719.964
 20
109.493
 30
-1.82000e-14
  70
    32
  0
VERTEX
  8
0
  5
38E0
 10
719.964
 20
109.492
 30
-1.82000e-14
  70
    32
  0
VERTEX
  8
0
  5
38E1
 10
719.963
 20
109.492
 30
-1.82000e-14
  70
    32
  0
VERTEX
  8
0
  5
38E2
 10
719.963
 20
109.491
 30
-1.82000e-14
  70
    32
  0
VERTEX
  8
0
  5
38E3
 10
719.962
 20
109.491
 30
-1.82000e-14
  70
    32
  0
VERTEX
  8
0
  5
38E4
 10
719.962
 20
109.490
 30
-1.82000e-14
  70
    32
  0
VERTEX
  8
0
  5
38E5
 10
719.961
 20
109.489
 30
-1.82000e-14
  70
    32
  0
VERTEX
  8
0
  5
38E6
 10
719.961
 20
109.489
 30
-1.82000e-14
  70
    32
  0
VERTEX
  8
0
  5
38E7
 10
719.960
 20
109.488
 30
-1.82000e-14
  70
    32
  0
VERTEX
  8
0
  5
38E8
 10
719.960
 20
109.487
 30
-1.82000e-14
  70
    32
  0
VERTEX
  8
0
  5
38E9
 10
719.959
 20
109.487
 30
-1.82000e-14
  70
    32
  0
VERTEX
  8
0
  5
38EA
 10
719.958
 20
109.486
 30
-1.82000e-14
  70
    32
  0
VERTEX
  8
0
  5
38EB
 10
719.958
 20
109.485
 30
-1.82000e-14
  70
    32
  0
VERTEX
  8
0
  5
38EC
 10
719.957
 20
109.484
 30
-1.82000e-14
  70
    32
  0
VERTEX
  8
0
  5
38ED
 10
719.957
 20
109.484
 30
-1.82000e-14
  70
    32
  0
VERTEX
  8
0
  5
38EE
 10
719.956
 20
109.483
 30
-1.82000e-14
  70
    32
  0
VERTEX
  8
0
  5
38EF
 10
719.955
 20
109.482
 30
-1.82000e-14
  70
    32
  0
VERTEX
  8
0
  5
38F0
 10
719.954
 20
109.481
 30
-1.82000e-14
  70
    32
  0
VERTEX
  8
0
  5
38F1
 10
719.954
 20
109.480
 30
-1.82000e-14
  70
    32
  0
VERTEX
  8
0
  5
38F2
 10
719.953
 20
109.480
 30
-1.82000e-14
  70
    32
  0
VERTEX
  8
0
  5
38F3
 10
719.952
 20
109.479
 30
-1.82000e-14
  70
    32
  0
VERTEX
  8
0
  5
38F4
 10
719.952
 20
109.478
 30
-1.82000e-14
  70
    32
  0
VERTEX
  8
0
  5
38F5
 10
719.951
 20
109.477
 30
-1.82000e-14
  70
    32
  0
VERTEX
  8
0
  5
38F6
 10
719.950
 20
109.476
 30
-1.82000e-14
  70
    32
  0
VERTEX
  8
0
  5
38F7
 10
719.949
 20
109.475
 30
-1.82000e-14
  70
    32
  0
VERTEX
  8
0
  5
38F8
 10
719.948
 20
109.474
 30
-1.82000e-14
  70
    32
  0
VERTEX
  8
0
  5
38F9
 10
719.948
 20
109.473
 30
-1.82000e-14
  70
    32
  0
VERTEX
  8
0
  5
38FA
 10
719.947
 20
109.472
 30
-1.82000e-14
  70
    32
  0
VERTEX
  8
0
  5
38FB
 10
719.946
 20
109.471
 30
-1.82000e-14
  70
    32
  0
VERTEX
  8
0
  5
38FC
 10
719.945
 20
109.470
 30
-1.82000e-14
  70
    32
  0
VERTEX
  8
0
  5
38FD
 10
719.944
 20
109.469
 30
-1.82000e-14
  70
    32
  0
VERTEX
  8
0
  5
38FE
 10
719.943
 20
109.468
 30
-1.82000e-14
  70
    32
  0
VERTEX
  8
0
  5
38FF
 10
719.942
 20
109.467
 30
-1.82000e-14
  70
    32
  0
VERTEX
  8
0
  5
3900
 10
719.942
 20
109.466
 30
-1.82000e-14
  70
    32
  0
VERTEX
  8
0
  5
3901
 10
719.941
 20
109.465
 30
-1.82000e-14
  70
    32
  0
VERTEX
  8
0
  5
3902
 10
719.940
 20
109.464
 30
-1.82000e-14
  70
    32
  0
VERTEX
  8
0
  5
3903
 10
719.939
 20
109.463
 30
-1.82000e-14
  70
    32
  0
VERTEX
  8
0
  5
3904
 10
719.938
 20
109.462
 30
-1.82000e-14
  70
    32
  0
VERTEX
  8
0
  5
3905
 10
719.937
 20
109.461
 30
-1.82000e-14
  70
    32
  0
VERTEX
  8
0
  5
3906
 10
719.936
 20
109.460
 30
-1.82000e-14
  70
    32
  0
VERTEX
  8
0
  5
3907
 10
719.935
 20
109.458
 30
-1.82000e-14
  70
    32
  0
VERTEX
  8
0
  5
3908
 10
719.934
 20
109.457
 30
-1.82000e-14
  70
    32
  0
VERTEX
  8
0
  5
3909
 10
719.933
 20
109.456
 30
-1.82000e-14
  70
    32
  0
VERTEX
  8
0
  5
390A
 10
719.932
 20
109.455
 30
-1.82000e-14
  70
    32
  0
VERTEX
  8
0
  5
390B
 10
719.931
 20
109.454
 30
-1.82000e-14
  70
    32
  0
VERTEX
  8
0
  5
390C
 10
719.930
 20
109.452
 30
-1.82000e-14
  70
    32
  0
VERTEX
  8
0
  5
390D
 10
719.929
 20
109.451
 30
-1.82000e-14
  70
    32
  0
VERTEX
  8
0
  5
390E
 10
719.927
 20
109.450
 30
-1.82000e-14
  70
    32
  0
VERTEX
  8
0
  5
390F
 10
719.926
 20
109.448
 30
-1.82000e-14
  70
    32
  0
VERTEX
  8
0
  5
3910
 10
719.925
 20
109.447
 30
-1.82000e-14
  70
    32
  0
VERTEX
  8
0
  5
3911
 10
719.924
 20
109.446
 30
-1.82000e-14
  70
    32
  0
VERTEX
  8
0
  5
3912
 10
719.923
 20
109.445
 30
-1.82000e-14
  70
    32
  0
VERTEX
  8
0
  5
3913
 10
719.922
 20
109.443
 30
-1.82000e-14
  70
    32
  0
VERTEX
  8
0
  5
3914
 10
719.921
 20
109.442
 30
-1.82000e-14
  70
    32
  0
VERTEX
  8
0
  5
3915
 10
719.919
 20
109.440
 30
-1.82000e-14
  70
    32
  0
VERTEX
  8
0
  5
3916
 10
719.918
 20
109.439
 30
-1.82000e-14
  70
    32
  0
VERTEX
  8
0
  5
3917
 10
719.917
 20
109.438
 30
-1.82000e-14
  70
    32
  0
VERTEX
  8
0
  5
3918
 10
719.916
 20
109.436
 30
-1.82000e-14
  70
    32
  0
VERTEX
  8
0
  5
3919
 10
719.915
 20
109.435
 30
-1.82000e-14
  70
    32
  0
VERTEX
  8
0
  5
391A
 10
719.913
 20
109.433
 30
-1.82000e-14
  70
    32
  0
VERTEX
  8
0
  5
391B
 10
719.912
 20
109.432
 30
-1.82000e-14
  70
    32
  0
VERTEX
  8
0
  5
391C
 10
719.911
 20
109.430
 30
-1.82000e-14
  70
    32
  0
VERTEX
  8
0
  5
391D
 10
719.909
 20
109.429
 30
-1.82000e-14
  70
    32
  0
VERTEX
  8
0
  5
391E
 10
719.908
 20
109.427
 30
-1.82000e-14
  70
    32
  0
VERTEX
  8
0
  5
391F
 10
719.907
 20
109.426
 30
-1.82000e-14
  70
    32
  0
VERTEX
  8
0
  5
3920
 10
719.905
 20
109.424
 30
-1.82000e-14
  70
    32
  0
VERTEX
  8
0
  5
3921
 10
719.904
 20
109.422
 30
-1.82000e-14
  70
    32
  0
VERTEX
  8
0
  5
3922
 10
719.903
 20
109.421
 30
-1.82000e-14
  70
    32
  0
VERTEX
  8
0
  5
3923
 10
719.901
 20
109.419
 30
-1.82000e-14
  70
    32
  0
VERTEX
  8
0
  5
3924
 10
719.900
 20
109.418
 30
-1.82000e-14
  70
    32
  0
VERTEX
  8
0
  5
3925
 10
719.899
 20
109.416
 30
-1.82000e-14
  70
    32
  0
VERTEX
  8
0
  5
3926
 10
719.897
 20
109.414
 30
-1.82000e-14
  70
    32
  0
VERTEX
  8
0
  5
3927
 10
719.896
 20
109.413
 30
-1.82000e-14
  70
    32
  0
VERTEX
  8
0
  5
3928
 10
719.894
 20
109.411
 30
-1.82000e-14
  70
    32
  0
VERTEX
  8
0
  5
3929
 10
719.893
 20
109.409
 30
-1.82000e-14
  70
    32
  0
VERTEX
  8
0
  5
392A
 10
719.891
 20
109.408
 30
-1.82000e-14
  70
    32
  0
VERTEX
  8
0
  5
392B
 10
719.890
 20
109.406
 30
-1.82000e-14
  70
    32
  0
VERTEX
  8
0
  5
392C
 10
719.888
 20
109.404
 30
-1.82000e-14
  70
    32
  0
VERTEX
  8
0
  5
392D
 10
719.887
 20
109.402
 30
-1.82000e-14
  70
    32
  0
VERTEX
  8
0
  5
392E
 10
719.885
 20
109.401
 30
-1.82000e-14
  70
    32
  0
VERTEX
  8
0
  5
392F
 10
719.884
 20
109.399
 30
-1.82000e-14
  70
    32
  0
VERTEX
  8
0
  5
3930
 10
719.882
 20
109.397
 30
-1.82000e-14
  70
    32
  0
VERTEX
  8
0
  5
3931
 10
719.881
 20
109.395
 30
-1.82000e-14
  70
    32
  0
VERTEX
  8
0
  5
3932
 10
719.879
 20
109.393
 30
-1.82000e-14
  70
    32
  0
VERTEX
  8
0
  5
3933
 10
719.877
 20
109.391
 30
-1.82000e-14
  70
    32
  0
VERTEX
  8
0
  5
3934
 10
719.876
 20
109.389
 30
-1.82000e-14
  70
    32
  0
VERTEX
  8
0
  5
3935
 10
719.874
 20
109.388
 30
-1.82000e-14
  70
    32
  0
VERTEX
  8
0
  5
3936
 10
719.872
 20
109.386
 30
-1.82000e-14
  70
    32
  0
VERTEX
  8
0
  5
3937
 10
719.871
 20
109.384
 30
-1.82000e-14
  70
    32
  0
VERTEX
  8
0
  5
3938
 10
719.869
 20
109.382
 30
-1.82000e-14
  70
    32
  0
VERTEX
  8
0
  5
3939
 10
719.867
 20
109.380
 30
-1.81999e-14
  70
    32
  0
VERTEX
  8
0
  5
393A
 10
719.866
 20
109.378
 30
-1.81999e-14
  70
    32
  0
VERTEX
  8
0
  5
393B
 10
719.864
 20
109.376
 30
-1.81999e-14
  70
    32
  0
VERTEX
  8
0
  5
393C
 10
719.862
 20
109.374
 30
-1.81999e-14
  70
    32
  0
VERTEX
  8
0
  5
393D
 10
719.861
 20
109.372
 30
-1.81998e-14
  70
    32
  0
VERTEX
  8
0
  5
393E
 10
719.859
 20
109.370
 30
-1.81998e-14
  70
    32
  0
VERTEX
  8
0
  5
393F
 10
719.857
 20
109.368
 30
-1.81998e-14
  70
    32
  0
VERTEX
  8
0
  5
3940
 10
719.855
 20
109.366
 30
-1.81997e-14
  70
    32
  0
VERTEX
  8
0
  5
3941
 10
719.854
 20
109.364
 30
-1.81997e-14
  70
    32
  0
VERTEX
  8
0
  5
3942
 10
719.852
 20
109.361
 30
-1.81996e-14
  70
    32
  0
VERTEX
  8
0
  5
3943
 10
719.850
 20
109.359
 30
-1.81996e-14
  70
    32
  0
VERTEX
  8
0
  5
3944
 10
719.848
 20
109.357
 30
-1.81995e-14
  70
    32
  0
VERTEX
  8
0
  5
3945
 10
719.846
 20
109.355
 30
-1.81994e-14
  70
    32
  0
VERTEX
  8
0
  5
3946
 10
719.844
 20
109.353
 30
-1.81993e-14
  70
    32
  0
VERTEX
  8
0
  5
3947
 10
719.843
 20
109.351
 30
-1.81992e-14
  70
    32
  0
VERTEX
  8
0
  5
3948
 10
719.841
 20
109.349
 30
-1.81991e-14
  70
    32
  0
VERTEX
  8
0
  5
3949
 10
719.839
 20
109.346
 30
-1.81990e-14
  70
    32
  0
VERTEX
  8
0
  5
394A
 10
719.837
 20
109.344
 30
-1.81989e-14
  70
    32
  0
VERTEX
  8
0
  5
394B
 10
719.835
 20
109.342
 30
-1.81988e-14
  70
    32
  0
VERTEX
  8
0
  5
394C
 10
719.833
 20
109.340
 30
-1.81987e-14
  70
    32
  0
VERTEX
  8
0
  5
394D
 10
719.831
 20
109.337
 30
-1.81985e-14
  70
    32
  0
VERTEX
  8
0
  5
394E
 10
719.829
 20
109.335
 30
-1.81984e-14
  70
    32
  0
VERTEX
  8
0
  5
394F
 10
719.827
 20
109.333
 30
-1.81982e-14
  70
    32
  0
VERTEX
  8
0
  5
3950
 10
719.825
 20
109.330
 30
-1.81980e-14
  70
    32
  0
VERTEX
  8
0
  5
3951
 10
719.823
 20
109.328
 30
-1.81979e-14
  70
    32
  0
VERTEX
  8
0
  5
3952
 10
719.821
 20
109.326
 30
-1.81977e-14
  70
    32
  0
VERTEX
  8
0
  5
3953
 10
719.819
 20
109.323
 30
-1.81975e-14
  70
    32
  0
VERTEX
  8
0
  5
3954
 10
719.817
 20
109.321
 30
-1.81972e-14
  70
    32
  0
VERTEX
  8
0
  5
3955
 10
719.815
 20
109.319
 30
-1.81970e-14
  70
    32
  0
VERTEX
  8
0
  5
3956
 10
719.813
 20
109.316
 30
-1.81968e-14
  70
    32
  0
VERTEX
  8
0
  5
3957
 10
719.811
 20
109.314
 30
-1.81965e-14
  70
    32
  0
VERTEX
  8
0
  5
3958
 10
719.809
 20
109.311
 30
-1.81963e-14
  70
    32
  0
VERTEX
  8
0
  5
3959
 10
719.807
 20
109.309
 30
-1.81960e-14
  70
    32
  0
VERTEX
  8
0
  5
395A
 10
719.804
 20
109.306
 30
-1.81957e-14
  70
    32
  0
VERTEX
  8
0
  5
395B
 10
719.802
 20
109.304
 30
-1.81954e-14
  70
    32
  0
VERTEX
  8
0
  5
395C
 10
719.800
 20
109.301
 30
-1.81951e-14
  70
    32
  0
VERTEX
  8
0
  5
395D
 10
719.798
 20
109.299
 30
-1.81947e-14
  70
    32
  0
VERTEX
  8
0
  5
395E
 10
719.796
 20
109.296
 30
-1.81944e-14
  70
    32
  0
VERTEX
  8
0
  5
395F
 10
719.794
 20
109.294
 30
-1.81940e-14
  70
    32
  0
VERTEX
  8
0
  5
3960
 10
719.791
 20
109.291
 30
-1.81936e-14
  70
    32
  0
VERTEX
  8
0
  5
3961
 10
719.789
 20
109.289
 30
-1.81932e-14
  70
    32
  0
VERTEX
  8
0
  5
3962
 10
719.787
 20
109.286
 30
-1.81928e-14
  70
    32
  0
VERTEX
  8
0
  5
3963
 10
719.785
 20
109.284
 30
-1.81924e-14
  70
    32
  0
VERTEX
  8
0
  5
3964
 10
719.783
 20
109.281
 30
-1.81919e-14
  70
    32
  0
VERTEX
  8
0
  5
3965
 10
719.780
 20
109.278
 30
-1.81915e-14
  70
    32
  0
VERTEX
  8
0
  5
3966
 10
719.778
 20
109.276
 30
-1.81910e-14
  70
    32
  0
VERTEX
  8
0
  5
3967
 10
719.776
 20
109.273
 30
-1.81905e-14
  70
    32
  0
VERTEX
  8
0
  5
3968
 10
719.773
 20
109.270
 30
-1.81900e-14
  70
    32
  0
VERTEX
  8
0
  5
3969
 10
719.771
 20
109.268
 30
-1.81894e-14
  70
    32
  0
VERTEX
  8
0
  5
396A
 10
719.769
 20
109.265
 30
-1.81889e-14
  70
    32
  0
VERTEX
  8
0
  5
396B
 10
719.766
 20
109.262
 30
-1.81883e-14
  70
    32
  0
VERTEX
  8
0
  5
396C
 10
719.764
 20
109.259
 30
-1.81877e-14
  70
    32
  0
VERTEX
  8
0
  5
396D
 10
719.762
 20
109.257
 30
-1.81871e-14
  70
    32
  0
VERTEX
  8
0
  5
396E
 10
719.759
 20
109.254
 30
-1.81865e-14
  70
    32
  0
VERTEX
  8
0
  5
396F
 10
719.757
 20
109.251
 30
-1.81858e-14
  70
    32
  0
VERTEX
  8
0
  5
3970
 10
719.755
 20
109.248
 30
-1.81852e-14
  70
    32
  0
VERTEX
  8
0
  5
3971
 10
719.752
 20
109.246
 30
-1.81845e-14
  70
    32
  0
VERTEX
  8
0
  5
3972
 10
719.750
 20
109.243
 30
-1.81838e-14
  70
    32
  0
VERTEX
  8
0
  5
3973
 10
719.747
 20
109.240
 30
-1.81830e-14
  70
    32
  0
VERTEX
  8
0
  5
3974
 10
719.745
 20
109.237
 30
-1.81823e-14
  70
    32
  0
VERTEX
  8
0
  5
3975
 10
719.742
 20
109.234
 30
-1.81815e-14
  70
    32
  0
VERTEX
  8
0
  5
3976
 10
719.740
 20
109.231
 30
-1.81807e-14
  70
    32
  0
VERTEX
  8
0
  5
3977
 10
719.737
 20
109.228
 30
-1.81798e-14
  70
    32
  0
VERTEX
  8
0
  5
3978
 10
719.735
 20
109.225
 30
-1.81790e-14
  70
    32
  0
VERTEX
  8
0
  5
3979
 10
719.732
 20
109.223
 30
-1.81781e-14
  70
    32
  0
VERTEX
  8
0
  5
397A
 10
719.730
 20
109.220
 30
-1.81772e-14
  70
    32
  0
VERTEX
  8
0
  5
397B
 10
719.727
 20
109.217
 30
-1.81763e-14
  70
    32
  0
VERTEX
  8
0
  5
397C
 10
719.725
 20
109.214
 30
-1.81754e-14
  70
    32
  0
VERTEX
  8
0
  5
397D
 10
719.722
 20
109.211
 30
-1.81744e-14
  70
    32
  0
VERTEX
  8
0
  5
397E
 10
719.720
 20
109.208
 30
-1.81734e-14
  70
    32
  0
VERTEX
  8
0
  5
397F
 10
719.717
 20
109.205
 30
-1.81724e-14
  70
    32
  0
VERTEX
  8
0
  5
3980
 10
719.714
 20
109.202
 30
-1.81713e-14
  70
    32
  0
VERTEX
  8
0
  5
3981
 10
719.712
 20
109.199
 30
-1.81703e-14
  70
    32
  0
VERTEX
  8
0
  5
3982
 10
719.709
 20
109.196
 30
-1.81692e-14
  70
    32
  0
VERTEX
  8
0
  5
3983
 10
719.707
 20
109.193
 30
-1.81680e-14
  70
    32
  0
VERTEX
  8
0
  5
3984
 10
719.704
 20
109.189
 30
-1.81669e-14
  70
    32
  0
VERTEX
  8
0
  5
3985
 10
719.701
 20
109.186
 30
-1.81657e-14
  70
    32
  0
VERTEX
  8
0
  5
3986
 10
719.699
 20
109.183
 30
-1.81645e-14
  70
    32
  0
VERTEX
  8
0
  5
3987
 10
719.696
 20
109.180
 30
-1.81633e-14
  70
    32
  0
VERTEX
  8
0
  5
3988
 10
719.693
 20
109.177
 30
-1.81620e-14
  70
    32
  0
VERTEX
  8
0
  5
3989
 10
719.690
 20
109.174
 30
-1.81607e-14
  70
    32
  0
VERTEX
  8
0
  5
398A
 10
719.688
 20
109.171
 30
-1.81594e-14
  70
    32
  0
VERTEX
  8
0
  5
398B
 10
719.685
 20
109.168
 30
-1.81580e-14
  70
    32
  0
VERTEX
  8
0
  5
398C
 10
719.682
 20
109.164
 30
-1.81566e-14
  70
    32
  0
VERTEX
  8
0
  5
398D
 10
719.679
 20
109.161
 30
-1.81552e-14
  70
    32
  0
VERTEX
  8
0
  5
398E
 10
719.677
 20
109.158
 30
-1.81538e-14
  70
    32
  0
VERTEX
  8
0
  5
398F
 10
719.674
 20
109.155
 30
-1.81523e-14
  70
    32
  0
VERTEX
  8
0
  5
3990
 10
719.671
 20
109.151
 30
-1.81508e-14
  70
    32
  0
VERTEX
  8
0
  5
3991
 10
719.668
 20
109.148
 30
-1.81493e-14
  70
    32
  0
VERTEX
  8
0
  5
3992
 10
719.665
 20
109.145
 30
-1.81477e-14
  70
    32
  0
VERTEX
  8
0
  5
3993
 10
719.663
 20
109.142
 30
-1.81461e-14
  70
    32
  0
VERTEX
  8
0
  5
3994
 10
719.660
 20
109.138
 30
-1.81445e-14
  70
    32
  0
VERTEX
  8
0
  5
3995
 10
719.657
 20
109.135
 30
-1.81428e-14
  70
    32
  0
VERTEX
  8
0
  5
3996
 10
719.654
 20
109.132
 30
-1.81411e-14
  70
    32
  0
VERTEX
  8
0
  5
3997
 10
719.651
 20
109.128
 30
-1.81394e-14
  70
    32
  0
VERTEX
  8
0
  5
3998
 10
719.648
 20
109.125
 30
-1.81377e-14
  70
    32
  0
VERTEX
  8
0
  5
3999
 10
719.645
 20
109.122
 30
-1.81359e-14
  70
    32
  0
VERTEX
  8
0
  5
399A
 10
719.642
 20
109.118
 30
-1.81340e-14
  70
    32
  0
VERTEX
  8
0
  5
399B
 10
719.640
 20
109.115
 30
-1.81322e-14
  70
    32
  0
VERTEX
  8
0
  5
399C
 10
719.637
 20
109.111
 30
-1.81303e-14
  70
    32
  0
VERTEX
  8
0
  5
399D
 10
719.634
 20
109.108
 30
-1.81283e-14
  70
    32
  0
VERTEX
  8
0
  5
399E
 10
719.631
 20
109.104
 30
-1.81264e-14
  70
    32
  0
VERTEX
  8
0
  5
399F
 10
719.628
 20
109.101
 30
-1.81244e-14
  70
    32
  0
VERTEX
  8
0
  5
39A0
 10
719.625
 20
109.098
 30
-1.81223e-14
  70
    32
  0
VERTEX
  8
0
  5
39A1
 10
719.622
 20
109.094
 30
-1.81202e-14
  70
    32
  0
VERTEX
  8
0
  5
39A2
 10
719.619
 20
109.091
 30
-1.81181e-14
  70
    32
  0
VERTEX
  8
0
  5
39A3
 10
719.616
 20
109.087
 30
-1.81160e-14
  70
    32
  0
VERTEX
  8
0
  5
39A4
 10
719.613
 20
109.084
 30
-1.81140e-14
  70
    32
  0
VERTEX
  8
0
  5
39A5
 10
719.610
 20
109.080
 30
-1.81122e-14
  70
    32
  0
VERTEX
  8
0
  5
39A6
 10
719.607
 20
109.076
 30
-1.81105e-14
  70
    32
  0
VERTEX
  8
0
  5
39A7
 10
719.603
 20
109.073
 30
-1.81090e-14
  70
    32
  0
VERTEX
  8
0
  5
39A8
 10
719.600
 20
109.069
 30
-1.81077e-14
  70
    32
  0
VERTEX
  8
0
  5
39A9
 10
719.597
 20
109.066
 30
-1.81065e-14
  70
    32
  0
VERTEX
  8
0
  5
39AA
 10
719.594
 20
109.062
 30
-1.81054e-14
  70
    32
  0
VERTEX
  8
0
  5
39AB
 10
719.591
 20
109.059
 30
-1.81044e-14
  70
    32
  0
VERTEX
  8
0
  5
39AC
 10
719.588
 20
109.055
 30
-1.81036e-14
  70
    32
  0
VERTEX
  8
0
  5
39AD
 10
719.585
 20
109.051
 30
-1.81029e-14
  70
    32
  0
VERTEX
  8
0
  5
39AE
 10
719.582
 20
109.048
 30
-1.81023e-14
  70
    32
  0
VERTEX
  8
0
  5
39AF
 10
719.578
 20
109.044
 30
-1.81017e-14
  70
    32
  0
VERTEX
  8
0
  5
39B0
 10
719.575
 20
109.040
 30
-1.81013e-14
  70
    32
  0
VERTEX
  8
0
  5
39B1
 10
719.572
 20
109.037
 30
-1.81010e-14
  70
    32
  0
VERTEX
  8
0
  5
39B2
 10
719.569
 20
109.033
 30
-1.81007e-14
  70
    32
  0
VERTEX
  8
0
  5
39B3
 10
719.566
 20
109.029
 30
-1.81005e-14
  70
    32
  0
VERTEX
  8
0
  5
39B4
 10
719.562
 20
109.025
 30
-1.81003e-14
  70
    32
  0
VERTEX
  8
0
  5
39B5
 10
719.559
 20
109.022
 30
-1.81002e-14
  70
    32
  0
VERTEX
  8
0
  5
39B6
 10
719.556
 20
109.018
 30
-1.81001e-14
  70
    32
  0
VERTEX
  8
0
  5
39B7
 10
719.553
 20
109.014
 30
-1.81000e-14
  70
    32
  0
VERTEX
  8
0
  5
39B8
 10
719.549
 20
109.010
 30
-1.81000e-14
  70
    32
  0
VERTEX
  8
0
  5
39B9
 10
719.546
 20
109.007
 30
-1.81000e-14
  70
    32
  0
VERTEX
  8
0
  5
39BA
 10
719.543
 20
109.003
 30
-1.81000e-14
  70
    32
  0
SEQEND
  8
0
  5
39BB
  0
POLYLINE
  8
0
  5
39BC
  66
     1
 10
0.000000
 20
0.000000
 30
0.000000
  70
     8
  0
VERTEX
  8
0
  5
39BD
 10
773.473
 20
109.503
 30
-1.82000e-14
  70
    32
  0
VERTEX
  8
0
  5
39BE
 10
773.484
 20
109.503
 30
-1.82000e-14
  70
    32
  0
VERTEX
  8
0
  5
39BF
 10
773.494
 20
109.503
 30
-1.82000e-14
  70
    32
  0
VERTEX
  8
0
  5
39C0
 10
773.505
 20
109.503
 30
-1.82000e-14
  70
    32
  0
VERTEX
  8
0
  5
39C1
 10
773.516
 20
109.503
 30
-1.82000e-14
  70
    32
  0
VERTEX
  8
0
  5
39C2
 10
773.527
 20
109.503
 30
-1.82000e-14
  70
    32
  0
VERTEX
  8
0
  5
39C3
 10
773.537
 20
109.503
 30
-1.82000e-14
  70
    32
  0
VERTEX
  8
0
  5
39C4
 10
773.548
 20
109.502
 30
-1.82000e-14
  70
    32
  0
VERTEX
  8
0
  5
39C5
 10
773.559
 20
109.502
 30
-1.82000e-14
  70
    32
  0
VERTEX
  8
0
  5
39C6
 10
773.570
 20
109.502
 30
-1.82000e-14
  70
    32
  0
VERTEX
  8
0
  5
39C7
 10
773.580
 20
109.502
 30
-1.82000e-14
  70
    32
  0
VERTEX
  8
0
  5
39C8
 10
773.591
 20
109.502
 30
-1.82000e-14
  70
    32
  0
VERTEX
  8
0
  5
39C9
 10
773.602
 20
109.502
 30
-1.82000e-14
  70
    32
  0
VERTEX
  8
0
  5
39CA
 10
773.613
 20
109.502
 30
-1.82000e-14
  70
    32
  0
VERTEX
  8
0
  5
39CB
 10
773.623
 20
109.501
 30
-1.82000e-14
  70
    32
  0
VERTEX
  8
0
  5
39CC
 10
773.634
 20
109.501
 30
-1.82000e-14
  70
    32
  0
VERTEX
  8
0
  5
39CD
 10
773.645
 20
109.501
 30
-1.82000e-14
  70
    32
  0
VERTEX
  8
0
  5
39CE
 10
773.656
 20
109.501
 30
-1.82000e-14
  70
    32
  0
VERTEX
  8
0
  5
39CF
 10
773.667
 20
109.500
 30
-1.82000e-14
  70
    32
  0
VERTEX
  8
0
  5
39D0
 10
773.678
 20
109.500
 30
-1.82000e-14
  70
    32
  0
VERTEX
  8
0
  5
39D1
 10
773.688
 20
109.500
 30
-1.82000e-14
  70
    32
  0
VERTEX
  8
0
  5
39D2
 10
773.699
 20
109.499
 30
-1.82000e-14
  70
    32
  0
VERTEX
  8
0
  5
39D3
 10
773.710
 20
109.499
 30
-1.82000e-14
  70
    32
  0
VERTEX
  8
0
  5
39D4
 10
773.721
 20
109.499
 30
-1.82000e-14
  70
    32
  0
VERTEX
  8
0
  5
39D5
 10
773.732
 20
109.498
 30
-1.82000e-14
  70
    32
  0
VERTEX
  8
0
  5
39D6
 10
773.742
 20
109.498
 30
-1.82000e-14
  70
    32
  0
VERTEX
  8
0
  5
39D7
 10
773.753
 20
109.498
 30
-1.82000e-14
  70
    32
  0
VERTEX
  8
0
  5
39D8
 10
773.764
 20
109.497
 30
-1.82000e-14
  70
    32
  0
VERTEX
  8
0
  5
39D9
 10
773.775
 20
109.497
 30
-1.82000e-14
  70
    32
  0
VERTEX
  8
0
  5
39DA
 10
773.786
 20
109.496
 30
-1.82000e-14
  70
    32
  0
VERTEX
  8
0
  5
39DB
 10
773.797
 20
109.496
 30
-1.82000e-14
  70
    32
  0
VERTEX
  8
0
  5
39DC
 10
773.808
 20
109.495
 30
-1.82000e-14
  70
    32
  0
VERTEX
  8
0
  5
39DD
 10
773.818
 20
109.495
 30
-1.82000e-14
  70
    32
  0
VERTEX
  8
0
  5
39DE
 10
773.829
 20
109.495
 30
-1.82000e-14
  70
    32
  0
VERTEX
  8
0
  5
39DF
 10
773.840
 20
109.494
 30
-1.82000e-14
  70
    32
  0
VERTEX
  8
0
  5
39E0
 10
773.851
 20
109.493
 30
-1.82000e-14
  70
    32
  0
VERTEX
  8
0
  5
39E1
 10
773.862
 20
109.493
 30
-1.82000e-14
  70
    32
  0
VERTEX
  8
0
  5
39E2
 10
773.873
 20
109.492
 30
-1.82000e-14
  70
    32
  0
VERTEX
  8
0
  5
39E3
 10
773.884
 20
109.492
 30
-1.82000e-14
  70
    32
  0
VERTEX
  8
0
  5
39E4
 10
773.894
 20
109.491
 30
-1.82000e-14
  70
    32
  0
VERTEX
  8
0
  5
39E5
 10
773.905
 20
109.491
 30
-1.82000e-14
  70
    32
  0
VERTEX
  8
0
  5
39E6
 10
773.916
 20
109.490
 30
-1.82000e-14
  70
    32
  0
VERTEX
  8
0
  5
39E7
 10
773.927
 20
109.489
 30
-1.82000e-14
  70
    32
  0
VERTEX
  8
0
  5
39E8
 10
773.938
 20
109.489
 30
-1.82000e-14
  70
    32
  0
VERTEX
  8
0
  5
39E9
 10
773.949
 20
109.488
 30
-1.82000e-14
  70
    32
  0
VERTEX
  8
0
  5
39EA
 10
773.960
 20
109.487
 30
-1.82000e-14
  70
    32
  0
VERTEX
  8
0
  5
39EB
 10
773.971
 20
109.487
 30
-1.82000e-14
  70
    32
  0
VERTEX
  8
0
  5
39EC
 10
773.982
 20
109.486
 30
-1.82000e-14
  70
    32
  0
VERTEX
  8
0
  5
39ED
 10
773.993
 20
109.485
 30
-1.82000e-14
  70
    32
  0
VERTEX
  8
0
  5
39EE
 10
774.003
 20
109.484
 30
-1.82000e-14
  70
    32
  0
VERTEX
  8
0
  5
39EF
 10
774.014
 20
109.484
 30
-1.82000e-14
  70
    32
  0
VERTEX
  8
0
  5
39F0
 10
774.025
 20
109.483
 30
-1.82000e-14
  70
    32
  0
VERTEX
  8
0
  5
39F1
 10
774.036
 20
109.482
 30
-1.82000e-14
  70
    32
  0
VERTEX
  8
0
  5
39F2
 10
774.047
 20
109.481
 30
-1.82000e-14
  70
    32
  0
VERTEX
  8
0
  5
39F3
 10
774.058
 20
109.480
 30
-1.82000e-14
  70
    32
  0
VERTEX
  8
0
  5
39F4
 10
774.069
 20
109.480
 30
-1.82000e-14
  70
    32
  0
VERTEX
  8
0
  5
39F5
 10
774.080
 20
109.479
 30
-1.82000e-14
  70
    32
  0
VERTEX
  8
0
  5
39F6
 10
774.091
 20
109.478
 30
-1.82000e-14
  70
    32
  0
VERTEX
  8
0
  5
39F7
 10
774.102
 20
109.477
 30
-1.82000e-14
  70
    32
  0
VERTEX
  8
0
  5
39F8
 10
774.113
 20
109.476
 30
-1.82000e-14
  70
    32
  0
VERTEX
  8
0
  5
39F9
 10
774.124
 20
109.475
 30
-1.82000e-14
  70
    32
  0
VERTEX
  8
0
  5
39FA
 10
774.135
 20
109.474
 30
-1.82000e-14
  70
    32
  0
VERTEX
  8
0
  5
39FB
 10
774.145
 20
109.473
 30
-1.82000e-14
  70
    32
  0
VERTEX
  8
0
  5
39FC
 10
774.156
 20
109.472
 30
-1.82000e-14
  70
    32
  0
VERTEX
  8
0
  5
39FD
 10
774.167
 20
109.471
 30
-1.82000e-14
  70
    32
  0
VERTEX
  8
0
  5
39FE
 10
774.178
 20
109.470
 30
-1.82000e-14
  70
    32
  0
VERTEX
  8
0
  5
39FF
 10
774.189
 20
109.469
 30
-1.82000e-14
  70
    32
  0
VERTEX
  8
0
  5
3A00
 10
774.200
 20
109.468
 30
-1.82000e-14
  70
    32
  0
VERTEX
  8
0
  5
3A01
 10
774.211
 20
109.467
 30
-1.82000e-14
  70
    32
  0
VERTEX
  8
0
  5
3A02
 10
774.222
 20
109.466
 30
-1.82000e-14
  70
    32
  0
VERTEX
  8
0
  5
3A03
 10
774.233
 20
109.465
 30
-1.82000e-14
  70
    32
  0
VERTEX
  8
0
  5
3A04
 10
774.244
 20
109.464
 30
-1.82000e-14
  70
    32
  0
VERTEX
  8
0
  5
3A05
 10
774.255
 20
109.463
 30
-1.82000e-14
  70
    32
  0
VERTEX
  8
0
  5
3A06
 10
774.266
 20
109.462
 30
-1.82000e-14
  70
    32
  0
VERTEX
  8
0
  5
3A07
 10
774.277
 20
109.461
 30
-1.82000e-14
  70
    32
  0
VERTEX
  8
0
  5
3A08
 10
774.288
 20
109.460
 30
-1.82000e-14
  70
    32
  0
VERTEX
  8
0
  5
3A09
 10
774.299
 20
109.458
 30
-1.82000e-14
  70
    32
  0
VERTEX
  8
0
  5
3A0A
 10
774.310
 20
109.457
 30
-1.82000e-14
  70
    32
  0
VERTEX
  8
0
  5
3A0B
 10
774.321
 20
109.456
 30
-1.82000e-14
  70
    32
  0
VERTEX
  8
0
  5
3A0C
 10
774.332
 20
109.455
 30
-1.82000e-14
  70
    32
  0
VERTEX
  8
0
  5
3A0D
 10
774.343
 20
109.454
 30
-1.82000e-14
  70
    32
  0
VERTEX
  8
0
  5
3A0E
 10
774.354
 20
109.452
 30
-1.82000e-14
  70
    32
  0
VERTEX
  8
0
  5
3A0F
 10
774.365
 20
109.451
 30
-1.82000e-14
  70
    32
  0
VERTEX
  8
0
  5
3A10
 10
774.375
 20
109.450
 30
-1.82000e-14
  70
    32
  0
VERTEX
  8
0
  5
3A11
 10
774.386
 20
109.448
 30
-1.82000e-14
  70
    32
  0
VERTEX
  8
0
  5
3A12
 10
774.397
 20
109.447
 30
-1.82000e-14
  70
    32
  0
VERTEX
  8
0
  5
3A13
 10
774.408
 20
109.446
 30
-1.82000e-14
  70
    32
  0
VERTEX
  8
0
  5
3A14
 10
774.419
 20
109.445
 30
-1.82000e-14
  70
    32
  0
VERTEX
  8
0
  5
3A15
 10
774.430
 20
109.443
 30
-1.82000e-14
  70
    32
  0
VERTEX
  8
0
  5
3A16
 10
774.441
 20
109.442
 30
-1.82000e-14
  70
    32
  0
VERTEX
  8
0
  5
3A17
 10
774.452
 20
109.440
 30
-1.82000e-14
  70
    32
  0
VERTEX
  8
0
  5
3A18
 10
774.463
 20
109.439
 30
-1.82000e-14
  70
    32
  0
VERTEX
  8
0
  5
3A19
 10
774.474
 20
109.438
 30
-1.82000e-14
  70
    32
  0
VERTEX
  8
0
  5
3A1A
 10
774.485
 20
109.436
 30
-1.82000e-14
  70
    32
  0
VERTEX
  8
0
  5
3A1B
 10
774.496
 20
109.435
 30
-1.82000e-14
  70
    32
  0
VERTEX
  8
0
  5
3A1C
 10
774.507
 20
109.433
 30
-1.82000e-14
  70
    32
  0
VERTEX
  8
0
  5
3A1D
 10
774.518
 20
109.432
 30
-1.82000e-14
  70
    32
  0
VERTEX
  8
0
  5
3A1E
 10
774.529
 20
109.430
 30
-1.82000e-14
  70
    32
  0
VERTEX
  8
0
  5
3A1F
 10
774.540
 20
109.429
 30
-1.82000e-14
  70
    32
  0
VERTEX
  8
0
  5
3A20
 10
774.551
 20
109.427
 30
-1.82000e-14
  70
    32
  0
VERTEX
  8
0
  5
3A21
 10
774.562
 20
109.426
 30
-1.82000e-14
  70
    32
  0
VERTEX
  8
0
  5
3A22
 10
774.573
 20
109.424
 30
-1.82000e-14
  70
    32
  0
VERTEX
  8
0
  5
3A23
 10
774.584
 20
109.422
 30
-1.82000e-14
  70
    32
  0
VERTEX
  8
0
  5
3A24
 10
774.595
 20
109.421
 30
-1.82000e-14
  70
    32
  0
VERTEX
  8
0
  5
3A25
 10
774.606
 20
109.419
 30
-1.82000e-14
  70
    32
  0
VERTEX
  8
0
  5
3A26
 10
774.617
 20
109.418
 30
-1.82000e-14
  70
    32
  0
VERTEX
  8
0
  5
3A27
 10
774.628
 20
109.416
 30
-1.82000e-14
  70
    32
  0
VERTEX
  8
0
  5
3A28
 10
774.639
 20
109.414
 30
-1.82000e-14
  70
    32
  0
VERTEX
  8
0
  5
3A29
 10
774.649
 20
109.413
 30
-1.82000e-14
  70
    32
  0
VERTEX
  8
0
  5
3A2A
 10
774.660
 20
109.411
 30
-1.82000e-14
  70
    32
  0
VERTEX
  8
0
  5
3A2B
 10
774.671
 20
109.409
 30
-1.82000e-14
  70
    32
  0
VERTEX
  8
0
  5
3A2C
 10
774.682
 20
109.408
 30
-1.82000e-14
  70
    32
  0
VERTEX
  8
0
  5
3A2D
 10
774.693
 20
109.406
 30
-1.82000e-14
  70
    32
  0
VERTEX
  8
0
  5
3A2E
 10
774.704
 20
109.404
 30
-1.82000e-14
  70
    32
  0
VERTEX
  8
0
  5
3A2F
 10
774.715
 20
109.402
 30
-1.82000e-14
  70
    32
  0
VERTEX
  8
0
  5
3A30
 10
774.726
 20
109.401
 30
-1.82000e-14
  70
    32
  0
VERTEX
  8
0
  5
3A31
 10
774.737
 20
109.399
 30
-1.82000e-14
  70
    32
  0
VERTEX
  8
0
  5
3A32
 10
774.748
 20
109.397
 30
-1.82000e-14
  70
    32
  0
VERTEX
  8
0
  5
3A33
 10
774.759
 20
109.395
 30
-1.82000e-14
  70
    32
  0
VERTEX
  8
0
  5
3A34
 10
774.770
 20
109.393
 30
-1.82000e-14
  70
    32
  0
VERTEX
  8
0
  5
3A35
 10
774.781
 20
109.391
 30
-1.82000e-14
  70
    32
  0
VERTEX
  8
0
  5
3A36
 10
774.792
 20
109.389
 30
-1.82000e-14
  70
    32
  0
VERTEX
  8
0
  5
3A37
 10
774.803
 20
109.388
 30
-1.82000e-14
  70
    32
  0
VERTEX
  8
0
  5
3A38
 10
774.814
 20
109.386
 30
-1.82000e-14
  70
    32
  0
VERTEX
  8
0
  5
3A39
 10
774.825
 20
109.384
 30
-1.82000e-14
  70
    32
  0
VERTEX
  8
0
  5
3A3A
 10
774.835
 20
109.382
 30
-1.82000e-14
  70
    32
  0
VERTEX
  8
0
  5
3A3B
 10
774.846
 20
109.380
 30
-1.81999e-14
  70
    32
  0
VERTEX
  8
0
  5
3A3C
 10
774.857
 20
109.378
 30
-1.81999e-14
  70
    32
  0
VERTEX
  8
0
  5
3A3D
 10
774.868
 20
109.376
 30
-1.81999e-14
  70
    32
  0
VERTEX
  8
0
  5
3A3E
 10
774.879
 20
109.374
 30
-1.81999e-14
  70
    32
  0
VERTEX
  8
0
  5
3A3F
 10
774.890
 20
109.372
 30
-1.81998e-14
  70
    32
  0
VERTEX
  8
0
  5
3A40
 10
774.901
 20
109.370
 30
-1.81998e-14
  70
    32
  0
VERTEX
  8
0
  5
3A41
 10
774.912
 20
109.368
 30
-1.81998e-14
  70
    32
  0
VERTEX
  8
0
  5
3A42
 10
774.923
 20
109.366
 30
-1.81997e-14
  70
    32
  0
VERTEX
  8
0
  5
3A43
 10
774.934
 20
109.364
 30
-1.81997e-14
  70
    32
  0
VERTEX
  8
0
  5
3A44
 10
774.945
 20
109.361
 30
-1.81996e-14
  70
    32
  0
VERTEX
  8
0
  5
3A45
 10
774.956
 20
109.359
 30
-1.81996e-14
  70
    32
  0
VERTEX
  8
0
  5
3A46
 10
774.966
 20
109.357
 30
-1.81995e-14
  70
    32
  0
VERTEX
  8
0
  5
3A47
 10
774.977
 20
109.355
 30
-1.81994e-14
  70
    32
  0
VERTEX
  8
0
  5
3A48
 10
774.988
 20
109.353
 30
-1.81993e-14
  70
    32
  0
VERTEX
  8
0
  5
3A49
 10
774.999
 20
109.351
 30
-1.81992e-14
  70
    32
  0
VERTEX
  8
0
  5
3A4A
 10
775.010
 20
109.349
 30
-1.81991e-14
  70
    32
  0
VERTEX
  8
0
  5
3A4B
 10
775.021
 20
109.346
 30
-1.81990e-14
  70
    32
  0
VERTEX
  8
0
  5
3A4C
 10
775.032
 20
109.344
 30
-1.81989e-14
  70
    32
  0
VERTEX
  8
0
  5
3A4D
 10
775.043
 20
109.342
 30
-1.81988e-14
  70
    32
  0
VERTEX
  8
0
  5
3A4E
 10
775.054
 20
109.340
 30
-1.81987e-14
  70
    32
  0
VERTEX
  8
0
  5
3A4F
 10
775.064
 20
109.337
 30
-1.81985e-14
  70
    32
  0
VERTEX
  8
0
  5
3A50
 10
775.075
 20
109.335
 30
-1.81984e-14
  70
    32
  0
VERTEX
  8
0
  5
3A51
 10
775.086
 20
109.333
 30
-1.81982e-14
  70
    32
  0
VERTEX
  8
0
  5
3A52
 10
775.097
 20
109.330
 30
-1.81980e-14
  70
    32
  0
VERTEX
  8
0
  5
3A53
 10
775.108
 20
109.328
 30
-1.81979e-14
  70
    32
  0
VERTEX
  8
0
  5
3A54
 10
775.119
 20
109.326
 30
-1.81977e-14
  70
    32
  0
VERTEX
  8
0
  5
3A55
 10
775.130
 20
109.323
 30
-1.81975e-14
  70
    32
  0
VERTEX
  8
0
  5
3A56
 10
775.141
 20
109.321
 30
-1.81972e-14
  70
    32
  0
VERTEX
  8
0
  5
3A57
 10
775.151
 20
109.319
 30
-1.81970e-14
  70
    32
  0
VERTEX
  8
0
  5
3A58
 10
775.162
 20
109.316
 30
-1.81968e-14
  70
    32
  0
VERTEX
  8
0
  5
3A59
 10
775.173
 20
109.314
 30
-1.81965e-14
  70
    32
  0
VERTEX
  8
0
  5
3A5A
 10
775.184
 20
109.311
 30
-1.81963e-14
  70
    32
  0
VERTEX
  8
0
  5
3A5B
 10
775.195
 20
109.309
 30
-1.81960e-14
  70
    32
  0
VERTEX
  8
0
  5
3A5C
 10
775.206
 20
109.306
 30
-1.81957e-14
  70
    32
  0
VERTEX
  8
0
  5
3A5D
 10
775.216
 20
109.304
 30
-1.81954e-14
  70
    32
  0
VERTEX
  8
0
  5
3A5E
 10
775.227
 20
109.301
 30
-1.81951e-14
  70
    32
  0
VERTEX
  8
0
  5
3A5F
 10
775.238
 20
109.299
 30
-1.81947e-14
  70
    32
  0
VERTEX
  8
0
  5
3A60
 10
775.249
 20
109.296
 30
-1.81944e-14
  70
    32
  0
VERTEX
  8
0
  5
3A61
 10
775.260
 20
109.294
 30
-1.81940e-14
  70
    32
  0
VERTEX
  8
0
  5
3A62
 10
775.271
 20
109.291
 30
-1.81936e-14
  70
    32
  0
VERTEX
  8
0
  5
3A63
 10
775.281
 20
109.289
 30
-1.81932e-14
  70
    32
  0
VERTEX
  8
0
  5
3A64
 10
775.292
 20
109.286
 30
-1.81928e-14
  70
    32
  0
VERTEX
  8
0
  5
3A65
 10
775.303
 20
109.284
 30
-1.81924e-14
  70
    32
  0
VERTEX
  8
0
  5
3A66
 10
775.314
 20
109.281
 30
-1.81919e-14
  70
    32
  0
VERTEX
  8
0
  5
3A67
 10
775.325
 20
109.278
 30
-1.81915e-14
  70
    32
  0
VERTEX
  8
0
  5
3A68
 10
775.335
 20
109.276
 30
-1.81910e-14
  70
    32
  0
VERTEX
  8
0
  5
3A69
 10
775.346
 20
109.273
 30
-1.81905e-14
  70
    32
  0
VERTEX
  8
0
  5
3A6A
 10
775.357
 20
109.270
 30
-1.81900e-14
  70
    32
  0
VERTEX
  8
0
  5
3A6B
 10
775.368
 20
109.268
 30
-1.81894e-14
  70
    32
  0
VERTEX
  8
0
  5
3A6C
 10
775.378
 20
109.265
 30
-1.81889e-14
  70
    32
  0
VERTEX
  8
0
  5
3A6D
 10
775.389
 20
109.262
 30
-1.81883e-14
  70
    32
  0
VERTEX
  8
0
  5
3A6E
 10
775.400
 20
109.259
 30
-1.81877e-14
  70
    32
  0
VERTEX
  8
0
  5
3A6F
 10
775.411
 20
109.257
 30
-1.81871e-14
  70
    32
  0
VERTEX
  8
0
  5
3A70
 10
775.421
 20
109.254
 30
-1.81865e-14
  70
    32
  0
VERTEX
  8
0
  5
3A71
 10
775.432
 20
109.251
 30
-1.81858e-14
  70
    32
  0
VERTEX
  8
0
  5
3A72
 10
775.443
 20
109.248
 30
-1.81852e-14
  70
    32
  0
VERTEX
  8
0
  5
3A73
 10
775.454
 20
109.246
 30
-1.81845e-14
  70
    32
  0
VERTEX
  8
0
  5
3A74
 10
775.464
 20
109.243
 30
-1.81838e-14
  70
    32
  0
VERTEX
  8
0
  5
3A75
 10
775.475
 20
109.240
 30
-1.81830e-14
  70
    32
  0
VERTEX
  8
0
  5
3A76
 10
775.486
 20
109.237
 30
-1.81823e-14
  70
    32
  0
VERTEX
  8
0
  5
3A77
 10
775.497
 20
109.234
 30
-1.81815e-14
  70
    32
  0
VERTEX
  8
0
  5
3A78
 10
775.507
 20
109.231
 30
-1.81807e-14
  70
    32
  0
VERTEX
  8
0
  5
3A79
 10
775.518
 20
109.228
 30
-1.81798e-14
  70
    32
  0
VERTEX
  8
0
  5
3A7A
 10
775.529
 20
109.225
 30
-1.81790e-14
  70
    32
  0
VERTEX
  8
0
  5
3A7B
 10
775.539
 20
109.223
 30
-1.81781e-14
  70
    32
  0
VERTEX
  8
0
  5
3A7C
 10
775.550
 20
109.220
 30
-1.81772e-14
  70
    32
  0
VERTEX
  8
0
  5
3A7D
 10
775.561
 20
109.217
 30
-1.81763e-14
  70
    32
  0
VERTEX
  8
0
  5
3A7E
 10
775.572
 20
109.214
 30
-1.81754e-14
  70
    32
  0
VERTEX
  8
0
  5
3A7F
 10
775.582
 20
109.211
 30
-1.81744e-14
  70
    32
  0
VERTEX
  8
0
  5
3A80
 10
775.593
 20
109.208
 30
-1.81734e-14
  70
    32
  0
VERTEX
  8
0
  5
3A81
 10
775.604
 20
109.205
 30
-1.81724e-14
  70
    32
  0
VERTEX
  8
0
  5
3A82
 10
775.614
 20
109.202
 30
-1.81713e-14
  70
    32
  0
VERTEX
  8
0
  5
3A83
 10
775.625
 20
109.199
 30
-1.81703e-14
  70
    32
  0
VERTEX
  8
0
  5
3A84
 10
775.635
 20
109.196
 30
-1.81692e-14
  70
    32
  0
VERTEX
  8
0
  5
3A85
 10
775.646
 20
109.193
 30
-1.81680e-14
  70
    32
  0
VERTEX
  8
0
  5
3A86
 10
775.657
 20
109.189
 30
-1.81669e-14
  70
    32
  0
VERTEX
  8
0
  5
3A87
 10
775.667
 20
109.186
 30
-1.81657e-14
  70
    32
  0
VERTEX
  8
0
  5
3A88
 10
775.678
 20
109.183
 30
-1.81645e-14
  70
    32
  0
VERTEX
  8
0
  5
3A89
 10
775.689
 20
109.180
 30
-1.81633e-14
  70
    32
  0
VERTEX
  8
0
  5
3A8A
 10
775.699
 20
109.177
 30
-1.81620e-14
  70
    32
  0
VERTEX
  8
0
  5
3A8B
 10
775.710
 20
109.174
 30
-1.81607e-14
  70
    32
  0
VERTEX
  8
0
  5
3A8C
 10
775.720
 20
109.171
 30
-1.81594e-14
  70
    32
  0
VERTEX
  8
0
  5
3A8D
 10
775.731
 20
109.168
 30
-1.81580e-14
  70
    32
  0
VERTEX
  8
0
  5
3A8E
 10
775.742
 20
109.164
 30
-1.81566e-14
  70
    32
  0
VERTEX
  8
0
  5
3A8F
 10
775.752
 20
109.161
 30
-1.81552e-14
  70
    32
  0
VERTEX
  8
0
  5
3A90
 10
775.763
 20
109.158
 30
-1.81538e-14
  70
    32
  0
VERTEX
  8
0
  5
3A91
 10
775.773
 20
109.155
 30
-1.81523e-14
  70
    32
  0
VERTEX
  8
0
  5
3A92
 10
775.784
 20
109.151
 30
-1.81508e-14
  70
    32
  0
VERTEX
  8
0
  5
3A93
 10
775.795
 20
109.148
 30
-1.81493e-14
  70
    32
  0
VERTEX
  8
0
  5
3A94
 10
775.805
 20
109.145
 30
-1.81477e-14
  70
    32
  0
VERTEX
  8
0
  5
3A95
 10
775.816
 20
109.142
 30
-1.81461e-14
  70
    32
  0
VERTEX
  8
0
  5
3A96
 10
775.826
 20
109.138
 30
-1.81445e-14
  70
    32
  0
VERTEX
  8
0
  5
3A97
 10
775.837
 20
109.135
 30
-1.81428e-14
  70
    32
  0
VERTEX
  8
0
  5
3A98
 10
775.847
 20
109.132
 30
-1.81411e-14
  70
    32
  0
VERTEX
  8
0
  5
3A99
 10
775.858
 20
109.128
 30
-1.81394e-14
  70
    32
  0
VERTEX
  8
0
  5
3A9A
 10
775.868
 20
109.125
 30
-1.81377e-14
  70
    32
  0
VERTEX
  8
0
  5
3A9B
 10
775.879
 20
109.122
 30
-1.81359e-14
  70
    32
  0
VERTEX
  8
0
  5
3A9C
 10
775.889
 20
109.118
 30
-1.81340e-14
  70
    32
  0
VERTEX
  8
0
  5
3A9D
 10
775.900
 20
109.115
 30
-1.81322e-14
  70
    32
  0
VERTEX
  8
0
  5
3A9E
 10
775.910
 20
109.111
 30
-1.81303e-14
  70
    32
  0
VERTEX
  8
0
  5
3A9F
 10
775.921
 20
109.108
 30
-1.81283e-14
  70
    32
  0
VERTEX
  8
0
  5
3AA0
 10
775.931
 20
109.104
 30
-1.81264e-14
  70
    32
  0
VERTEX
  8
0
  5
3AA1
 10
775.942
 20
109.101
 30
-1.81244e-14
  70
    32
  0
VERTEX
  8
0
  5
3AA2
 10
775.952
 20
109.098
 30
-1.81223e-14
  70
    32
  0
VERTEX
  8
0
  5
3AA3
 10
775.963
 20
109.094
 30
-1.81202e-14
  70
    32
  0
VERTEX
  8
0
  5
3AA4
 10
775.973
 20
109.091
 30
-1.81181e-14
  70
    32
  0
VERTEX
  8
0
  5
3AA5
 10
775.983
 20
109.087
 30
-1.81160e-14
  70
    32
  0
VERTEX
  8
0
  5
3AA6
 10
775.994
 20
109.084
 30
-1.81140e-14
  70
    32
  0
VERTEX
  8
0
  5
3AA7
 10
776.004
 20
109.080
 30
-1.81122e-14
  70
    32
  0
VERTEX
  8
0
  5
3AA8
 10
776.015
 20
109.076
 30
-1.81105e-14
  70
    32
  0
VERTEX
  8
0
  5
3AA9
 10
776.025
 20
109.073
 30
-1.81090e-14
  70
    32
  0
VERTEX
  8
0
  5
3AAA
 10
776.036
 20
109.069
 30
-1.81077e-14
  70
    32
  0
VERTEX
  8
0
  5
3AAB
 10
776.046
 20
109.066
 30
-1.81065e-14
  70
    32
  0
VERTEX
  8
0
  5
3AAC
 10
776.056
 20
109.062
 30
-1.81054e-14
  70
    32
  0
VERTEX
  8
0
  5
3AAD
 10
776.067
 20
109.059
 30
-1.81044e-14
  70
    32
  0
VERTEX
  8
0
  5
3AAE
 10
776.077
 20
109.055
 30
-1.81036e-14
  70
    32
  0
VERTEX
  8
0
  5
3AAF
 10
776.087
 20
109.051
 30
-1.81029e-14
  70
    32
  0
VERTEX
  8
0
  5
3AB0
 10
776.098
 20
109.048
 30
-1.81023e-14
  70
    32
  0
VERTEX
  8
0
  5
3AB1
 10
776.108
 20
109.044
 30
-1.81017e-14
  70
    32
  0
VERTEX
  8
0
  5
3AB2
 10
776.119
 20
109.040
 30
-1.81013e-14
  70
    32
  0
VERTEX
  8
0
  5
3AB3
 10
776.129
 20
109.037
 30
-1.81010e-14
  70
    32
  0
VERTEX
  8
0
  5
3AB4
 10
776.139
 20
109.033
 30
-1.81007e-14
  70
    32
  0
VERTEX
  8
0
  5
3AB5
 10
776.150
 20
109.029
 30
-1.81005e-14
  70
    32
  0
VERTEX
  8
0
  5
3AB6
 10
776.160
 20
109.025
 30
-1.81003e-14
  70
    32
  0
VERTEX
  8
0
  5
3AB7
 10
776.170
 20
109.022
 30
-1.81002e-14
  70
    32
  0
VERTEX
  8
0
  5
3AB8
 10
776.180
 20
109.018
 30
-1.81001e-14
  70
    32
  0
VERTEX
  8
0
  5
3AB9
 10
776.191
 20
109.014
 30
-1.81000e-14
  70
    32
  0
VERTEX
  8
0
  5
3ABA
 10
776.201
 20
109.010
 30
-1.81000e-14
  70
    32
  0
VERTEX
  8
0
  5
3ABB
 10
776.211
 20
109.007
 30
-1.81000e-14
  70
    32
  0
VERTEX
  8
0
  5
3ABC
 10
776.222
 20
109.003
 30
-1.81000e-14
  70
    32
  0
SEQEND
  8
0
  5
3ABD
  0
POLYLINE
  8
0
  5
3ABE
  66
     1
 10
0.000000
 20
0.000000
 30
0.000000
  70
     8
  0
VERTEX
  8
0
  5
3ABF
 10
770.724
 20
109.003
 30
-1.81000e-14
  70
    32
  0
VERTEX
  8
0
  5
3AC0
 10
770.735
 20
109.007
 30
-1.81000e-14
  70
    32
  0
VERTEX
  8
0
  5
3AC1
 10
770.745
 20
109.010
 30
-1.81000e-14
  70
    32
  0
VERTEX
  8
0
  5
3AC2
 10
770.755
 20
109.014
 30
-1.81000e-14
  70
    32
  0
VERTEX
  8
0
  5
3AC3
 10
770.765
 20
109.018
 30
-1.81001e-14
  70
    32
  0
VERTEX
  8
0
  5
3AC4
 10
770.776
 20
109.022
 30
-1.81002e-14
  70
    32
  0
VERTEX
  8
0
  5
3AC5
 10
770.786
 20
109.025
 30
-1.81003e-14
  70
    32
  0
VERTEX
  8
0
  5
3AC6
 10
770.796
 20
109.029
 30
-1.81005e-14
  70
    32
  0
VERTEX
  8
0
  5
3AC7
 10
770.807
 20
109.033
 30
-1.81007e-14
  70
    32
  0
VERTEX
  8
0
  5
3AC8
 10
770.817
 20
109.037
 30
-1.81010e-14
  70
    32
  0
VERTEX
  8
0
  5
3AC9
 10
770.827
 20
109.040
 30
-1.81013e-14
  70
    32
  0
VERTEX
  8
0
  5
3ACA
 10
770.838
 20
109.044
 30
-1.81017e-14
  70
    32
  0
VERTEX
  8
0
  5
3ACB
 10
770.848
 20
109.048
 30
-1.81023e-14
  70
    32
  0
VERTEX
  8
0
  5
3ACC
 10
770.858
 20
109.051
 30
-1.81029e-14
  70
    32
  0
VERTEX
  8
0
  5
3ACD
 10
770.869
 20
109.055
 30
-1.81036e-14
  70
    32
  0
VERTEX
  8
0
  5
3ACE
 10
770.879
 20
109.059
 30
-1.81044e-14
  70
    32
  0
VERTEX
  8
0
  5
3ACF
 10
770.889
 20
109.062
 30
-1.81054e-14
  70
    32
  0
VERTEX
  8
0
  5
3AD0
 10
770.900
 20
109.066
 30
-1.81065e-14
  70
    32
  0
VERTEX
  8
0
  5
3AD1
 10
770.910
 20
109.069
 30
-1.81077e-14
  70
    32
  0
VERTEX
  8
0
  5
3AD2
 10
770.921
 20
109.073
 30
-1.81090e-14
  70
    32
  0
VERTEX
  8
0
  5
3AD3
 10
770.931
 20
109.076
 30
-1.81105e-14
  70
    32
  0
VERTEX
  8
0
  5
3AD4
 10
770.941
 20
109.080
 30
-1.81122e-14
  70
    32
  0
VERTEX
  8
0
  5
3AD5
 10
770.952
 20
109.084
 30
-1.81140e-14
  70
    32
  0
VERTEX
  8
0
  5
3AD6
 10
770.962
 20
109.087
 30
-1.81160e-14
  70
    32
  0
VERTEX
  8
0
  5
3AD7
 10
770.973
 20
109.091
 30
-1.81181e-14
  70
    32
  0
VERTEX
  8
0
  5
3AD8
 10
770.983
 20
109.094
 30
-1.81202e-14
  70
    32
  0
VERTEX
  8
0
  5
3AD9
 10
770.994
 20
109.098
 30
-1.81223e-14
  70
    32
  0
VERTEX
  8
0
  5
3ADA
 10
771.004
 20
109.101
 30
-1.81244e-14
  70
    32
  0
VERTEX
  8
0
  5
3ADB
 10
771.015
 20
109.104
 30
-1.81264e-14
  70
    32
  0
VERTEX
  8
0
  5
3ADC
 10
771.025
 20
109.108
 30
-1.81283e-14
  70
    32
  0
VERTEX
  8
0
  5
3ADD
 10
771.036
 20
109.111
 30
-1.81303e-14
  70
    32
  0
VERTEX
  8
0
  5
3ADE
 10
771.046
 20
109.115
 30
-1.81322e-14
  70
    32
  0
VERTEX
  8
0
  5
3ADF
 10
771.057
 20
109.118
 30
-1.81340e-14
  70
    32
  0
VERTEX
  8
0
  5
3AE0
 10
771.067
 20
109.122
 30
-1.81359e-14
  70
    32
  0
VERTEX
  8
0
  5
3AE1
 10
771.078
 20
109.125
 30
-1.81377e-14
  70
    32
  0
VERTEX
  8
0
  5
3AE2
 10
771.088
 20
109.128
 30
-1.81394e-14
  70
    32
  0
VERTEX
  8
0
  5
3AE3
 10
771.099
 20
109.132
 30
-1.81411e-14
  70
    32
  0
VERTEX
  8
0
  5
3AE4
 10
771.109
 20
109.135
 30
-1.81428e-14
  70
    32
  0
VERTEX
  8
0
  5
3AE5
 10
771.120
 20
109.138
 30
-1.81445e-14
  70
    32
  0
VERTEX
  8
0
  5
3AE6
 10
771.130
 20
109.142
 30
-1.81461e-14
  70
    32
  0
VERTEX
  8
0
  5
3AE7
 10
771.141
 20
109.145
 30
-1.81477e-14
  70
    32
  0
VERTEX
  8
0
  5
3AE8
 10
771.151
 20
109.148
 30
-1.81493e-14
  70
    32
  0
VERTEX
  8
0
  5
3AE9
 10
771.162
 20
109.151
 30
-1.81508e-14
  70
    32
  0
VERTEX
  8
0
  5
3AEA
 10
771.172
 20
109.155
 30
-1.81523e-14
  70
    32
  0
VERTEX
  8
0
  5
3AEB
 10
771.183
 20
109.158
 30
-1.81538e-14
  70
    32
  0
VERTEX
  8
0
  5
3AEC
 10
771.194
 20
109.161
 30
-1.81552e-14
  70
    32
  0
VERTEX
  8
0
  5
3AED
 10
771.204
 20
109.164
 30
-1.81566e-14
  70
    32
  0
VERTEX
  8
0
  5
3AEE
 10
771.215
 20
109.168
 30
-1.81580e-14
  70
    32
  0
VERTEX
  8
0
  5
3AEF
 10
771.225
 20
109.171
 30
-1.81594e-14
  70
    32
  0
VERTEX
  8
0
  5
3AF0
 10
771.236
 20
109.174
 30
-1.81607e-14
  70
    32
  0
VERTEX
  8
0
  5
3AF1
 10
771.247
 20
109.177
 30
-1.81620e-14
  70
    32
  0
VERTEX
  8
0
  5
3AF2
 10
771.257
 20
109.180
 30
-1.81633e-14
  70
    32
  0
VERTEX
  8
0
  5
3AF3
 10
771.268
 20
109.183
 30
-1.81645e-14
  70
    32
  0
VERTEX
  8
0
  5
3AF4
 10
771.278
 20
109.186
 30
-1.81657e-14
  70
    32
  0
VERTEX
  8
0
  5
3AF5
 10
771.289
 20
109.189
 30
-1.81669e-14
  70
    32
  0
VERTEX
  8
0
  5
3AF6
 10
771.300
 20
109.193
 30
-1.81680e-14
  70
    32
  0
VERTEX
  8
0
  5
3AF7
 10
771.310
 20
109.196
 30
-1.81692e-14
  70
    32
  0
VERTEX
  8
0
  5
3AF8
 10
771.321
 20
109.199
 30
-1.81703e-14
  70
    32
  0
VERTEX
  8
0
  5
3AF9
 10
771.332
 20
109.202
 30
-1.81713e-14
  70
    32
  0
VERTEX
  8
0
  5
3AFA
 10
771.342
 20
109.205
 30
-1.81724e-14
  70
    32
  0
VERTEX
  8
0
  5
3AFB
 10
771.353
 20
109.208
 30
-1.81734e-14
  70
    32
  0
VERTEX
  8
0
  5
3AFC
 10
771.364
 20
109.211
 30
-1.81744e-14
  70
    32
  0
VERTEX
  8
0
  5
3AFD
 10
771.374
 20
109.214
 30
-1.81754e-14
  70
    32
  0
VERTEX
  8
0
  5
3AFE
 10
771.385
 20
109.217
 30
-1.81763e-14
  70
    32
  0
VERTEX
  8
0
  5
3AFF
 10
771.396
 20
109.220
 30
-1.81772e-14
  70
    32
  0
VERTEX
  8
0
  5
3B00
 10
771.406
 20
109.223
 30
-1.81781e-14
  70
    32
  0
VERTEX
  8
0
  5
3B01
 10
771.417
 20
109.225
 30
-1.81790e-14
  70
    32
  0
VERTEX
  8
0
  5
3B02
 10
771.428
 20
109.228
 30
-1.81798e-14
  70
    32
  0
VERTEX
  8
0
  5
3B03
 10
771.439
 20
109.231
 30
-1.81807e-14
  70
    32
  0
VERTEX
  8
0
  5
3B04
 10
771.449
 20
109.234
 30
-1.81815e-14
  70
    32
  0
VERTEX
  8
0
  5
3B05
 10
771.460
 20
109.237
 30
-1.81823e-14
  70
    32
  0
VERTEX
  8
0
  5
3B06
 10
771.471
 20
109.240
 30
-1.81830e-14
  70
    32
  0
VERTEX
  8
0
  5
3B07
 10
771.481
 20
109.243
 30
-1.81838e-14
  70
    32
  0
VERTEX
  8
0
  5
3B08
 10
771.492
 20
109.246
 30
-1.81845e-14
  70
    32
  0
VERTEX
  8
0
  5
3B09
 10
771.503
 20
109.248
 30
-1.81852e-14
  70
    32
  0
VERTEX
  8
0
  5
3B0A
 10
771.514
 20
109.251
 30
-1.81858e-14
  70
    32
  0
VERTEX
  8
0
  5
3B0B
 10
771.524
 20
109.254
 30
-1.81865e-14
  70
    32
  0
VERTEX
  8
0
  5
3B0C
 10
771.535
 20
109.257
 30
-1.81871e-14
  70
    32
  0
VERTEX
  8
0
  5
3B0D
 10
771.546
 20
109.259
 30
-1.81877e-14
  70
    32
  0
VERTEX
  8
0
  5
3B0E
 10
771.557
 20
109.262
 30
-1.81883e-14
  70
    32
  0
VERTEX
  8
0
  5
3B0F
 10
771.567
 20
109.265
 30
-1.81889e-14
  70
    32
  0
VERTEX
  8
0
  5
3B10
 10
771.578
 20
109.268
 30
-1.81894e-14
  70
    32
  0
VERTEX
  8
0
  5
3B11
 10
771.589
 20
109.270
 30
-1.81900e-14
  70
    32
  0
VERTEX
  8
0
  5
3B12
 10
771.600
 20
109.273
 30
-1.81905e-14
  70
    32
  0
VERTEX
  8
0
  5
3B13
 10
771.611
 20
109.276
 30
-1.81910e-14
  70
    32
  0
VERTEX
  8
0
  5
3B14
 10
771.621
 20
109.278
 30
-1.81915e-14
  70
    32
  0
VERTEX
  8
0
  5
3B15
 10
771.632
 20
109.281
 30
-1.81919e-14
  70
    32
  0
VERTEX
  8
0
  5
3B16
 10
771.643
 20
109.284
 30
-1.81924e-14
  70
    32
  0
VERTEX
  8
0
  5
3B17
 10
771.654
 20
109.286
 30
-1.81928e-14
  70
    32
  0
VERTEX
  8
0
  5
3B18
 10
771.664
 20
109.289
 30
-1.81932e-14
  70
    32
  0
VERTEX
  8
0
  5
3B19
 10
771.675
 20
109.291
 30
-1.81936e-14
  70
    32
  0
VERTEX
  8
0
  5
3B1A
 10
771.686
 20
109.294
 30
-1.81940e-14
  70
    32
  0
VERTEX
  8
0
  5
3B1B
 10
771.697
 20
109.296
 30
-1.81944e-14
  70
    32
  0
VERTEX
  8
0
  5
3B1C
 10
771.708
 20
109.299
 30
-1.81947e-14
  70
    32
  0
VERTEX
  8
0
  5
3B1D
 10
771.719
 20
109.301
 30
-1.81951e-14
  70
    32
  0
VERTEX
  8
0
  5
3B1E
 10
771.729
 20
109.304
 30
-1.81954e-14
  70
    32
  0
VERTEX
  8
0
  5
3B1F
 10
771.740
 20
109.306
 30
-1.81957e-14
  70
    32
  0
VERTEX
  8
0
  5
3B20
 10
771.751
 20
109.309
 30
-1.81960e-14
  70
    32
  0
VERTEX
  8
0
  5
3B21
 10
771.762
 20
109.311
 30
-1.81963e-14
  70
    32
  0
VERTEX
  8
0
  5
3B22
 10
771.773
 20
109.314
 30
-1.81965e-14
  70
    32
  0
VERTEX
  8
0
  5
3B23
 10
771.784
 20
109.316
 30
-1.81968e-14
  70
    32
  0
VERTEX
  8
0
  5
3B24
 10
771.794
 20
109.319
 30
-1.81970e-14
  70
    32
  0
VERTEX
  8
0
  5
3B25
 10
771.805
 20
109.321
 30
-1.81972e-14
  70
    32
  0
VERTEX
  8
0
  5
3B26
 10
771.816
 20
109.323
 30
-1.81975e-14
  70
    32
  0
VERTEX
  8
0
  5
3B27
 10
771.827
 20
109.326
 30
-1.81977e-14
  70
    32
  0
VERTEX
  8
0
  5
3B28
 10
771.838
 20
109.328
 30
-1.81979e-14
  70
    32
  0
VERTEX
  8
0
  5
3B29
 10
771.849
 20
109.330
 30
-1.81980e-14
  70
    32
  0
VERTEX
  8
0
  5
3B2A
 10
771.860
 20
109.333
 30
-1.81982e-14
  70
    32
  0
VERTEX
  8
0
  5
3B2B
 10
771.870
 20
109.335
 30
-1.81984e-14
  70
    32
  0
VERTEX
  8
0
  5
3B2C
 10
771.881
 20
109.337
 30
-1.81985e-14
  70
    32
  0
VERTEX
  8
0
  5
3B2D
 10
771.892
 20
109.340
 30
-1.81987e-14
  70
    32
  0
VERTEX
  8
0
  5
3B2E
 10
771.903
 20
109.342
 30
-1.81988e-14
  70
    32
  0
VERTEX
  8
0
  5
3B2F
 10
771.914
 20
109.344
 30
-1.81989e-14
  70
    32
  0
VERTEX
  8
0
  5
3B30
 10
771.925
 20
109.346
 30
-1.81990e-14
  70
    32
  0
VERTEX
  8
0
  5
3B31
 10
771.936
 20
109.349
 30
-1.81991e-14
  70
    32
  0
VERTEX
  8
0
  5
3B32
 10
771.947
 20
109.351
 30
-1.81992e-14
  70
    32
  0
VERTEX
  8
0
  5
3B33
 10
771.958
 20
109.353
 30
-1.81993e-14
  70
    32
  0
VERTEX
  8
0
  5
3B34
 10
771.968
 20
109.355
 30
-1.81994e-14
  70
    32
  0
VERTEX
  8
0
  5
3B35
 10
771.979
 20
109.357
 30
-1.81995e-14
  70
    32
  0
VERTEX
  8
0
  5
3B36
 10
771.990
 20
109.359
 30
-1.81996e-14
  70
    32
  0
VERTEX
  8
0
  5
3B37
 10
772.001
 20
109.361
 30
-1.81996e-14
  70
    32
  0
VERTEX
  8
0
  5
3B38
 10
772.012
 20
109.364
 30
-1.81997e-14
  70
    32
  0
VERTEX
  8
0
  5
3B39
 10
772.023
 20
109.366
 30
-1.81997e-14
  70
    32
  0
VERTEX
  8
0
  5
3B3A
 10
772.034
 20
109.368
 30
-1.81998e-14
  70
    32
  0
VERTEX
  8
0
  5
3B3B
 10
772.045
 20
109.370
 30
-1.81998e-14
  70
    32
  0
VERTEX
  8
0
  5
3B3C
 10
772.056
 20
109.372
 30
-1.81998e-14
  70
    32
  0
VERTEX
  8
0
  5
3B3D
 10
772.067
 20
109.374
 30
-1.81999e-14
  70
    32
  0
VERTEX
  8
0
  5
3B3E
 10
772.078
 20
109.376
 30
-1.81999e-14
  70
    32
  0
VERTEX
  8
0
  5
3B3F
 10
772.089
 20
109.378
 30
-1.81999e-14
  70
    32
  0
VERTEX
  8
0
  5
3B40
 10
772.099
 20
109.380
 30
-1.81999e-14
  70
    32
  0
VERTEX
  8
0
  5
3B41
 10
772.110
 20
109.382
 30
-1.82000e-14
  70
    32
  0
VERTEX
  8
0
  5
3B42
 10
772.121
 20
109.384
 30
-1.82000e-14
  70
    32
  0
VERTEX
  8
0
  5
3B43
 10
772.132
 20
109.386
 30
-1.82000e-14
  70
    32
  0
VERTEX
  8
0
  5
3B44
 10
772.143
 20
109.388
 30
-1.82000e-14
  70
    32
  0
VERTEX
  8
0
  5
3B45
 10
772.154
 20
109.389
 30
-1.82000e-14
  70
    32
  0
VERTEX
  8
0
  5
3B46
 10
772.165
 20
109.391
 30
-1.82000e-14
  70
    32
  0
VERTEX
  8
0
  5
3B47
 10
772.176
 20
109.393
 30
-1.82000e-14
  70
    32
  0
VERTEX
  8
0
  5
3B48
 10
772.187
 20
109.395
 30
-1.82000e-14
  70
    32
  0
VERTEX
  8
0
  5
3B49
 10
772.198
 20
109.397
 30
-1.82000e-14
  70
    32
  0
VERTEX
  8
0
  5
3B4A
 10
772.209
 20
109.399
 30
-1.82000e-14
  70
    32
  0
VERTEX
  8
0
  5
3B4B
 10
772.220
 20
109.401
 30
-1.82000e-14
  70
    32
  0
VERTEX
  8
0
  5
3B4C
 10
772.231
 20
109.402
 30
-1.82000e-14
  70
    32
  0
VERTEX
  8
0
  5
3B4D
 10
772.242
 20
109.404
 30
-1.82000e-14
  70
    32
  0
VERTEX
  8
0
  5
3B4E
 10
772.253
 20
109.406
 30
-1.82000e-14
  70
    32
  0
VERTEX
  8
0
  5
3B4F
 10
772.264
 20
109.408
 30
-1.82000e-14
  70
    32
  0
VERTEX
  8
0
  5
3B50
 10
772.274
 20
109.409
 30
-1.82000e-14
  70
    32
  0
VERTEX
  8
0
  5
3B51
 10
772.285
 20
109.411
 30
-1.82000e-14
  70
    32
  0
VERTEX
  8
0
  5
3B52
 10
772.296
 20
109.413
 30
-1.82000e-14
  70
    32
  0
VERTEX
  8
0
  5
3B53
 10
772.307
 20
109.414
 30
-1.82000e-14
  70
    32
  0
VERTEX
  8
0
  5
3B54
 10
772.318
 20
109.416
 30
-1.82000e-14
  70
    32
  0
VERTEX
  8
0
  5
3B55
 10
772.329
 20
109.418
 30
-1.82000e-14
  70
    32
  0
VERTEX
  8
0
  5
3B56
 10
772.340
 20
109.419
 30
-1.82000e-14
  70
    32
  0
VERTEX
  8
0
  5
3B57
 10
772.351
 20
109.421
 30
-1.82000e-14
  70
    32
  0
VERTEX
  8
0
  5
3B58
 10
772.362
 20
109.422
 30
-1.82000e-14
  70
    32
  0
VERTEX
  8
0
  5
3B59
 10
772.373
 20
109.424
 30
-1.82000e-14
  70
    32
  0
VERTEX
  8
0
  5
3B5A
 10
772.384
 20
109.426
 30
-1.82000e-14
  70
    32
  0
VERTEX
  8
0
  5
3B5B
 10
772.395
 20
109.427
 30
-1.82000e-14
  70
    32
  0
VERTEX
  8
0
  5
3B5C
 10
772.406
 20
109.429
 30
-1.82000e-14
  70
    32
  0
VERTEX
  8
0
  5
3B5D
 10
772.417
 20
109.430
 30
-1.82000e-14
  70
    32
  0
VERTEX
  8
0
  5
3B5E
 10
772.428
 20
109.432
 30
-1.82000e-14
  70
    32
  0
VERTEX
  8
0
  5
3B5F
 10
772.439
 20
109.433
 30
-1.82000e-14
  70
    32
  0
VERTEX
  8
0
  5
3B60
 10
772.450
 20
109.435
 30
-1.82000e-14
  70
    32
  0
VERTEX
  8
0
  5
3B61
 10
772.461
 20
109.436
 30
-1.82000e-14
  70
    32
  0
VERTEX
  8
0
  5
3B62
 10
772.472
 20
109.438
 30
-1.82000e-14
  70
    32
  0
VERTEX
  8
0
  5
3B63
 10
772.483
 20
109.439
 30
-1.82000e-14
  70
    32
  0
VERTEX
  8
0
  5
3B64
 10
772.494
 20
109.440
 30
-1.82000e-14
  70
    32
  0
VERTEX
  8
0
  5
3B65
 10
772.505
 20
109.442
 30
-1.82000e-14
  70
    32
  0
VERTEX
  8
0
  5
3B66
 10
772.516
 20
109.443
 30
-1.82000e-14
  70
    32
  0
VERTEX
  8
0
  5
3B67
 10
772.527
 20
109.445
 30
-1.82000e-14
  70
    32
  0
VERTEX
  8
0
  5
3B68
 10
772.537
 20
109.446
 30
-1.82000e-14
  70
    32
  0
VERTEX
  8
0
  5
3B69
 10
772.548
 20
109.447
 30
-1.82000e-14
  70
    32
  0
VERTEX
  8
0
  5
3B6A
 10
772.559
 20
109.448
 30
-1.82000e-14
  70
    32
  0
VERTEX
  8
0
  5
3B6B
 10
772.570
 20
109.450
 30
-1.82000e-14
  70
    32
  0
VERTEX
  8
0
  5
3B6C
 10
772.581
 20
109.451
 30
-1.82000e-14
  70
    32
  0
VERTEX
  8
0
  5
3B6D
 10
772.592
 20
109.452
 30
-1.82000e-14
  70
    32
  0
VERTEX
  8
0
  5
3B6E
 10
772.603
 20
109.454
 30
-1.82000e-14
  70
    32
  0
VERTEX
  8
0
  5
3B6F
 10
772.614
 20
109.455
 30
-1.82000e-14
  70
    32
  0
VERTEX
  8
0
  5
3B70
 10
772.625
 20
109.456
 30
-1.82000e-14
  70
    32
  0
VERTEX
  8
0
  5
3B71
 10
772.636
 20
109.457
 30
-1.82000e-14
  70
    32
  0
VERTEX
  8
0
  5
3B72
 10
772.647
 20
109.458
 30
-1.82000e-14
  70
    32
  0
VERTEX
  8
0
  5
3B73
 10
772.658
 20
109.460
 30
-1.82000e-14
  70
    32
  0
VERTEX
  8
0
  5
3B74
 10
772.669
 20
109.461
 30
-1.82000e-14
  70
    32
  0
VERTEX
  8
0
  5
3B75
 10
772.680
 20
109.462
 30
-1.82000e-14
  70
    32
  0
VERTEX
  8
0
  5
3B76
 10
772.691
 20
109.463
 30
-1.82000e-14
  70
    32
  0
VERTEX
  8
0
  5
3B77
 10
772.702
 20
109.464
 30
-1.82000e-14
  70
    32
  0
VERTEX
  8
0
  5
3B78
 10
772.713
 20
109.465
 30
-1.82000e-14
  70
    32
  0
VERTEX
  8
0
  5
3B79
 10
772.724
 20
109.466
 30
-1.82000e-14
  70
    32
  0
VERTEX
  8
0
  5
3B7A
 10
772.735
 20
109.467
 30
-1.82000e-14
  70
    32
  0
VERTEX
  8
0
  5
3B7B
 10
772.746
 20
109.468
 30
-1.82000e-14
  70
    32
  0
VERTEX
  8
0
  5
3B7C
 10
772.757
 20
109.469
 30
-1.82000e-14
  70
    32
  0
VERTEX
  8
0
  5
3B7D
 10
772.768
 20
109.470
 30
-1.82000e-14
  70
    32
  0
VERTEX
  8
0
  5
3B7E
 10
772.778
 20
109.471
 30
-1.82000e-14
  70
    32
  0
VERTEX
  8
0
  5
3B7F
 10
772.789
 20
109.472
 30
-1.82000e-14
  70
    32
  0
VERTEX
  8
0
  5
3B80
 10
772.800
 20
109.473
 30
-1.82000e-14
  70
    32
  0
VERTEX
  8
0
  5
3B81
 10
772.811
 20
109.474
 30
-1.82000e-14
  70
    32
  0
VERTEX
  8
0
  5
3B82
 10
772.822
 20
109.475
 30
-1.82000e-14
  70
    32
  0
VERTEX
  8
0
  5
3B83
 10
772.833
 20
109.476
 30
-1.82000e-14
  70
    32
  0
VERTEX
  8
0
  5
3B84
 10
772.844
 20
109.477
 30
-1.82000e-14
  70
    32
  0
VERTEX
  8
0
  5
3B85
 10
772.855
 20
109.478
 30
-1.82000e-14
  70
    32
  0
VERTEX
  8
0
  5
3B86
 10
772.866
 20
109.479
 30
-1.82000e-14
  70
    32
  0
VERTEX
  8
0
  5
3B87
 10
772.877
 20
109.480
 30
-1.82000e-14
  70
    32
  0
VERTEX
  8
0
  5
3B88
 10
772.888
 20
109.480
 30
-1.82000e-14
  70
    32
  0
VERTEX
  8
0
  5
3B89
 10
772.899
 20
109.481
 30
-1.82000e-14
  70
    32
  0
VERTEX
  8
0
  5
3B8A
 10
772.910
 20
109.482
 30
-1.82000e-14
  70
    32
  0
VERTEX
  8
0
  5
3B8B
 10
772.921
 20
109.483
 30
-1.82000e-14
  70
    32
  0
VERTEX
  8
0
  5
3B8C
 10
772.931
 20
109.484
 30
-1.82000e-14
  70
    32
  0
VERTEX
  8
0
  5
3B8D
 10
772.942
 20
109.484
 30
-1.82000e-14
  70
    32
  0
VERTEX
  8
0
  5
3B8E
 10
772.953
 20
109.485
 30
-1.82000e-14
  70
    32
  0
VERTEX
  8
0
  5
3B8F
 10
772.964
 20
109.486
 30
-1.82000e-14
  70
    32
  0
VERTEX
  8
0
  5
3B90
 10
772.975
 20
109.487
 30
-1.82000e-14
  70
    32
  0
VERTEX
  8
0
  5
3B91
 10
772.986
 20
109.487
 30
-1.82000e-14
  70
    32
  0
VERTEX
  8
0
  5
3B92
 10
772.997
 20
109.488
 30
-1.82000e-14
  70
    32
  0
VERTEX
  8
0
  5
3B93
 10
773.008
 20
109.489
 30
-1.82000e-14
  70
    32
  0
VERTEX
  8
0
  5
3B94
 10
773.019
 20
109.489
 30
-1.82000e-14
  70
    32
  0
VERTEX
  8
0
  5
3B95
 10
773.030
 20
109.490
 30
-1.82000e-14
  70
    32
  0
VERTEX
  8
0
  5
3B96
 10
773.040
 20
109.491
 30
-1.82000e-14
  70
    32
  0
VERTEX
  8
0
  5
3B97
 10
773.051
 20
109.491
 30
-1.82000e-14
  70
    32
  0
VERTEX
  8
0
  5
3B98
 10
773.062
 20
109.492
 30
-1.82000e-14
  70
    32
  0
VERTEX
  8
0
  5
3B99
 10
773.073
 20
109.492
 30
-1.82000e-14
  70
    32
  0
VERTEX
  8
0
  5
3B9A
 10
773.084
 20
109.493
 30
-1.82000e-14
  70
    32
  0
VERTEX
  8
0
  5
3B9B
 10
773.095
 20
109.493
 30
-1.82000e-14
  70
    32
  0
VERTEX
  8
0
  5
3B9C
 10
773.106
 20
109.494
 30
-1.82000e-14
  70
    32
  0
VERTEX
  8
0
  5
3B9D
 10
773.117
 20
109.495
 30
-1.82000e-14
  70
    32
  0
VERTEX
  8
0
  5
3B9E
 10
773.127
 20
109.495
 30
-1.82000e-14
  70
    32
  0
VERTEX
  8
0
  5
3B9F
 10
773.138
 20
109.495
 30
-1.82000e-14
  70
    32
  0
VERTEX
  8
0
  5
3BA0
 10
773.149
 20
109.496
 30
-1.82000e-14
  70
    32
  0
VERTEX
  8
0
  5
3BA1
 10
773.160
 20
109.496
 30
-1.82000e-14
  70
    32
  0
VERTEX
  8
0
  5
3BA2
 10
773.171
 20
109.497
 30
-1.82000e-14
  70
    32
  0
VERTEX
  8
0
  5
3BA3
 10
773.182
 20
109.497
 30
-1.82000e-14
  70
    32
  0
VERTEX
  8
0
  5
3BA4
 10
773.193
 20
109.498
 30
-1.82000e-14
  70
    32
  0
VERTEX
  8
0
  5
3BA5
 10
773.203
 20
109.498
 30
-1.82000e-14
  70
    32
  0
VERTEX
  8
0
  5
3BA6
 10
773.214
 20
109.498
 30
-1.82000e-14
  70
    32
  0
VERTEX
  8
0
  5
3BA7
 10
773.225
 20
109.499
 30
-1.82000e-14
  70
    32
  0
VERTEX
  8
0
  5
3BA8
 10
773.236
 20
109.499
 30
-1.82000e-14
  70
    32
  0
VERTEX
  8
0
  5
3BA9
 10
773.247
 20
109.499
 30
-1.82000e-14
  70
    32
  0
VERTEX
  8
0
  5
3BAA
 10
773.258
 20
109.500
 30
-1.82000e-14
  70
    32
  0
VERTEX
  8
0
  5
3BAB
 10
773.268
 20
109.500
 30
-1.82000e-14
  70
    32
  0
VERTEX
  8
0
  5
3BAC
 10
773.279
 20
109.500
 30
-1.82000e-14
  70
    32
  0
VERTEX
  8
0
  5
3BAD
 10
773.290
 20
109.501
 30
-1.82000e-14
  70
    32
  0
VERTEX
  8
0
  5
3BAE
 10
773.301
 20
109.501
 30
-1.82000e-14
  70
    32
  0
VERTEX
  8
0
  5
3BAF
 10
773.312
 20
109.501
 30
-1.82000e-14
  70
    32
  0
VERTEX
  8
0
  5
3BB0
 10
773.322
 20
109.501
 30
-1.82000e-14
  70
    32
  0
VERTEX
  8
0
  5
3BB1
 10
773.333
 20
109.502
 30
-1.82000e-14
  70
    32
  0
VERTEX
  8
0
  5
3BB2
 10
773.344
 20
109.502
 30
-1.82000e-14
  70
    32
  0
VERTEX
  8
0
  5
3BB3
 10
773.355
 20
109.502
 30
-1.82000e-14
  70
    32
  0
VERTEX
  8
0
  5
3BB4
 10
773.365
 20
109.502
 30
-1.82000e-14
  70
    32
  0
VERTEX
  8
0
  5
3BB5
 10
773.376
 20
109.502
 30
-1.82000e-14
  70
    32
  0
VERTEX
  8
0
  5
3BB6
 10
773.387
 20
109.502
 30
-1.82000e-14
  70
    32
  0
VERTEX
  8
0
  5
3BB7
 10
773.398
 20
109.502
 30
-1.82000e-14
  70
    32
  0
VERTEX
  8
0
  5
3BB8
 10
773.408
 20
109.503
 30
-1.82000e-14
  70
    32
  0
VERTEX
  8
0
  5
3BB9
 10
773.419
 20
109.503
 30
-1.82000e-14
  70
    32
  0
VERTEX
  8
0
  5
3BBA
 10
773.430
 20
109.503
 30
-1.82000e-14
  70
    32
  0
VERTEX
  8
0
  5
3BBB
 10
773.441
 20
109.503
 30
-1.82000e-14
  70
    32
  0
VERTEX
  8
0
  5
3BBC
 10
773.451
 20
109.503
 30
-1.82000e-14
  70
    32
  0
VERTEX
  8
0
  5
3BBD
 10
773.462
 20
109.503
 30
-1.82000e-14
  70
    32
  0
VERTEX
  8
0
  5
3BBE
 10
773.473
 20
109.503
 30
-1.82000e-14
  70
    32
  0
SEQEND
  8
0
  5
3BBF
  0
LINE
  5
2F28
  8
0
 10
824.4729148832468582
 20
112.0028343559863941
 30
-0.0000000000000188
 11
722.4729148832468582
 21
112.0028343559863941
 31
-0.0000000000000188
210
0.0
220
1.0
230
-0.0000000000000002
  0
LINE
  5
2F29
  8
0
 10
855.9729148832469718
 20
94.0028343559863657
 30
-0.0000000000000148
 11
690.9729148832468582
 21
94.0028343559864794
 31
-0.0000000000000148
210
0.0
220
1.0
230
-0.0000000000000002
  0
LINE
  5
2F2A
  8
0
 10
855.9729148832469718
 20
109.0028343559862947
 30
-0.0000000000000181
 11
690.9729148832468582
 21
109.0028343559864936
 31
-0.0000000000000181
210
0.0
220
1.0
230
-0.0000000000000002
  0
ARC
  5
2F2B
  8
0
 10
-806.6229148832488818
 20
74.4427931230231934
 30
-0.0000000000000061
 40
3.000000000002045
210
0.0
220
-0.0000000000000002
230
-1.0
 50
0.0000000000087529
 51
21.1485687849474111
  0
ARC
  5
2F2C
  8
0
 10
-740.3229148832449482
 20
74.4427931230232218
 30
-0.0000000000000061
 40
3.0000000000020499
210
0.0
220
-0.0000000000000002
230
-1.0
 50
158.8514312150525996
 51
179.9999999999909903
  0
LINE
  5
2F2D
  8
0
 10
743.3229148832468809
 20
67.0028343559863799
 30
-0.0000000000000088
 11
743.3229148832468809
 21
74.4427931230236766
 31
-0.0000000000000105
210
0.0
220
1.0
230
-0.0000000000000002
  0
LINE
  5
2F2E
  8
0
 10
803.6229148832469491
 20
67.0028343559863799
 30
-0.0000000000000088
 11
803.6229148832469491
 21
74.4427931230236766
 31
-0.0000000000000105
210
0.0
220
1.0
230
-0.0000000000000002
  0
LINE
  5
2F2F
  8
0
 10
743.1208589903333177
 20
75.5251557118176038
 30
-0.0000000000000107
 11
737.4565606698115516
 21
90.1675595335743054
 31
-0.0000000000000139
210
0.0
220
1.0
230
-0.0000000000000002
  0
LINE
  5
2F30
  8
0
 10
803.824970776160626
 20
75.5251557118176038
 30
-0.0000000000000107
 11
809.4892690966822784
 21
90.1675595335742344
 31
-0.0000000000000139
210
0.0
220
1.0
230
-0.0000000000000002
  0
LINE
  5
2F31
  8
0
 10
824.4729148832468582
 20
112.0028343559863941
 30
-0.0000000000000188
 11
826.9729148832468582
 21
109.5028343559863941
 31
-0.0000000000000182
210
0.0
220
1.0
230
-0.0000000000000002
  0
LINE
  5
2F32
  8
0
 10
722.4729148832467445
 20
112.0028343559862947
 30
-0.0000000000000188
 11
719.9729148832467445
 21
109.5028343559862947
 31
-0.0000000000000182
210
0.0
220
1.0
230
-0.0000000000000002
  0
ARC
  5
2F33
  8
0
 10
-815.085157310855152
 20
88.002834355986252
 30
-0.0000000000000061
 40
6.0000000000001883
210
0.0
220
-0.0000000000000002
230
-1.0
 50
21.1485687849529391
 51
89.9999999999992042
  0
ARC
  5
2F34
  8
0
 10
-731.8606724556387917
 20
88.0028343559863231
 30
-0.0000000000000061
 40
6.000000000000135
210
0.0
220
-0.0000000000000002
230
-1.0
 50
90.0
 51
158.8514312150468015
  0
LINE
  5
2F35
  8
0
 10
690.9729148832468582
 20
94.0028343559864368
 30
-0.0000000000000148
 11
690.9729148832468582
 21
109.0028343559863941
 31
-0.0000000000000181
210
0.0
220
1.0
230
-0.0000000000000002
  0
LINE
  5
2F36
  8
0
 10
855.9729148832469718
 20
94.0028343559863941
 30
-0.0000000000000148
 11
855.9729148832469718
 21
109.0028343559863941
 31
-0.0000000000000181
210
0.0
220
1.0
230
-0.0000000000000002
  0
LINE
  5
2F37
  8
0
  6
VERDECKT
 62
     1
 10
749.0628486678049285
 20
-22.8163177065687108
 30
0.0000000000000111
 11
797.8829810986890152
 21
-22.8163177065687108
 31
0.0000000000000111
210
0.0
220
1.0
230
-0.0000000000000002
  0
ARC
  5
2F38
  8
0
  6
VERDECKT
 62
     1
 10
-753.4725690336373418
 20
-17.6920901305762506
 30
-0.0000000000000061
 40
5.0000000000176223
210
0.0
220
-0.0000000000000002
230
-1.0
 50
353.0168414064909257
 51
359.9999999999924967
  0
ARC
  5
2F39
  8
0
  6
VERDECKT
 62
     1
 10
-793.4732607328566019
 20
-17.6920901305762506
 30
-0.0000000000000061
 40
5.0000000000176197
210
0.0
220
-0.0000000000000002
230
-1.0
 50
180.0000000000075033
 51
186.983158593509188
  0
LINE
  5
2F3A
  8
0
  6
VERDECKT
 62
     1
 10
749.0628486678049285
 20
-22.8163177065687108
 30
0.0000000000000111
 11
748.5096593796530442
 21
-18.2999780861780117
 31
0.0000000000000101
210
0.0
220
1.0
230
-0.0000000000000002
  0
LINE
  5
2F3B
  8
0
  6
VERDECKT
 62
     1
 10
797.8829810986890152
 20
-22.8163177065687108
 30
0.0000000000000111
 11
798.4361703868408995
 21
-18.2999780861780117
 31
0.0000000000000101
210
0.0
220
1.0
230
-0.0000000000000002
  0
LINE
  5
2F3C
  8
0
  6
VERDECKT
 62
     1
 10
798.4732607328742233
 20
60.8225090428170319
 30
-0.0000000000000074
 11
798.4732607328742233
 21
-17.6920901305769114
 31
0.00000000000001
210
0.0
220
1.0
230
-0.0000000000000002
  0
LINE
  5
2F3D
  8
0
  6
VERDECKT
 62
     1
 10
748.4725690336197204
 20
60.8225090428170319
 30
-0.0000000000000074
 11
748.4725690336197204
 21
-17.6920901305769114
 31
0.00000000000001
210
0.0
220
1.0
230
-0.0000000000000002
  0
LINE
  5
2F3E
  8
0
  6
VERDECKT
 62
     1
 10
797.8829810986890152
 20
-22.8163177065686789
 30
0.0000000000000111
 11
799.3601483889383417
 21
-22.997165644013549
 31
0.0000000000000112
210
0.0
220
1.0
230
-0.0000000000000002
  0
LINE
  5
2F3F
  8
0
  6
VERDECKT
 62
     1
 10
749.0628486678049285
 20
-22.8163177065686789
 30
0.0000000000000111
 11
747.585681377555602
 21
-22.997165644013549
 31
0.0000000000000112
210
0.0
220
1.0
230
-0.0000000000000002
  0
ARC
  5
2F40
  8
0
  6
VERDECKT
 62
     1
 10
-742.972569033619834
 20
60.8225090428170319
 30
-0.0000000000000061
 40
5.4999999999998881
210
0.0
220
-0.0000000000000002
230
-1.0
 50
155.7755505218638064
 51
180.000000000000199
  0
ARC
  5
2F41
  8
0
  6
VERDECKT
 62
     1
 10
-803.9732607328739959
 20
60.8225090428170319
 30
-0.0000000000000061
 40
5.4999999999998863
210
0.0
220
-0.0000000000000002
230
-1.0
 50
359.9999999999997726
 51
24.2244494781362185
  0
LINE
  5
2F42
  8
0
  6
VERDECKT
 62
     1
 10
747.9882671341039213
 20
63.0792262525711394
 30
-0.0000000000000079
 11
746.2229148832468582
 21
67.0028343559864652
 31
-0.0000000000000088
210
0.0
220
1.0
230
-0.0000000000000002
  0
LINE
  5
2F43
  8
0
  6
VERDECKT
 62
     1
 10
798.9575626323900224
 20
63.0792262525711394
 30
-0.0000000000000079
 11
800.7229148832469718
 21
67.0028343559864652
 31
-0.0000000000000088
210
0.0
220
1.0
230
-0.0000000000000002
  0
LINE
  5
2F44
  8
0
  6
VERDECKT
 62
     1
 10
844.9729148832468582
 20
109.0028343559863941
 30
-0.0000000000000181
 11
844.9729148832468582
 21
94.0028343559864368
 31
-0.0000000000000148
210
0.0
220
1.0
230
-0.0000000000000002
  0
LINE
  5
2F45
  8
0
  6
VERDECKT
 62
     1
 10
826.9729148832468582
 20
109.5028343559863941
 30
-0.0000000000000182
 11
826.9729148832468582
 21
94.0028343559864368
 31
-0.0000000000000148
210
0.0
220
1.0
230
-0.0000000000000002
  0
LINE
  5
2F46
  8
0
  6
VERDECKT
 62
     1
 10
701.9729148832467445
 20
94.0028343559864368
 30
-0.0000000000000148
 11
701.9729148832467445
 21
109.0028343559863941
 31
-0.0000000000000181
210
0.0
220
1.0
230
-0.0000000000000002
  0
LINE
  5
2F47
  8
0
  6
VERDECKT
 62
     1
 10
719.9729148832467445
 20
94.0028343559864368
 30
-0.0000000000000148
 11
719.9729148832467445
 21
109.5028343559863941
 31
-0.0000000000000182
210
0.0
220
1.0
230
-0.0000000000000002
  0
LINE
  5
2F48
  8
0
  6
VERDECKT
 62
     1
 10
764.4729148832468582
 20
94.0028343559864368
 30
-0.0000000000000148
 11
764.4729148832468582
 21
109.0028343559863941
 31
-0.0000000000000181
210
0.0
220
1.0
230
-0.0000000000000002
  0
LINE
  5
2F49
  8
0
  6
VERDECKT
 62
     1
 10
782.4729148832468582
 20
94.0028343559864368
 30
-0.0000000000000148
 11
782.4729148832468582
 21
109.0028343559863941
 31
-0.0000000000000181
210
0.0
220
1.0
230
-0.0000000000000002
  0
LINE
  5
2F4A
  8
0
  6
VERDECKT
 62
     1
 10
746.2229148832468582
 20
67.0028343559863799
 30
-0.0000000000000088
 11
746.2229148832468582
 21
112.0028343559863941
 31
-0.0000000000000188
210
0.0
220
1.0
230
-0.0000000000000002
  0
LINE
  5
2F4B
  8
0
  6
VERDECKT
 62
     1
 10
800.7229148832469718
 20
67.0028343559863799
 30
-0.0000000000000088
 11
800.7229148832469718
 21
112.0028343559863941
 31
-0.0000000000000188
210
0.0
220
1.0
230
-0.0000000000000002
  0
ENDBLK
  5
2F4D
  8
0
  0
ENDSEC
  0
SECTION
  2
ENTITIES
  0
TEXT
  5
8F
  8
VOLL
 10
78.076754716981128
 20
31.025947764705851
 30
0.0
 40
1.8
  1

  7
GREEKS
  0
INSERT
  5
FA4
  8
ADSK_ASSOC_ENTITY_BACKUPS
  2
*S0
 10
0.0
 20
0.0
 30
0.0
  0
INSERT
  5
2F15
  8
STEMPEL
  2
A$C4A732623
 10
223.3859532005687925
 20
-114.1111949763864004
 30
-45.8639665748305632
  0
INSERT
  5
2F4E
  8
STEMPEL
  2
A$CC4EB6825
 10
151.4243035760839859
 20
185.9375451447839964
 30
-45.8639665748306484
  0
VIEWPORT
  5
702
 67
     1
  8
0
 10
100.5844866077586062
 20
140.6999978553984079
 30
0.0
 40
533.9969448798290159
 41
299.1239570917758783
 68
     1
 69
     1
1001
ACAD
1000
MVIEW
1002
{
1070
    16
1010
0.0
1020
0.0
1030
0.0
1010
0.0
1020
0.0
1030
1.0
1040
0.0
1040
299.1239570917758783
1040
100.5844866077586062
1040
140.6999978553984079
1040
50.0
1040
0.0
1040
0.0
1070
     0
1070
  1500
1070
     1
1070
     1
1070
     0
1070
     0
1070
     0
1070
     0
1040
0.0
1040
0.0
1040
0.0
1040
10.0
1040
10.0
1040
10.0
1040
10.0
1070
     0
1002
{
1002
}
1002
}
1001
GENIUS_GENOBJ-N-SDF_13
1002
{
1000
OWNER
1000
GEN
1002
}
1001
GENIUS_GENODEF_13
1002
{
1000
HIER
1070
     0
1002
}
1002
{
1000
MANEDIT
1070
     0
1002
}
1002
{
1000
NOSEL
1070
     0
1002
}
1002
{
1000
BEHIND
1070
     0
1002
}
1002
{
1000
OTHER
1070
     0
1002
}
1002
{
1000
REACTOR
1002
}
1001
GENIUS_GENSCREG_15
1000
PF
1040
1.0
1000
DF
1040
1.0
1000
MIN
1011
-44.0909842760909214
1021
0.0
1031
0.0
1021
114.9169528894114052
1031
0.0
1000
MAX
1011
315.8793773641908729
1021
0.0
1031
0.0
1021
273.2955210936145818
1031
0.0
1000
FLAGS
1070
     4
  0
ENDSEC
  0
EOF
