  0
SECTION
  2
HEADER
  9
$ACADVER
  1
AC1009
  9
$INSBASE
 10
0.0
 20
0.0
 30
0.0
  9
$EXTMIN
 10
815.7756274914584083
 20
-57.4486740638073101
 30
-50.5760559993602925
  9
$EXTMAX
 10
966.4919020823697338
 20
245.2585304676225917
 30
-50.5760559993601788
  9
$LIMMIN
 10
0.0
 20
0.0
  9
$LIMMAX
 10
419.9999999999998863
 20
594.0
  9
$ORTHOMODE
 70
     1
  9
$REGENMODE
 70
     1
  9
$FILLMODE
 70
     1
  9
$QTEXTMODE
 70
     0
  9
$MIRRTEXT
 70
     1
  9
$DRAGMODE
 70
     2
  9
$LTSCALE
 40
10.0
  9
$OSMODE
 70
  2495
  9
$ATTMODE
 70
     1
  9
$TEXTSIZE
 40
3.5
  9
$TRACEWID
 40
0.5
  9
$TEXTSTYLE
  7
STANDARD
  9
$CLAYER
  8
STEMPEL
  9
$CELTYPE
  6
BYLAYER
  9
$CECOLOR
 62
   256
  9
$DIMSCALE
 40
1.0
  9
$DIMASZ
 40
3.5
  9
$DIMEXO
 40
1.0
  9
$DIMDLI
 40
7.0
  9
$DIMRND
 40
0.0
  9
$DIMDLE
 40
0.0
  9
$DIMEXE
 40
1.0
  9
$DIMTP
 40
0.0
  9
$DIMTM
 40
0.0
  9
$DIMTXT
 40
3.5
  9
$DIMCEN
 40
1.5
  9
$DIMTSZ
 40
0.0
  9
$DIMTOL
 70
     0
  9
$DIMLIM
 70
     0
  9
$DIMTIH
 70
     0
  9
$DIMTOH
 70
     0
  9
$DIMSE1
 70
     0
  9
$DIMSE2
 70
     0
  9
$DIMTAD
 70
     1
  9
$DIMZIN
 70
     8
  9
$DIMBLK
  1

  9
$DIMASO
 70
     1
  9
$DIMSHO
 70
     0
  9
$DIMPOST
  1

  9
$DIMAPOST
  1

  9
$DIMALT
 70
     0
  9
$DIMALTD
 70
     2
  9
$DIMALTF
 40
25.3999999999999986
  9
$DIMLFAC
 40
2.0
  9
$DIMTOFL
 70
     1
  9
$DIMTVP
 40
0.0
  9
$DIMTIX
 70
     0
  9
$DIMSOXD
 70
     0
  9
$DIMSAH
 70
     0
  9
$DIMBLK1
  1

  9
$DIMBLK2
  1

  9
$DIMSTYLE
  2
STANDARD
  9
$DIMCLRD
 70
     0
  9
$DIMCLRE
 70
     0
  9
$DIMCLRT
 70
     1
  9
$DIMTFAC
 40
0.5142857142857143
  9
$DIMGAP
 40
1.5
  9
$LUNITS
 70
     2
  9
$LUPREC
 70
     2
  9
$SKETCHINC
 40
1.0
  9
$FILLETRAD
 40
4.0
  9
$AUNITS
 70
     0
  9
$AUPREC
 70
     0
  9
$MENU
  1
ACAD
  9
$ELEVATION
 40
0.0
  9
$PELEVATION
 40
0.0
  9
$THICKNESS
 40
0.0
  9
$LIMCHECK
 70
     0
  9
$BLIPMODE
 70
     0
  9
$CHAMFERA
 40
0.0
  9
$CHAMFERB
 40
0.0
  9
$SKPOLY
 70
     0
  9
$TDCREATE
 40
2455397.8646990740671754
  9
$TDUPDATE
 40
2459627.4929513889364898
  9
$TDINDWG
 40
0.3876563657
  9
$TDUSRTIMER
 40
0.3876563657
  9
$USRTIMER
 70
     1
  9
$ANGBASE
 50
0.0
  9
$ANGDIR
 70
     0
  9
$PDMODE
 70
     0
  9
$PDSIZE
 40
0.0
  9
$PLINEWID
 40
0.0
  9
$COORDS
 70
     1
  9
$SPLFRAME
 70
     0
  9
$SPLINETYPE
 70
     6
  9
$SPLINESEGS
 70
     8
  9
$ATTDIA
 70
     1
  9
$ATTREQ
 70
     1
  9
$HANDLING
 70
     1
  9
$HANDSEED
  5
30F9
  9
$SURFTAB1
 70
     6
  9
$SURFTAB2
 70
     6
  9
$SURFTYPE
 70
     6
  9
$SURFU
 70
     6
  9
$SURFV
 70
     6
  9
$UCSNAME
  2

  9
$UCSORG
 10
0.0
 20
0.0
 30
0.0
  9
$UCSXDIR
 10
1.0
 20
0.0
 30
0.0
  9
$UCSYDIR
 10
0.0
 20
1.0
 30
0.0
  9
$PUCSNAME
  2

  9
$PUCSORG
 10
0.0
 20
0.0
 30
0.0
  9
$PUCSXDIR
 10
1.0
 20
0.0
 30
0.0
  9
$PUCSYDIR
 10
0.0
 20
1.0
 30
0.0
  9
$USERI1
 70
     0
  9
$USERI2
 70
     0
  9
$USERI3
 70
     0
  9
$USERI4
 70
     0
  9
$USERI5
 70
     0
  9
$USERR1
 40
0.0
  9
$USERR2
 40
0.0
  9
$USERR3
 40
0.0
  9
$USERR4
 40
0.0
  9
$USERR5
 40
0.0
  9
$WORLDVIEW
 70
     1
  9
$SHADEDGE
 70
     3
  9
$SHADEDIF
 70
    70
  9
$TILEMODE
 70
     1
  9
$MAXACTVP
 70
    16
  9
$PLIMCHECK
 70
     0
  9
$PEXTMIN
 10
1.0000000000000000E+20
 20
1.0000000000000000E+20
 30
1.0000000000000000E+20
  9
$PEXTMAX
 10
-1.0000000000000000E+20
 20
-1.0000000000000000E+20
 30
-1.0000000000000000E+20
  9
$PLIMMIN
 10
-5.027082920074462
 20
-6.4382776093749987
  9
$PLIMMAX
 10
204.9462447166442871
 20
290.4877172636719251
  9
$UNITMODE
 70
     0
  9
$VISRETAIN
 70
     0
  9
$PLINEGEN
 70
     0
  9
$PSLTSCALE
 70
     0
  0
ENDSEC
  0
SECTION
  2
TABLES
  0
TABLE
  2
VPORT
 70
     1
  0
VPORT
  2
*ACTIVE
 70
     0
 10
0.0
 20
0.0
 11
1.0
 21
1.0
 12
-0.0000262451442268
 22
-74.4112468563791083
 13
0.0
 23
0.0
 14
1.0
 24
1.0
 15
10.0
 25
10.0
 16
-0.0000000000001137
 26
0.0
 36
550.2044080275386477
 17
891.1337910320581841
 27
168.3161750582866887
 37
-25.2880279996800397
 40
304.8719759583531754
 41
1.7852028639618129
 42
50.0
 43
0.0
 44
0.0
 50
0.0
 51
0.0
 71
     0
 72
  1500
 73
     1
 74
     0
 75
     0
 76
     0
 77
     0
 78
     0
  0
ENDTAB
  0
TABLE
  2
LTYPE
 70
     7
  0
LTYPE
  2
CONTINUOUS
 70
     0
  3
Solid line
 72
    65
 73
     0
 40
0.0
  0
LTYPE
  2
PHANTOM2
 70
     0
  3
Phantom (.5x) ___ _ _ ___ _ _ ___ _ _ ___ _ _
 72
    65
 73
     6
 40
1.25
 49
0.625
 49
-0.125
 49
0.125
 49
-0.125
 49
0.125
 49
-0.125
  0
LTYPE
  2
AUSGEZOGEN
 70
     0
  3
Ausgezogene Linie
 72
    65
 73
     0
 40
0.0
  0
LTYPE
  2
VERDECKT
 70
     0
  3
Verdeckt __ __ __ __ __ __ __ __ __ __ __ __ __
 72
    65
 73
     2
 40
0.375
 49
0.25
 49
-0.125
  0
ENDTAB
  0
TABLE
  2
LAYER
 70
    13
  0
LAYER
  2
0
 70
     0
 62
     7
  6
CONTINUOUS
  0
LAYER
  2
VOLL
 70
     0
 62
     1
  6
CONTINUOUS
  0
LAYER
  2
STEMPEL
 70
     0
 62
     3
  6
CONTINUOUS
  0
LAYER
  2
DEFPOINTS
 70
     0
 62
     7
  6
CONTINUOUS
  0
LAYER
  2
ADSK_ASSOC_ENTITY_BACKUPS
 70
     1
 62
    -7
  6
CONTINUOUS
  0
ENDTAB
  0
TABLE
  2
STYLE
 70
     5
  0
STYLE
  2
STANDARD
 70
     0
 40
0.0
 41
0.8
 50
0.0
 71
     0
 42
3.5
  3
simplex.shx
  4

  0
STYLE
  2
GREEKS
 70
     0
 40
0.0
 41
0.8
 50
0.0
 71
     0
 42
2.5
  3
SIMPLEX.shx
  4

  0
ENDTAB
  0
TABLE
  2
VIEW
 70
     1
  0
ENDTAB
  0
TABLE
  2
UCS
 70
     0
  0
ENDTAB
  0
TABLE
  2
APPID
 70
    35
  0
APPID
  2
ACAD
 70
     0
  0
APPID
  2
ACAD_EXEMPT_FROM_CAD_STANDARDS
 70
     0
  0
APPID
  2
ACAD_NAV_VCDISPLAY
 70
     0
  0
APPID
  2
ACAECLAYERSTANDARD
 70
     0
  0
APPID
  2
ACCMTRANSPARENCY
 70
     0
  0
APPID
  2
ACAD_PSEXT
 70
     0
  0
APPID
  2
GRADIENTCOLOR1ACI
 70
     0
  0
APPID
  2
GRADIENTCOLOR2ACI
 70
     0
  0
APPID
  2
ACAD_MLEADERVER
 70
     0
  0
APPID
  2
ACAD_OBJECT_CHANGE_GUID
 70
     0
  0
APPID
  2
MCAD_NO_VIS
 70
     0
  0
APPID
  2
ACAD_TEMP_GRAPHIC
 70
     0
  0
APPID
  2
ACATTRIBSERVICES
 70
     0
  0
APPID
  2
DESIGNERASSEMBLIES
 70
     0
  0
APPID
  2
ACAD_DSTYLE_DIMJAG
 70
     0
  0
APPID
  2
ACAD_DSTYLE_DIMBREAK
 70
     0
  0
APPID
  2
GENIUS_GENSCREG_15
 70
     0
  0
APPID
  2
GENIUS_GENOBJ-N-SDF_13
 70
     0
  0
APPID
  2
GENIUS_GENODEF_13
 70
     0
  0
APPID
  2
RAK
 70
     0
  0
APPID
  2
ACAUTHENVIRON
 70
     0
  0
APPID
  2
ACDBDYNAMICBLOCKTRUENAME
 70
     0
  0
APPID
  2
ACDBDYNAMICBLOCKGUID
 70
     0
  0
APPID
  2
ACSYNERGY
 70
     0
  0
APPID
  2
SYNERGY_BODY_TBR_ID
 70
     0
  0
APPID
  2
ACAD_VIEW_EDGE_ID
 70
     0
  0
APPID
  2
ACSYNERGYSKETCH
 70
     0
  0
APPID
  2
ACAD_STEPID
 70
     0
  0
APPID
  2
ACAD_MODELDOC_XFORM
 70
     0
  0
APPID
  2
GENIUS_GENDTOL_13
 70
     0
  0
APPID
  2
ACAD_DSTYLE_DIMINSPECT
 70
     0
  0
APPID
  2
ACADANNOMONITORALERTICONDI
 70
     0
  0
APPID
  2
GENIUS_GENDIMSH_14
 70
     0
  0
APPID
  2
ACAD_DSTYLE_DIMTALN
 70
     0
  0
APPID
  2
AcDbAttr
 70
     0
  0
ENDTAB
  0
TABLE
  2
DIMSTYLE
 70
     4
  0
DIMSTYLE
  2
STANDARD
 70
     0
  3

  4

  5

  6

  7

 40
1.0
 41
0.18
 42
0.0625
 43
0.38
 44
0.18
 45
0.0
 46
0.0
 47
0.0
 48
0.0
140
0.18
141
0.09
142
0.0
143
25.3999999999999986
144
1.0
145
0.0
146
1.0
147
0.09
 71
     0
 72
     0
 73
     1
 74
     1
 75
     0
 76
     0
 77
     0
 78
     0
170
     0
171
     2
172
     0
173
     0
174
     0
175
     0
176
     0
177
     0
178
     0
  0
ENDTAB
  0
ENDSEC
  0
SECTION
  2
BLOCKS
  0
BLOCK
  8
0
  2
$MODEL_SPACE
 70
     0
 10
0.0
 20
0.0
 30
0.0
  3
$MODEL_SPACE
  1

  0
ENDBLK
  5
36
  8
0
  0
BLOCK
 67
     1
  8
0
  2
$PAPER_SPACE
 70
     0
 10
0.0
 20
0.0
 30
0.0
  3
$PAPER_SPACE
  1

  0
ENDBLK
  5
34
 67
     1
  8
0
  0
BLOCK
  8
0
  2
*S0
 70
     1
 10
0.0
 20
0.0
 30
0.0
  3
*S0
  1

  0
ENDBLK
  5
FA2
  8
0
  0
BLOCK
  8
0
  2
A$C63AF586A
 70
     0
 10
0.0
 20
0.0
 30
0.0
  3
A$C63AF586A
  1

  0
CIRCLE
  5
3057
  8
0
 10
701.5112652587622506
 20
155.0350682550881061
 30
0.0000000000001279
 40
19.1686451654235803
  0
CIRCLE
  5
3058
  8
0
 10
701.5112652587622506
 20
155.0350682550881061
 30
0.0000000000001279
 40
19.5999999999998487
  0
CIRCLE
  5
3059
  8
0
 10
701.5112652587622506
 20
210.0350682550881061
 30
0.0000000000001279
 40
9.0
  0
CIRCLE
  5
305A
  8
0
 10
701.5112652587622506
 20
100.0350682550881061
 30
0.0000000000001279
 40
9.0
  0
CIRCLE
  5
305B
  8
0
 10
756.5112652587622506
 20
155.0350682550881061
 30
0.0000000000001421
 40
9.0
  0
CIRCLE
  5
305C
  8
0
 10
646.5112652587622506
 20
155.0350682550881061
 30
0.0000000000001137
 40
9.0
  0
CIRCLE
  5
305D
  8
0
 10
701.5112652587622506
 20
155.0350682550881061
 30
0.0000000000001279
 40
41.0
  0
CIRCLE
  5
305E
  8
0
 10
701.5112652587622506
 20
155.0350682550881061
 30
0.0000000000001279
 40
75.0
  0
CIRCLE
  5
305F
  8
0
 10
701.5112652587622506
 20
155.0350682550881061
 30
0.0000000000001279
 40
39.0
  0
CIRCLE
  5
3060
  8
0
 10
701.5112652587622506
 20
155.0350682550881061
 30
0.0000000000001279
 40
21.5500000000000718
  0
CIRCLE
  5
3061
  8
0
  6
VERDECKT
 62
     1
 10
701.5112652587622506
 20
155.0350682550881061
 30
0.0000000000001279
 40
23.0406472881708204
  0
CIRCLE
  5
3062
  8
0
  6
VERDECKT
 62
     1
 10
701.5112652587622506
 20
155.0350682550881061
 30
0.0000000000001279
 40
21.1999999999999282
  0
CIRCLE
  5
3063
  8
0
  6
VERDECKT
 62
     1
 10
701.5112652587622506
 20
155.0350682550881061
 30
0.0000000000001279
 40
20.7625566823703593
  0
CIRCLE
  5
3064
  8
0
  6
VERDECKT
 62
     1
 10
701.5112652587622506
 20
155.0350682550881061
 30
0.0000000000001279
 40
24.1499999999999808
  0
ENDBLK
  5
3066
  8
0
  0
BLOCK
  8
0
  2
A$C086D19D6
 70
     0
 10
0.0
 20
0.0
 30
0.0
  3
A$C086D19D6
  1

  0
LINE
  5
306A
  8
0
 10
678.4706179705914337
 20
39.0689947507009379
 30
-0.0000000000000087
 11
724.5519125469329538
 21
39.0689947507009379
 31
-0.0000000000000087
210
0.0
220
1.0
230
-0.0000000000000002
  0
LINE
  5
306B
  8
0
 10
680.7487085763917776
 20
-35.3496528069124025
 30
0.0000000000000078
 11
722.2738219411326099
 21
-35.3496528069124025
 31
0.0000000000000078
210
0.0
220
1.0
230
-0.0000000000000002
  0
LINE
  5
306C
  8
0
 10
723.0612652587620914
 20
39.6503471930876472
 30
-0.0000000000000088
 11
724.5519125469329538
 21
39.0689947507009521
 31
-0.0000000000000087
210
0.0
220
1.0
230
-0.0000000000000002
  0
LINE
  5
306D
  8
0
 10
679.9612652587621824
 20
39.6503471930876472
 30
-0.0000000000000088
 11
678.4706179705914337
 21
39.0689947507009521
 31
-0.0000000000000087
210
0.0
220
1.0
230
-0.0000000000000002
  0
LINE
  5
306E
  8
0
 10
680.0378834791894178
 20
35.0503652414756814
 30
-0.0000000000000078
 11
678.4706179705914337
 21
39.0689947507009379
 31
-0.0000000000000087
210
0.0
220
1.0
230
-0.0000000000000002
  0
LINE
  5
306F
  8
0
 10
722.9846470383350834
 20
35.0503652414756814
 30
-0.0000000000000078
 11
724.5519125469329538
 21
39.0689947507009379
 31
-0.0000000000000087
210
0.0
220
1.0
230
-0.0000000000000002
  0
ARC
  5
3070
  8
0
 10
-676.3112652587644789
 20
33.5969841355095014
 30
0.0
 40
3.9999999999977232
210
0.0
220
-0.0000000000000002
230
-1.0
 50
158.6942163821643987
 51
180.0000000000071054
  0
ARC
  5
3071
  8
0
 10
-726.7112652587599086
 20
33.5969841355095014
 30
0.0
 40
3.9999999999977258
210
0.0
220
-0.0000000000000002
230
-1.0
 50
359.9999999999928946
 51
21.3057836178355089
  0
LINE
  5
3072
  8
0
 10
722.7112652587621824
 20
33.5969841355089969
 30
-0.0000000000000075
 11
722.7112652587621824
 21
-30.0658566780072682
 31
0.0000000000000067
210
0.0
220
1.0
230
-0.0000000000000002
  0
LINE
  5
3073
  8
0
 10
680.3112652587623188
 20
33.5969841355089969
 30
-0.0000000000000075
 11
680.3112652587623188
 21
-30.0658566780072682
 31
0.0000000000000067
210
0.0
220
1.0
230
-0.0000000000000002
  0
ARC
  5
3074
  8
0
 10
-686.8112652587163893
 20
-30.0658566780090801
 30
0.0
 40
6.4999999999541842
210
0.0
220
-0.0000000000000002
230
-1.0
 50
354.9999999999806164
 51
0.0000000000159028
  0
ARC
  5
3075
  8
0
 10
-716.2112652588079982
 20
-30.0658566780090801
 30
0.0
 40
6.4999999999541842
210
0.0
220
-0.0000000000000002
230
-1.0
 50
179.9999999999841123
 51
185.0000000000192983
  0
LINE
  5
3076
  8
0
 10
680.7487085763917776
 20
-35.3496528069124025
 30
0.0000000000000078
 11
680.3359997211659902
 21
-30.6323690058670586
 31
0.0000000000000068
210
0.0
220
1.0
230
-0.0000000000000002
  0
LINE
  5
3077
  8
0
 10
722.2738219411326099
 20
-35.3496528069124025
 30
0.0000000000000078
 11
722.686530796358511
 21
-30.6323690058670586
 31
0.0000000000000068
210
0.0
220
1.0
230
-0.0000000000000002
  0
LINE
  5
3078
  8
0
 10
677.3612652587622733
 20
39.6503471930876188
 30
-0.0000000000000088
 11
725.6612652587622279
 21
39.6503471930876188
 31
-0.0000000000000088
210
0.0
220
1.0
230
-0.0000000000000002
  0
LINE
  5
3079
  8
0
 10
626.5112652587622506
 20
66.6503471930876259
 30
-0.0000000000000148
 11
776.5112652587622506
 21
66.6503471930876259
 31
-0.0000000000000148
210
0.0
220
1.0
230
-0.0000000000000002
  0
LINE
  5
307A
  8
0
 10
626.5112652587622506
 20
82.6503471930876259
 30
-0.0000000000000184
 11
776.5112652587622506
 21
82.6503471930876259
 31
-0.0000000000000184
210
0.0
220
1.0
230
-0.0000000000000002
  0
LINE
  5
307B
  8
0
 10
662.5112652587622506
 20
84.6503471930876827
 30
-0.0000000000000188
 11
740.5112652587622506
 21
84.6503471930876827
 31
-0.0000000000000188
210
0.0
220
1.0
230
-0.0000000000000002
  0
ARC
  5
307C
  8
0
 10
-675.3612652587477214
 20
46.4595982292580203
 30
0.0
 40
2.000000000014551
210
0.0
220
-0.0000000000000002
230
-1.0
 50
169.1038478589051124
 51
179.9999999999662066
  0
ARC
  5
307D
  8
0
 10
-727.6612652587766661
 20
46.4595982292580203
 30
0.0
 40
2.000000000014551
210
0.0
220
-0.0000000000000002
230
-1.0
 50
0.0
 51
10.8961521410610498
  0
LINE
  5
307E
  8
0
 10
677.3252080781966242
 20
46.8376572220003027
 30
-0.0000000000000104
 11
674.4479361904542429
 21
61.7845241713109417
 31
-0.0000000000000137
210
0.0
220
1.0
230
-0.0000000000000002
  0
LINE
  5
307F
  8
0
 10
725.6973224393277633
 20
46.8376572220003027
 30
-0.0000000000000104
 11
728.5745943270701446
 21
61.7845241713109132
 31
-0.0000000000000137
210
0.0
220
1.0
230
-0.0000000000000002
  0
LINE
  5
3080
  8
0
 10
725.6612652587622279
 20
46.4595982292591998
 30
-0.0000000000000103
 11
725.6612652587622279
 21
39.6503471930876188
 31
-0.0000000000000088
210
0.0
220
1.0
230
-0.0000000000000002
  0
LINE
  5
3081
  8
0
 10
677.3612652587622733
 20
46.4595982292591998
 30
-0.0000000000000103
 11
677.3612652587622733
 21
39.6503471930876188
 31
-0.0000000000000088
210
0.0
220
1.0
230
-0.0000000000000002
  0
ARC
  5
3082
  8
0
 10
-734.4664227853728562
 20
60.6503471930877467
 30
0.0
 40
5.999999999999762
210
0.0
220
-0.0000000000000002
230
-1.0
 50
10.8961521411401403
 51
90.0
  0
ARC
  5
3083
  8
0
 10
-668.5561077321515313
 20
60.6503471930878035
 30
0.0
 40
5.9999999999997788
210
0.0
220
-0.0000000000000002
230
-1.0
 50
89.9999999999989342
 51
169.1038478588602061
  0
LINE
  5
3084
  8
0
 10
740.5112652587622506
 20
84.650347193087697
 30
-0.0000000000000188
 11
742.5112652587622506
 21
82.6503471930876259
 31
-0.0000000000000184
210
0.0
220
1.0
230
-0.0000000000000002
  0
LINE
  5
3085
  8
0
 10
662.5112652587622506
 20
84.650347193087697
 30
-0.0000000000000188
 11
660.5112652587622506
 21
82.6503471930876259
 31
-0.0000000000000184
210
0.0
220
1.0
230
-0.0000000000000002
  0
LINE
  5
3086
  8
0
 10
776.5112652587622506
 20
82.6503471930876259
 30
-0.0000000000000184
 11
776.5112652587622506
 21
66.6503471930876259
 31
-0.0000000000000148
210
0.0
220
1.0
230
-0.0000000000000002
  0
LINE
  5
3087
  8
0
 10
626.5112652587622506
 20
82.6503471930876259
 30
-0.0000000000000184
 11
626.5112652587622506
 21
66.6503471930876259
 31
-0.0000000000000148
210
0.0
220
1.0
230
-0.0000000000000002
  0
LINE
  5
3088
  8
0
  6
VERDECKT
 62
     1
 10
682.3426200933384962
 20
-35.2102036185161325
 30
0.0000000000000078
 11
720.6799104241857776
 21
-35.2102036185161325
 31
0.0000000000000078
210
0.0
220
1.0
230
-0.0000000000000002
  0
LINE
  5
3089
  8
0
  6
VERDECKT
 62
     1
 10
682.3426200933387236
 20
-35.2102036185161182
 30
0.0000000000000078
 11
681.9264864663954313
 21
-30.4537744976166209
 31
0.0000000000000068
210
0.0
220
1.0
230
-0.0000000000000002
  0
LINE
  5
308A
  8
0
  6
VERDECKT
 62
     1
 10
720.6799104241856639
 20
-35.2102036185161182
 30
0.0000000000000078
 11
721.0960440511289562
 21
-30.4537744976166209
 31
0.0000000000000068
210
0.0
220
1.0
230
-0.0000000000000002
  0
ARC
  5
308B
  8
0
  6
VERDECKT
 62
     1
 10
-685.9112652587207322
 20
-30.1051515266269902
 30
0.0
 40
3.9999999999585039
210
0.0
220
-0.0000000000000002
230
-1.0
 50
354.9999999999623128
 51
0.0000000000144652
  0
ARC
  5
308C
  8
0
  6
VERDECKT
 62
     1
 10
-717.1112652588036553
 20
-30.1051515266269902
 30
0.0
 40
3.9999999999585039
210
0.0
220
-0.0000000000000002
230
-1.0
 50
179.9999999999855049
 51
185.0000000000376019
  0
LINE
  5
308D
  8
0
  6
VERDECKT
 62
     1
 10
721.1112652587621596
 20
33.4276936441122317
 30
-0.0000000000000074
 11
721.1112652587621596
 21
-30.1051515266259813
 31
0.0000000000000067
210
0.0
220
1.0
230
-0.0000000000000002
  0
LINE
  5
308E
  8
0
  6
VERDECKT
 62
     1
 10
681.9112652587623415
 20
33.4276936441122317
 30
-0.0000000000000074
 11
681.9112652587623415
 21
-30.1051515266259813
 31
0.0000000000000067
210
0.0
220
1.0
230
-0.0000000000000002
  0
ARC
  5
308F
  8
0
  6
VERDECKT
 62
     1
 10
-675.4112652587656385
 20
33.4276936441130701
 30
0.0
 40
6.4999999999966951
210
0.0
220
-0.0000000000000002
230
-1.0
 50
158.6942163821665872
 51
180.0000000000073044
  0
ARC
  5
3090
  8
0
  6
VERDECKT
 62
     1
 10
-727.6112652587652292
 20
33.4276936441118622
 30
0.0
 40
6.5000000000030687
210
0.0
220
-0.0000000000000002
230
-1.0
 50
0.0000000000032569
 51
21.3057836178229891
  0
LINE
  5
3091
  8
0
  6
VERDECKT
 62
     1
 10
681.4670198669563206
 20
35.7894379413080514
 30
-0.0000000000000079
 11
679.9612652587620687
 21
39.6503471930875904
 31
-0.0000000000000088
210
0.0
220
1.0
230
-0.0000000000000002
  0
LINE
  5
3092
  8
0
  6
VERDECKT
 62
     1
 10
721.5555106505680669
 20
35.7894379413080514
 30
-0.0000000000000079
 11
723.0612652587623188
 21
39.6503471930875904
 31
-0.0000000000000088
210
0.0
220
1.0
230
-0.0000000000000002
  0
LINE
  5
3093
  8
0
  6
VERDECKT
 62
     1
 10
720.6799104241857776
 20
-35.2102036185161325
 30
0.0000000000000078
 11
722.2738219411326099
 21
-35.3496528069124025
 31
0.0000000000000078
210
0.0
220
1.0
230
-0.0000000000000002
  0
LINE
  5
3094
  8
0
  6
VERDECKT
 62
     1
 10
682.3426200933384962
 20
-35.2102036185161325
 30
0.0000000000000078
 11
680.7487085763917776
 21
-35.3496528069124025
 31
0.0000000000000078
210
0.0
220
1.0
230
-0.0000000000000002
  0
LINE
  5
3095
  8
0
  6
VERDECKT
 62
     1
 10
692.5112652587622506
 20
66.6503471930875548
 30
-0.0000000000000148
 11
692.5112652587622506
 21
82.6503471930876259
 31
-0.0000000000000184
210
0.0
220
1.0
230
-0.0000000000000002
  0
LINE
  5
3096
  8
0
  6
VERDECKT
 62
     1
 10
710.5112652587622506
 20
66.6503471930875548
 30
-0.0000000000000148
 11
710.5112652587622506
 21
82.6503471930876259
 31
-0.0000000000000184
210
0.0
220
1.0
230
-0.0000000000000002
  0
LINE
  5
3097
  8
0
  6
VERDECKT
 62
     1
 10
765.5112652587622506
 20
82.6503471930876259
 30
-0.0000000000000184
 11
765.5112652587622506
 21
66.6503471930875548
 31
-0.0000000000000148
210
0.0
220
1.0
230
-0.0000000000000002
  0
LINE
  5
3098
  8
0
  6
VERDECKT
 62
     1
 10
747.5112652587622506
 20
82.6503471930876259
 30
-0.0000000000000184
 11
747.5112652587622506
 21
66.6503471930876259
 31
-0.0000000000000148
210
0.0
220
1.0
230
-0.0000000000000002
  0
LINE
  5
3099
  8
0
  6
VERDECKT
 62
     1
 10
637.5112652587622506
 20
66.6503471930875548
 30
-0.0000000000000148
 11
637.5112652587622506
 21
82.6503471930876259
 31
-0.0000000000000184
210
0.0
220
1.0
230
-0.0000000000000002
  0
LINE
  5
309A
  8
0
  6
VERDECKT
 62
     1
 10
655.5112652587622506
 20
66.6503471930876259
 30
-0.0000000000000148
 11
655.5112652587622506
 21
82.6503471930876259
 31
-0.0000000000000184
210
0.0
220
1.0
230
-0.0000000000000002
  0
LINE
  5
309B
  8
0
  6
VERDECKT
 62
     1
 10
723.0612652587620914
 20
84.6503471930876827
 30
-0.0000000000000188
 11
723.0612652587620914
 21
39.6503471930876188
 31
-0.0000000000000088
210
0.0
220
1.0
230
-0.0000000000000002
  0
LINE
  5
309C
  8
0
  6
VERDECKT
 62
     1
 10
679.9612652587621824
 20
84.6503471930876827
 30
-0.0000000000000188
 11
679.9612652587621824
 21
39.6503471930876188
 31
-0.0000000000000088
210
0.0
220
1.0
230
-0.0000000000000002
  0
ENDBLK
  5
309E
  8
0
  0
ENDSEC
  0
SECTION
  2
ENTITIES
  0
TEXT
  5
8F
  8
VOLL
 10
78.076754716981128
 20
31.025947764705851
 30
0.0
 40
1.8
  1

  7
GREEKS
  0
INSERT
  5
FA4
  8
ADSK_ASSOC_ENTITY_BACKUPS
  2
*S0
 10
0.0
 20
0.0
 30
0.0
  0
INSERT
  5
3067
  8
STEMPEL
  2
A$C63AF586A
 10
189.9806368236075116
 20
-137.4837423188953949
 30
-50.5760559993603991
  0
INSERT
  5
309F
  8
STEMPEL
  2
A$C086D19D6
 10
189.2643622326961008
 20
160.6081832745348947
 30
-50.576055999360193
  0
VIEWPORT
  5
702
 67
     1
  8
0
 10
99.9595808982848837
 20
142.0247198271484024
 30
0.0
 40
533.8638859178814755
 41
299.049422726727812
 68
     1
 69
     1
1001
ACAD
1000
MVIEW
1002
{
1070
    16
1010
0.0
1020
0.0
1030
0.0
1010
0.0
1020
0.0
1030
1.0
1040
0.0
1040
299.049422726727812
1040
99.9595808982848837
1040
142.0247198271484024
1040
50.0
1040
0.0
1040
0.0
1070
     0
1070
  1500
1070
     1
1070
     1
1070
     0
1070
     0
1070
     0
1070
     0
1040
0.0
1040
0.0
1040
0.0
1040
10.0
1040
10.0
1040
10.0
1040
10.0
1070
     0
1002
{
1002
}
1002
}
1001
GENIUS_GENOBJ-N-SDF_13
1002
{
1000
OWNER
1000
GEN
1002
}
1001
GENIUS_GENODEF_13
1002
{
1000
HIER
1070
     0
1002
}
1002
{
1000
MANEDIT
1070
     0
1002
}
1002
{
1000
NOSEL
1070
     0
1002
}
1002
{
1000
BEHIND
1070
     0
1002
}
1002
{
1000
OTHER
1070
     0
1002
}
1002
{
1000
REACTOR
1002
}
1001
GENIUS_GENSCREG_15
1000
PF
1040
1.0
1000
DF
1040
1.0
1000
MIN
1011
-149.950491058537807
1021
0.0
1031
0.0
1021
-27.7073005286993101
1031
0.0
1000
MAX
1011
512.0729983398707645
1021
0.0
1031
0.0
1021
259.0698210893331179
1031
0.0
1000
FLAGS
1070
     4
  0
ENDSEC
  0
EOF
