  0
SECTION
  2
HEADER
  9
$ACADVER
  1
AC1009
  9
$INSBASE
 10
0.0
 20
0.0
 30
0.0
  9
$EXTMIN
 10
877.2051530086440607
 20
-27.4358812172849902
 30
-38.9570038731638988
  9
$EXTMAX
 10
1077.343313164860092
 20
337.0616465917109963
 30
-38.9540318256820868
  9
$LIMMIN
 10
0.0
 20
0.0
  9
$LIMMAX
 10
419.9999999999998863
 20
594.0
  9
$ORTHOMODE
 70
     1
  9
$REGENMODE
 70
     1
  9
$FILLMODE
 70
     1
  9
$QTEXTMODE
 70
     0
  9
$MIRRTEXT
 70
     1
  9
$DRAGMODE
 70
     2
  9
$LTSCALE
 40
10.0
  9
$OSMODE
 70
  2495
  9
$ATTMODE
 70
     1
  9
$TEXTSIZE
 40
3.5
  9
$TRACEWID
 40
0.5
  9
$TEXTSTYLE
  7
STANDARD
  9
$CLAYER
  8
STEMPEL
  9
$CELTYPE
  6
BYLAYER
  9
$CECOLOR
 62
   256
  9
$DIMSCALE
 40
1.0
  9
$DIMASZ
 40
3.5
  9
$DIMEXO
 40
1.0
  9
$DIMDLI
 40
7.0
  9
$DIMRND
 40
0.0
  9
$DIMDLE
 40
0.0
  9
$DIMEXE
 40
1.0
  9
$DIMTP
 40
0.0
  9
$DIMTM
 40
0.0
  9
$DIMTXT
 40
3.5
  9
$DIMCEN
 40
1.5
  9
$DIMTSZ
 40
0.0
  9
$DIMTOL
 70
     0
  9
$DIMLIM
 70
     0
  9
$DIMTIH
 70
     0
  9
$DIMTOH
 70
     0
  9
$DIMSE1
 70
     0
  9
$DIMSE2
 70
     0
  9
$DIMTAD
 70
     1
  9
$DIMZIN
 70
     8
  9
$DIMBLK
  1

  9
$DIMASO
 70
     1
  9
$DIMSHO
 70
     0
  9
$DIMPOST
  1

  9
$DIMAPOST
  1

  9
$DIMALT
 70
     0
  9
$DIMALTD
 70
     2
  9
$DIMALTF
 40
25.3999999999999986
  9
$DIMLFAC
 40
2.0
  9
$DIMTOFL
 70
     1
  9
$DIMTVP
 40
0.0
  9
$DIMTIX
 70
     0
  9
$DIMSOXD
 70
     0
  9
$DIMSAH
 70
     0
  9
$DIMBLK1
  1

  9
$DIMBLK2
  1

  9
$DIMSTYLE
  2
STANDARD
  9
$DIMCLRD
 70
     0
  9
$DIMCLRE
 70
     0
  9
$DIMCLRT
 70
     1
  9
$DIMTFAC
 40
0.5142857142857143
  9
$DIMGAP
 40
1.5
  9
$LUNITS
 70
     2
  9
$LUPREC
 70
     2
  9
$SKETCHINC
 40
1.0
  9
$FILLETRAD
 40
10.0
  9
$AUNITS
 70
     0
  9
$AUPREC
 70
     0
  9
$MENU
  1
ACAD
  9
$ELEVATION
 40
0.0
  9
$PELEVATION
 40
0.0
  9
$THICKNESS
 40
0.0
  9
$LIMCHECK
 70
     0
  9
$BLIPMODE
 70
     0
  9
$CHAMFERA
 40
0.0
  9
$CHAMFERB
 40
0.0
  9
$SKPOLY
 70
     0
  9
$TDCREATE
 40
2455397.8646990740671754
  9
$TDUPDATE
 40
2459627.4639004641212523
  9
$TDINDWG
 40
0.44898125
  9
$TDUSRTIMER
 40
0.44898125
  9
$USRTIMER
 70
     1
  9
$ANGBASE
 50
0.0
  9
$ANGDIR
 70
     0
  9
$PDMODE
 70
     0
  9
$PDSIZE
 40
0.0
  9
$PLINEWID
 40
0.0
  9
$COORDS
 70
     1
  9
$SPLFRAME
 70
     0
  9
$SPLINETYPE
 70
     6
  9
$SPLINESEGS
 70
     8
  9
$ATTDIA
 70
     1
  9
$ATTREQ
 70
     1
  9
$HANDLING
 70
     1
  9
$HANDSEED
  5
39F0
  9
$SURFTAB1
 70
     6
  9
$SURFTAB2
 70
     6
  9
$SURFTYPE
 70
     6
  9
$SURFU
 70
     6
  9
$SURFV
 70
     6
  9
$UCSNAME
  2

  9
$UCSORG
 10
0.0
 20
0.0
 30
0.0
  9
$UCSXDIR
 10
1.0
 20
0.0
 30
0.0
  9
$UCSYDIR
 10
0.0
 20
1.0
 30
0.0
  9
$PUCSNAME
  2

  9
$PUCSORG
 10
0.0
 20
0.0
 30
0.0
  9
$PUCSXDIR
 10
1.0
 20
0.0
 30
0.0
  9
$PUCSYDIR
 10
0.0
 20
1.0
 30
0.0
  9
$USERI1
 70
     0
  9
$USERI2
 70
     0
  9
$USERI3
 70
     0
  9
$USERI4
 70
     0
  9
$USERI5
 70
     0
  9
$USERR1
 40
0.0
  9
$USERR2
 40
0.0
  9
$USERR3
 40
0.0
  9
$USERR4
 40
0.0
  9
$USERR5
 40
0.0
  9
$WORLDVIEW
 70
     1
  9
$SHADEDGE
 70
     3
  9
$SHADEDIF
 70
    70
  9
$TILEMODE
 70
     1
  9
$MAXACTVP
 70
    16
  9
$PLIMCHECK
 70
     0
  9
$PEXTMIN
 10
1.0000000000000000E+20
 20
1.0000000000000000E+20
 30
1.0000000000000000E+20
  9
$PEXTMAX
 10
-1.0000000000000000E+20
 20
-1.0000000000000000E+20
 30
-1.0000000000000000E+20
  9
$PLIMMIN
 10
-5.027082920074462
 20
-6.4382776093749987
  9
$PLIMMAX
 10
204.9462447166442871
 20
290.4877172636719251
  9
$UNITMODE
 70
     0
  9
$VISRETAIN
 70
     0
  9
$PLINEGEN
 70
     0
  9
$PSLTSCALE
 70
     0
  0
ENDSEC
  0
SECTION
  2
TABLES
  0
TABLE
  2
VPORT
 70
     1
  0
VPORT
  2
*ACTIVE
 70
     0
 10
0.0
 20
0.0
 11
1.0
 21
1.0
 12
5.4483783193219324
 22
-51.6562241823042996
 13
0.0
 23
0.0
 14
1.0
 24
1.0
 15
10.0
 25
10.0
 16
-0.0000000000002274
 26
0.0
 36
840.5008917504503643
 17
971.8258547674300871
 27
206.4691068695173044
 37
-19.4779075633661094
 40
367.1041847420758018
 41
1.7852028639618129
 42
50.0
 43
0.0
 44
0.0
 50
0.0
 51
0.0
 71
     0
 72
  1500
 73
     1
 74
     0
 75
     0
 76
     0
 77
     0
 78
     0
  0
ENDTAB
  0
TABLE
  2
LTYPE
 70
     4
  0
LTYPE
  2
CONTINUOUS
 70
     0
  3
Solid line
 72
    65
 73
     0
 40
0.0
  0
LTYPE
  2
PHANTOM2
 70
     0
  3
Phantom (.5x) ___ _ _ ___ _ _ ___ _ _ ___ _ _
 72
    65
 73
     6
 40
1.25
 49
0.625
 49
-0.125
 49
0.125
 49
-0.125
 49
0.125
 49
-0.125
  0
LTYPE
  2
AUSGEZOGEN
 70
     0
  3
Ausgezogene Linie
 72
    65
 73
     0
 40
0.0
  0
LTYPE
  2
VERDECKT
 70
     0
  3
Verdeckt __ __ __ __ __ __ __ __ __ __ __ __ __
 72
    65
 73
     2
 40
0.375
 49
0.25
 49
-0.125
  0
ENDTAB
  0
TABLE
  2
LAYER
 70
     6
  0
LAYER
  2
0
 70
     0
 62
     7
  6
CONTINUOUS
  0
LAYER
  2
VOLL
 70
     0
 62
     1
  6
CONTINUOUS
  0
LAYER
  2
STEMPEL
 70
     0
 62
     3
  6
CONTINUOUS
  0
LAYER
  2
DEFPOINTS
 70
     0
 62
     7
  6
CONTINUOUS
  0
LAYER
  2
ADSK_ASSOC_ENTITY_BACKUPS
 70
     1
 62
    -7
  6
CONTINUOUS
  0
ENDTAB
  0
TABLE
  2
STYLE
 70
     3
  0
STYLE
  2
STANDARD
 70
     0
 40
0.0
 41
0.8
 50
0.0
 71
     0
 42
3.5
  3
simplex.shx
  4

  0
STYLE
  2
GREEKS
 70
     0
 40
0.0
 41
0.8
 50
0.0
 71
     0
 42
2.5
  3
SIMPLEX.shx
  4

  0
ENDTAB
  0
TABLE
  2
VIEW
 70
     0
  0
ENDTAB
  0
TABLE
  2
UCS
 70
     0
  0
ENDTAB
  0
TABLE
  2
APPID
 70
    33
  0
APPID
  2
ACAD
 70
     0
  0
APPID
  2
ACAD_EXEMPT_FROM_CAD_STANDARDS
 70
     0
  0
APPID
  2
ACAD_NAV_VCDISPLAY
 70
     0
  0
APPID
  2
ACAECLAYERSTANDARD
 70
     0
  0
APPID
  2
ACCMTRANSPARENCY
 70
     0
  0
APPID
  2
ACAD_PSEXT
 70
     0
  0
APPID
  2
GRADIENTCOLOR1ACI
 70
     0
  0
APPID
  2
GRADIENTCOLOR2ACI
 70
     0
  0
APPID
  2
ACAD_MLEADERVER
 70
     0
  0
APPID
  2
ACAD_OBJECT_CHANGE_GUID
 70
     0
  0
APPID
  2
MCAD_NO_VIS
 70
     0
  0
APPID
  2
ACAD_TEMP_GRAPHIC
 70
     0
  0
APPID
  2
ACATTRIBSERVICES
 70
     0
  0
APPID
  2
DESIGNERASSEMBLIES
 70
     0
  0
APPID
  2
ACAD_DSTYLE_DIMJAG
 70
     0
  0
APPID
  2
ACAD_DSTYLE_DIMBREAK
 70
     0
  0
APPID
  2
GENIUS_GENSCREG_15
 70
     0
  0
APPID
  2
GENIUS_GENOBJ-N-SDF_13
 70
     0
  0
APPID
  2
GENIUS_GENODEF_13
 70
     0
  0
APPID
  2
RAK
 70
     0
  0
APPID
  2
ACAUTHENVIRON
 70
     0
  0
APPID
  2
ACDBDYNAMICBLOCKTRUENAME
 70
     0
  0
APPID
  2
ACDBDYNAMICBLOCKGUID
 70
     0
  0
APPID
  2
ACSYNERGY
 70
     0
  0
APPID
  2
SYNERGY_BODY_TBR_ID
 70
     0
  0
APPID
  2
ACAD_VIEW_EDGE_ID
 70
     0
  0
APPID
  2
ACSYNERGYSKETCH
 70
     0
  0
APPID
  2
ACAD_STEPID
 70
     0
  0
APPID
  2
ACAD_MODELDOC_XFORM
 70
     0
  0
APPID
  2
GENIUS_GENDTOL_13
 70
     0
  0
APPID
  2
ACAD_DSTYLE_DIMINSPECT
 70
     0
  0
APPID
  2
ACADANNOMONITORALERTICONDI
 70
     0
  0
APPID
  2
ACAD_DSTYLE_DIMTALN
 70
     0
  0
ENDTAB
  0
TABLE
  2
DIMSTYLE
 70
     1
  0
DIMSTYLE
  2
STANDARD
 70
     0
  3

  4

  5

  6

  7

 40
1.0
 41
0.18
 42
0.0625
 43
0.38
 44
0.18
 45
0.0
 46
0.0
 47
0.0
 48
0.0
140
0.18
141
0.09
142
0.0
143
25.3999999999999986
144
1.0
145
0.0
146
1.0
147
0.09
 71
     0
 72
     0
 73
     1
 74
     1
 75
     0
 76
     0
 77
     0
 78
     0
170
     0
171
     2
172
     0
173
     0
174
     0
175
     0
176
     0
177
     0
178
     0
  0
ENDTAB
  0
ENDSEC
  0
SECTION
  2
BLOCKS
  0
BLOCK
  8
0
  2
$MODEL_SPACE
 70
     0
 10
0.0
 20
0.0
 30
0.0
  3
$MODEL_SPACE
  1

  0
ENDBLK
  5
36
  8
0
  0
BLOCK
 67
     1
  8
0
  2
$PAPER_SPACE
 70
     0
 10
0.0
 20
0.0
 30
0.0
  3
$PAPER_SPACE
  1

  0
ENDBLK
  5
34
 67
     1
  8
0
  0
BLOCK
  8
0
  2
*S0
 70
     1
 10
0.0
 20
0.0
 30
0.0
  3
*S0
  1

  0
ENDBLK
  5
FA2
  8
0
  0
BLOCK
  8
0
  2
A$C17068CC4
 70
     0
 10
0.0
 20
0.0
 30
0.0
  3
A$C17068CC4
  1

  0
CIRCLE
  5
31AF
  8
0
 10
644.9427227638384466
 20
211.6036107500119101
 30
-0.0000000000001847
 40
9.0
  0
CIRCLE
  5
31B0
  8
0
 10
644.9427227638384466
 20
98.4665257601643162
 30
-0.0000000000001847
 40
9.0
  0
CIRCLE
  5
31B1
  8
0
 10
758.0798077536860546
 20
98.4665257601643162
 30
-0.0000000000002203
 40
9.0
  0
CIRCLE
  5
31B2
  8
0
 10
758.0798077536860546
 20
211.6036107500119101
 30
-0.0000000000002203
 40
9.0
  0
CIRCLE
  5
31B3
  8
0
 10
781.5112652587622506
 20
155.0350682550881061
 30
-0.0000000000002203
 40
9.0
  0
CIRCLE
  5
31B4
  8
0
 10
701.5112652587622506
 20
75.0350682550881061
 30
-0.000000000000199
 40
9.0
  0
CIRCLE
  5
31B5
  8
0
 10
621.5112652587622506
 20
155.0350682550881061
 30
-0.0000000000001776
 40
9.0
  0
CIRCLE
  5
31B6
  8
0
 10
701.5112652587622506
 20
235.0350682550881061
 30
-0.000000000000199
 40
9.0
  0
CIRCLE
  5
31B7
  8
0
 10
701.5112652587622506
 20
155.0350682550881061
 30
-0.000000000000199
 40
99.9999999999999858
  0
CIRCLE
  5
31B8
  8
0
 10
701.5112652587622506
 20
155.0350682550881061
 30
-0.000000000000199
 40
41.2500000000000213
  0
CIRCLE
  5
31B9
  8
0
 10
701.5112652587622506
 20
155.0350682550881061
 30
-0.000000000000199
 40
42.8999999999998565
  0
CIRCLE
  5
31BA
  8
0
 10
701.5112652587622506
 20
155.0350682550881061
 30
-0.000000000000199
 40
46.3153122110811069
  0
CIRCLE
  5
31BB
  8
0
 10
701.5112652587622506
 20
155.0350682550881061
 30
-0.000000000000199
 40
51.0999999999997883
  0
CIRCLE
  5
31BC
  8
0
 10
701.5112652587622506
 20
155.0350682550881061
 30
-0.000000000000199
 40
47.7654046703397626
  0
CIRCLE
  5
31BD
  8
0
 10
701.5112652587622506
 20
155.0350682550881061
 30
-0.000000000000199
 40
45.9996636664194227
  0
CIRCLE
  5
31BE
  8
0
  6
VERDECKT
 62
     1
 10
701.5112652587622506
 20
155.0350682550881061
 30
-0.000000000000199
 40
44.4500000000000171
  0
ARC
  5
31BF
  8
0
  6
VERDECKT
 62
     1
 10
701.5112652587623643
 20
155.0350682550879924
 30
-0.000000000000199
 40
72.0000000000001421
 50
93.1130727721600522
 51
131.8869272278400899
  0
ARC
  5
31C0
  8
0
  6
VERDECKT
 62
     1
 10
701.5112652587623643
 20
155.0350682550885892
 30
-0.000000000000199
 40
71.9999999999994884
 50
48.1130727721597893
 51
86.8869272278401041
  0
ARC
  5
31C1
  8
0
  6
VERDECKT
 62
     1
 10
701.5112652587629327
 20
155.035068255088504
 30
-0.000000000000199
 40
71.999999999999261
 50
3.1130727721597409
 51
41.8869272278401468
  0
ARC
  5
31C2
  8
0
  6
VERDECKT
 62
     1
 10
701.5112652587625917
 20
155.0350682550879071
 30
-0.000000000000199
 40
71.9999999999994884
 50
318.1130727721599101
 51
356.8869272278402036
  0
ARC
  5
31C3
  8
0
  6
VERDECKT
 62
     1
 10
701.5112652587622506
 20
155.0350682550879924
 30
-0.000000000000199
 40
71.9999999999999716
 50
273.1130727721600238
 51
311.8869272278399762
  0
ARC
  5
31C4
  8
0
  6
VERDECKT
 62
     1
 10
701.5112652587622506
 20
155.0350682550879924
 30
-0.000000000000199
 40
71.9999999999999005
 50
228.1130727721597964
 51
266.8869272278399762
  0
ARC
  5
31C5
  8
0
  6
VERDECKT
 62
     1
 10
701.5112652587617958
 20
155.0350682550879071
 30
-0.000000000000199
 40
71.9999999999996163
 50
183.1130727721597964
 51
221.8869272278400047
  0
ARC
  5
31C6
  8
0
  6
VERDECKT
 62
     1
 10
701.5112652587620232
 20
155.035068255088305
 30
-0.000000000000199
 40
71.9999999999997158
 50
138.1130727721599101
 51
176.8869272278400899
  0
CIRCLE
  5
31C7
  8
0
  6
VERDECKT
 62
     1
 10
701.5112652587622506
 20
155.0350682550881061
 30
-0.000000000000199
 40
69.0
  0
CIRCLE
  5
31C8
  8
0
  6
VERDECKT
 62
     1
 10
701.5112652587622506
 20
155.0350682550881061
 30
-0.000000000000199
 40
44.5
  0
CIRCLE
  5
31C9
  8
0
  6
VERDECKT
 62
     1
 10
701.5112652587622506
 20
155.0350682550881061
 30
-0.000000000000199
 40
49.4999999999997726
  0
CIRCLE
  5
31CA
  8
0
  6
VERDECKT
 62
     1
 10
701.5112652587622506
 20
155.0350682550881061
 30
-0.000000000000199
 40
45.9999999999998792
  0
CIRCLE
  5
31CB
  8
0
  6
VERDECKT
 62
     1
 10
701.5112652587622506
 20
155.0350682550881061
 30
-0.000000000000199
 40
47.5999999999999019
  0
ENDBLK
  5
31CD
  8
0
  0
BLOCK
  8
0
  2
A$C90E41D85
 70
     0
 10
0.0
 20
0.0
 30
0.0
  3
A$C90E41D85
  1

  0
POLYLINE
  8
0
  5
32A6
  66
     1
 10
0.000000
 20
0.000000
 30
0.000000
  70
     8
  0
VERTEX
  8
0
  5
32A7
 10
653.440
 20
39.6503
 30
-8.80000e-15
  70
    32
  0
VERTEX
  8
0
  5
32A8
 10
653.434
 20
39.6420
 30
-8.79991e-15
  70
    32
  0
VERTEX
  8
0
  5
32A9
 10
653.428
 20
39.6338
 30
-8.79965e-15
  70
    32
  0
VERTEX
  8
0
  5
32AA
 10
653.422
 20
39.6255
 30
-8.79923e-15
  70
    32
  0
VERTEX
  8
0
  5
32AB
 10
653.417
 20
39.6173
 30
-8.79864e-15
  70
    32
  0
VERTEX
  8
0
  5
32AC
 10
653.411
 20
39.6091
 30
-8.79791e-15
  70
    32
  0
VERTEX
  8
0
  5
32AD
 10
653.405
 20
39.6009
 30
-8.79702e-15
  70
    32
  0
VERTEX
  8
0
  5
32AE
 10
653.399
 20
39.5927
 30
-8.79599e-15
  70
    32
  0
VERTEX
  8
0
  5
32AF
 10
653.393
 20
39.5846
 30
-8.79483e-15
  70
    32
  0
VERTEX
  8
0
  5
32B0
 10
653.387
 20
39.5765
 30
-8.79354e-15
  70
    32
  0
VERTEX
  8
0
  5
32B1
 10
653.381
 20
39.5684
 30
-8.79213e-15
  70
    32
  0
VERTEX
  8
0
  5
32B2
 10
653.375
 20
39.5604
 30
-8.79060e-15
  70
    32
  0
VERTEX
  8
0
  5
32B3
 10
653.369
 20
39.5524
 30
-8.78896e-15
  70
    32
  0
VERTEX
  8
0
  5
32B4
 10
653.363
 20
39.5444
 30
-8.78722e-15
  70
    32
  0
VERTEX
  8
0
  5
32B5
 10
653.356
 20
39.5364
 30
-8.78538e-15
  70
    32
  0
VERTEX
  8
0
  5
32B6
 10
653.350
 20
39.5285
 30
-8.78344e-15
  70
    32
  0
VERTEX
  8
0
  5
32B7
 10
653.344
 20
39.5205
 30
-8.78142e-15
  70
    32
  0
VERTEX
  8
0
  5
32B8
 10
653.338
 20
39.5127
 30
-8.77932e-15
  70
    32
  0
VERTEX
  8
0
  5
32B9
 10
653.331
 20
39.5048
 30
-8.77715e-15
  70
    32
  0
VERTEX
  8
0
  5
32BA
 10
653.325
 20
39.4970
 30
-8.77491e-15
  70
    32
  0
VERTEX
  8
0
  5
32BB
 10
653.319
 20
39.4892
 30
-8.77261e-15
  70
    32
  0
VERTEX
  8
0
  5
32BC
 10
653.312
 20
39.4814
 30
-8.77025e-15
  70
    32
  0
VERTEX
  8
0
  5
32BD
 10
653.306
 20
39.4737
 30
-8.76784e-15
  70
    32
  0
VERTEX
  8
0
  5
32BE
 10
653.299
 20
39.4659
 30
-8.76539e-15
  70
    32
  0
VERTEX
  8
0
  5
32BF
 10
653.293
 20
39.4582
 30
-8.76290e-15
  70
    32
  0
VERTEX
  8
0
  5
32C0
 10
653.286
 20
39.4506
 30
-8.76038e-15
  70
    32
  0
VERTEX
  8
0
  5
32C1
 10
653.280
 20
39.4430
 30
-8.75784e-15
  70
    32
  0
VERTEX
  8
0
  5
32C2
 10
653.273
 20
39.4354
 30
-8.75528e-15
  70
    32
  0
VERTEX
  8
0
  5
32C3
 10
653.266
 20
39.4278
 30
-8.75270e-15
  70
    32
  0
VERTEX
  8
0
  5
32C4
 10
653.260
 20
39.4203
 30
-8.75012e-15
  70
    32
  0
VERTEX
  8
0
  5
32C5
 10
653.253
 20
39.4127
 30
-8.74754e-15
  70
    32
  0
VERTEX
  8
0
  5
32C6
 10
653.246
 20
39.4053
 30
-8.74497e-15
  70
    32
  0
VERTEX
  8
0
  5
32C7
 10
653.239
 20
39.3978
 30
-8.74240e-15
  70
    32
  0
VERTEX
  8
0
  5
32C8
 10
653.232
 20
39.3904
 30
-8.73986e-15
  70
    32
  0
VERTEX
  8
0
  5
32C9
 10
653.225
 20
39.3830
 30
-8.73734e-15
  70
    32
  0
VERTEX
  8
0
  5
32CA
 10
653.218
 20
39.3756
 30
-8.73485e-15
  70
    32
  0
VERTEX
  8
0
  5
32CB
 10
653.211
 20
39.3683
 30
-8.73239e-15
  70
    32
  0
VERTEX
  8
0
  5
32CC
 10
653.204
 20
39.3610
 30
-8.72998e-15
  70
    32
  0
VERTEX
  8
0
  5
32CD
 10
653.197
 20
39.3537
 30
-8.72762e-15
  70
    32
  0
VERTEX
  8
0
  5
32CE
 10
653.190
 20
39.3465
 30
-8.72531e-15
  70
    32
  0
VERTEX
  8
0
  5
32CF
 10
653.183
 20
39.3393
 30
-8.72306e-15
  70
    32
  0
VERTEX
  8
0
  5
32D0
 10
653.176
 20
39.3321
 30
-8.72088e-15
  70
    32
  0
VERTEX
  8
0
  5
32D1
 10
653.169
 20
39.3250
 30
-8.71877e-15
  70
    32
  0
VERTEX
  8
0
  5
32D2
 10
653.162
 20
39.3179
 30
-8.71675e-15
  70
    32
  0
VERTEX
  8
0
  5
32D3
 10
653.154
 20
39.3108
 30
-8.71480e-15
  70
    32
  0
VERTEX
  8
0
  5
32D4
 10
653.147
 20
39.3037
 30
-8.71295e-15
  70
    32
  0
VERTEX
  8
0
  5
32D5
 10
653.140
 20
39.2967
 30
-8.71120e-15
  70
    32
  0
VERTEX
  8
0
  5
32D6
 10
653.132
 20
39.2897
 30
-8.70955e-15
  70
    32
  0
VERTEX
  8
0
  5
32D7
 10
653.125
 20
39.2828
 30
-8.70801e-15
  70
    32
  0
VERTEX
  8
0
  5
32D8
 10
653.118
 20
39.2758
 30
-8.70659e-15
  70
    32
  0
VERTEX
  8
0
  5
32D9
 10
653.110
 20
39.2690
 30
-8.70528e-15
  70
    32
  0
VERTEX
  8
0
  5
32DA
 10
653.103
 20
39.2621
 30
-8.70411e-15
  70
    32
  0
VERTEX
  8
0
  5
32DB
 10
653.095
 20
39.2553
 30
-8.70307e-15
  70
    32
  0
VERTEX
  8
0
  5
32DC
 10
653.087
 20
39.2485
 30
-8.70217e-15
  70
    32
  0
VERTEX
  8
0
  5
32DD
 10
653.080
 20
39.2417
 30
-8.70142e-15
  70
    32
  0
VERTEX
  8
0
  5
32DE
 10
653.072
 20
39.2350
 30
-8.70082e-15
  70
    32
  0
VERTEX
  8
0
  5
32DF
 10
653.064
 20
39.2283
 30
-8.70038e-15
  70
    32
  0
VERTEX
  8
0
  5
32E0
 10
653.057
 20
39.2217
 30
-8.70011e-15
  70
    32
  0
VERTEX
  8
0
  5
32E1
 10
653.049
 20
39.2150
 30
-8.70000e-15
  70
    32
  0
VERTEX
  8
0
  5
32E2
 10
653.041
 20
39.2085
 30
-8.69996e-15
  70
    32
  0
VERTEX
  8
0
  5
32E3
 10
653.033
 20
39.2019
 30
-8.69984e-15
  70
    32
  0
VERTEX
  8
0
  5
32E4
 10
653.025
 20
39.1954
 30
-8.69964e-15
  70
    32
  0
VERTEX
  8
0
  5
32E5
 10
653.018
 20
39.1889
 30
-8.69935e-15
  70
    32
  0
VERTEX
  8
0
  5
32E6
 10
653.010
 20
39.1824
 30
-8.69899e-15
  70
    32
  0
VERTEX
  8
0
  5
32E7
 10
653.002
 20
39.1760
 30
-8.69854e-15
  70
    32
  0
VERTEX
  8
0
  5
32E8
 10
652.994
 20
39.1696
 30
-8.69803e-15
  70
    32
  0
VERTEX
  8
0
  5
32E9
 10
652.985
 20
39.1633
 30
-8.69743e-15
  70
    32
  0
VERTEX
  8
0
  5
32EA
 10
652.977
 20
39.1570
 30
-8.69677e-15
  70
    32
  0
VERTEX
  8
0
  5
32EB
 10
652.969
 20
39.1507
 30
-8.69604e-15
  70
    32
  0
VERTEX
  8
0
  5
32EC
 10
652.961
 20
39.1445
 30
-8.69524e-15
  70
    32
  0
VERTEX
  8
0
  5
32ED
 10
652.953
 20
39.1383
 30
-8.69438e-15
  70
    32
  0
VERTEX
  8
0
  5
32EE
 10
652.945
 20
39.1321
 30
-8.69346e-15
  70
    32
  0
VERTEX
  8
0
  5
32EF
 10
652.936
 20
39.1259
 30
-8.69247e-15
  70
    32
  0
VERTEX
  8
0
  5
32F0
 10
652.928
 20
39.1198
 30
-8.69143e-15
  70
    32
  0
VERTEX
  8
0
  5
32F1
 10
652.920
 20
39.1138
 30
-8.69033e-15
  70
    32
  0
VERTEX
  8
0
  5
32F2
 10
652.911
 20
39.1077
 30
-8.68917e-15
  70
    32
  0
VERTEX
  8
0
  5
32F3
 10
652.903
 20
39.1017
 30
-8.68797e-15
  70
    32
  0
VERTEX
  8
0
  5
32F4
 10
652.894
 20
39.0958
 30
-8.68671e-15
  70
    32
  0
VERTEX
  8
0
  5
32F5
 10
652.886
 20
39.0899
 30
-8.68541e-15
  70
    32
  0
VERTEX
  8
0
  5
32F6
 10
652.877
 20
39.0840
 30
-8.68406e-15
  70
    32
  0
VERTEX
  8
0
  5
32F7
 10
652.869
 20
39.0781
 30
-8.68267e-15
  70
    32
  0
VERTEX
  8
0
  5
32F8
 10
652.860
 20
39.0723
 30
-8.68124e-15
  70
    32
  0
VERTEX
  8
0
  5
32F9
 10
652.852
 20
39.0665
 30
-8.67977e-15
  70
    32
  0
VERTEX
  8
0
  5
32FA
 10
652.843
 20
39.0608
 30
-8.67826e-15
  70
    32
  0
VERTEX
  8
0
  5
32FB
 10
652.834
 20
39.0551
 30
-8.67671e-15
  70
    32
  0
VERTEX
  8
0
  5
32FC
 10
652.825
 20
39.0494
 30
-8.67514e-15
  70
    32
  0
VERTEX
  8
0
  5
32FD
 10
652.817
 20
39.0437
 30
-8.67353e-15
  70
    32
  0
VERTEX
  8
0
  5
32FE
 10
652.808
 20
39.0381
 30
-8.67189e-15
  70
    32
  0
VERTEX
  8
0
  5
32FF
 10
652.799
 20
39.0326
 30
-8.67023e-15
  70
    32
  0
VERTEX
  8
0
  5
3300
 10
652.790
 20
39.0271
 30
-8.66854e-15
  70
    32
  0
VERTEX
  8
0
  5
3301
 10
652.781
 20
39.0216
 30
-8.66684e-15
  70
    32
  0
VERTEX
  8
0
  5
3302
 10
652.772
 20
39.0161
 30
-8.66511e-15
  70
    32
  0
VERTEX
  8
0
  5
3303
 10
652.763
 20
39.0107
 30
-8.66336e-15
  70
    32
  0
VERTEX
  8
0
  5
3304
 10
652.754
 20
39.0053
 30
-8.66160e-15
  70
    32
  0
VERTEX
  8
0
  5
3305
 10
652.745
 20
39.0000
 30
-8.65982e-15
  70
    32
  0
VERTEX
  8
0
  5
3306
 10
652.736
 20
38.9947
 30
-8.65803e-15
  70
    32
  0
VERTEX
  8
0
  5
3307
 10
652.727
 20
38.9894
 30
-8.65624e-15
  70
    32
  0
VERTEX
  8
0
  5
3308
 10
652.718
 20
38.9842
 30
-8.65443e-15
  70
    32
  0
VERTEX
  8
0
  5
3309
 10
652.708
 20
38.9790
 30
-8.65262e-15
  70
    32
  0
VERTEX
  8
0
  5
330A
 10
652.699
 20
38.9739
 30
-8.65081e-15
  70
    32
  0
VERTEX
  8
0
  5
330B
 10
652.690
 20
38.9687
 30
-8.64900e-15
  70
    32
  0
VERTEX
  8
0
  5
330C
 10
652.681
 20
38.9637
 30
-8.64718e-15
  70
    32
  0
VERTEX
  8
0
  5
330D
 10
652.671
 20
38.9586
 30
-8.64538e-15
  70
    32
  0
VERTEX
  8
0
  5
330E
 10
652.662
 20
38.9536
 30
-8.64357e-15
  70
    32
  0
VERTEX
  8
0
  5
330F
 10
652.653
 20
38.9487
 30
-8.64178e-15
  70
    32
  0
VERTEX
  8
0
  5
3310
 10
652.643
 20
38.9437
 30
-8.63999e-15
  70
    32
  0
VERTEX
  8
0
  5
3311
 10
652.634
 20
38.9389
 30
-8.63821e-15
  70
    32
  0
VERTEX
  8
0
  5
3312
 10
652.624
 20
38.9340
 30
-8.63645e-15
  70
    32
  0
VERTEX
  8
0
  5
3313
 10
652.615
 20
38.9292
 30
-8.63471e-15
  70
    32
  0
VERTEX
  8
0
  5
3314
 10
652.605
 20
38.9244
 30
-8.63298e-15
  70
    32
  0
VERTEX
  8
0
  5
3315
 10
652.595
 20
38.9197
 30
-8.63128e-15
  70
    32
  0
VERTEX
  8
0
  5
3316
 10
652.586
 20
38.9150
 30
-8.62959e-15
  70
    32
  0
VERTEX
  8
0
  5
3317
 10
652.576
 20
38.9104
 30
-8.62793e-15
  70
    32
  0
VERTEX
  8
0
  5
3318
 10
652.566
 20
38.9057
 30
-8.62630e-15
  70
    32
  0
VERTEX
  8
0
  5
3319
 10
652.557
 20
38.9012
 30
-8.62469e-15
  70
    32
  0
VERTEX
  8
0
  5
331A
 10
652.547
 20
38.8966
 30
-8.62312e-15
  70
    32
  0
VERTEX
  8
0
  5
331B
 10
652.537
 20
38.8921
 30
-8.62158e-15
  70
    32
  0
VERTEX
  8
0
  5
331C
 10
652.527
 20
38.8877
 30
-8.62008e-15
  70
    32
  0
VERTEX
  8
0
  5
331D
 10
652.517
 20
38.8833
 30
-8.61861e-15
  70
    32
  0
VERTEX
  8
0
  5
331E
 10
652.507
 20
38.8789
 30
-8.61718e-15
  70
    32
  0
VERTEX
  8
0
  5
331F
 10
652.497
 20
38.8746
 30
-8.61579e-15
  70
    32
  0
VERTEX
  8
0
  5
3320
 10
652.487
 20
38.8703
 30
-8.61445e-15
  70
    32
  0
VERTEX
  8
0
  5
3321
 10
652.477
 20
38.8660
 30
-8.61315e-15
  70
    32
  0
VERTEX
  8
0
  5
3322
 10
652.467
 20
38.8618
 30
-8.61190e-15
  70
    32
  0
VERTEX
  8
0
  5
3323
 10
652.457
 20
38.8576
 30
-8.61070e-15
  70
    32
  0
VERTEX
  8
0
  5
3324
 10
652.447
 20
38.8535
 30
-8.60955e-15
  70
    32
  0
VERTEX
  8
0
  5
3325
 10
652.437
 20
38.8494
 30
-8.60846e-15
  70
    32
  0
VERTEX
  8
0
  5
3326
 10
652.427
 20
38.8453
 30
-8.60742e-15
  70
    32
  0
VERTEX
  8
0
  5
3327
 10
652.417
 20
38.8413
 30
-8.60644e-15
  70
    32
  0
VERTEX
  8
0
  5
3328
 10
652.406
 20
38.8373
 30
-8.60552e-15
  70
    32
  0
VERTEX
  8
0
  5
3329
 10
652.396
 20
38.8334
 30
-8.60467e-15
  70
    32
  0
VERTEX
  8
0
  5
332A
 10
652.386
 20
38.8295
 30
-8.60388e-15
  70
    32
  0
VERTEX
  8
0
  5
332B
 10
652.375
 20
38.8257
 30
-8.60315e-15
  70
    32
  0
VERTEX
  8
0
  5
332C
 10
652.365
 20
38.8218
 30
-8.60250e-15
  70
    32
  0
VERTEX
  8
0
  5
332D
 10
652.355
 20
38.8181
 30
-8.60192e-15
  70
    32
  0
VERTEX
  8
0
  5
332E
 10
652.344
 20
38.8143
 30
-8.60141e-15
  70
    32
  0
VERTEX
  8
0
  5
332F
 10
652.334
 20
38.8107
 30
-8.60097e-15
  70
    32
  0
VERTEX
  8
0
  5
3330
 10
652.323
 20
38.8070
 30
-8.60061e-15
  70
    32
  0
VERTEX
  8
0
  5
3331
 10
652.313
 20
38.8034
 30
-8.60034e-15
  70
    32
  0
VERTEX
  8
0
  5
3332
 10
652.302
 20
38.7999
 30
-8.60014e-15
  70
    32
  0
VERTEX
  8
0
  5
3333
 10
652.291
 20
38.7963
 30
-8.60003e-15
  70
    32
  0
VERTEX
  8
0
  5
3334
 10
652.281
 20
38.7929
 30
-8.60000e-15
  70
    32
  0
VERTEX
  8
0
  5
3335
 10
652.270
 20
38.7894
 30
-8.60000e-15
  70
    32
  0
VERTEX
  8
0
  5
3336
 10
652.259
 20
38.7860
 30
-8.60000e-15
  70
    32
  0
VERTEX
  8
0
  5
3337
 10
652.249
 20
38.7827
 30
-8.60000e-15
  70
    32
  0
VERTEX
  8
0
  5
3338
 10
652.238
 20
38.7794
 30
-8.60000e-15
  70
    32
  0
VERTEX
  8
0
  5
3339
 10
652.227
 20
38.7761
 30
-8.60000e-15
  70
    32
  0
VERTEX
  8
0
  5
333A
 10
652.216
 20
38.7729
 30
-8.60000e-15
  70
    32
  0
VERTEX
  8
0
  5
333B
 10
652.205
 20
38.7697
 30
-8.60000e-15
  70
    32
  0
VERTEX
  8
0
  5
333C
 10
652.195
 20
38.7665
 30
-8.60000e-15
  70
    32
  0
VERTEX
  8
0
  5
333D
 10
652.184
 20
38.7634
 30
-8.60000e-15
  70
    32
  0
VERTEX
  8
0
  5
333E
 10
652.173
 20
38.7604
 30
-8.60000e-15
  70
    32
  0
VERTEX
  8
0
  5
333F
 10
652.162
 20
38.7574
 30
-8.60000e-15
  70
    32
  0
VERTEX
  8
0
  5
3340
 10
652.151
 20
38.7544
 30
-8.60000e-15
  70
    32
  0
VERTEX
  8
0
  5
3341
 10
652.140
 20
38.7515
 30
-8.60000e-15
  70
    32
  0
VERTEX
  8
0
  5
3342
 10
652.129
 20
38.7486
 30
-8.60000e-15
  70
    32
  0
VERTEX
  8
0
  5
3343
 10
652.118
 20
38.7457
 30
-8.60000e-15
  70
    32
  0
VERTEX
  8
0
  5
3344
 10
652.106
 20
38.7429
 30
-8.60000e-15
  70
    32
  0
VERTEX
  8
0
  5
3345
 10
652.095
 20
38.7401
 30
-8.60000e-15
  70
    32
  0
VERTEX
  8
0
  5
3346
 10
652.084
 20
38.7374
 30
-8.60000e-15
  70
    32
  0
VERTEX
  8
0
  5
3347
 10
652.073
 20
38.7347
 30
-8.60000e-15
  70
    32
  0
VERTEX
  8
0
  5
3348
 10
652.062
 20
38.7321
 30
-8.60000e-15
  70
    32
  0
VERTEX
  8
0
  5
3349
 10
652.050
 20
38.7295
 30
-8.60000e-15
  70
    32
  0
VERTEX
  8
0
  5
334A
 10
652.039
 20
38.7269
 30
-8.60000e-15
  70
    32
  0
VERTEX
  8
0
  5
334B
 10
652.028
 20
38.7244
 30
-8.60000e-15
  70
    32
  0
VERTEX
  8
0
  5
334C
 10
652.016
 20
38.7220
 30
-8.60000e-15
  70
    32
  0
VERTEX
  8
0
  5
334D
 10
652.005
 20
38.7195
 30
-8.60000e-15
  70
    32
  0
VERTEX
  8
0
  5
334E
 10
651.993
 20
38.7171
 30
-8.60000e-15
  70
    32
  0
VERTEX
  8
0
  5
334F
 10
651.982
 20
38.7148
 30
-8.60000e-15
  70
    32
  0
VERTEX
  8
0
  5
3350
 10
651.971
 20
38.7125
 30
-8.60000e-15
  70
    32
  0
VERTEX
  8
0
  5
3351
 10
651.959
 20
38.7102
 30
-8.60000e-15
  70
    32
  0
VERTEX
  8
0
  5
3352
 10
651.948
 20
38.7080
 30
-8.60000e-15
  70
    32
  0
VERTEX
  8
0
  5
3353
 10
651.936
 20
38.7058
 30
-8.60000e-15
  70
    32
  0
VERTEX
  8
0
  5
3354
 10
651.924
 20
38.7037
 30
-8.60000e-15
  70
    32
  0
VERTEX
  8
0
  5
3355
 10
651.913
 20
38.7016
 30
-8.60000e-15
  70
    32
  0
VERTEX
  8
0
  5
3356
 10
651.901
 20
38.6996
 30
-8.60000e-15
  70
    32
  0
VERTEX
  8
0
  5
3357
 10
651.889
 20
38.6976
 30
-8.60000e-15
  70
    32
  0
VERTEX
  8
0
  5
3358
 10
651.878
 20
38.6956
 30
-8.60000e-15
  70
    32
  0
VERTEX
  8
0
  5
3359
 10
651.866
 20
38.6937
 30
-8.60000e-15
  70
    32
  0
VERTEX
  8
0
  5
335A
 10
651.854
 20
38.6918
 30
-8.60000e-15
  70
    32
  0
VERTEX
  8
0
  5
335B
 10
651.843
 20
38.6899
 30
-8.60000e-15
  70
    32
  0
VERTEX
  8
0
  5
335C
 10
651.831
 20
38.6881
 30
-8.60000e-15
  70
    32
  0
VERTEX
  8
0
  5
335D
 10
651.819
 20
38.6864
 30
-8.60000e-15
  70
    32
  0
VERTEX
  8
0
  5
335E
 10
651.807
 20
38.6847
 30
-8.60000e-15
  70
    32
  0
VERTEX
  8
0
  5
335F
 10
651.795
 20
38.6830
 30
-8.60000e-15
  70
    32
  0
VERTEX
  8
0
  5
3360
 10
651.783
 20
38.6814
 30
-8.60000e-15
  70
    32
  0
VERTEX
  8
0
  5
3361
 10
651.771
 20
38.6798
 30
-8.60000e-15
  70
    32
  0
VERTEX
  8
0
  5
3362
 10
651.759
 20
38.6782
 30
-8.60000e-15
  70
    32
  0
VERTEX
  8
0
  5
3363
 10
651.747
 20
38.6767
 30
-8.60000e-15
  70
    32
  0
VERTEX
  8
0
  5
3364
 10
651.735
 20
38.6752
 30
-8.60000e-15
  70
    32
  0
VERTEX
  8
0
  5
3365
 10
651.723
 20
38.6738
 30
-8.60000e-15
  70
    32
  0
VERTEX
  8
0
  5
3366
 10
651.711
 20
38.6724
 30
-8.60000e-15
  70
    32
  0
VERTEX
  8
0
  5
3367
 10
651.699
 20
38.6711
 30
-8.60000e-15
  70
    32
  0
VERTEX
  8
0
  5
3368
 10
651.687
 20
38.6698
 30
-8.60000e-15
  70
    32
  0
VERTEX
  8
0
  5
3369
 10
651.675
 20
38.6685
 30
-8.60000e-15
  70
    32
  0
VERTEX
  8
0
  5
336A
 10
651.663
 20
38.6673
 30
-8.60000e-15
  70
    32
  0
VERTEX
  8
0
  5
336B
 10
651.651
 20
38.6662
 30
-8.60000e-15
  70
    32
  0
VERTEX
  8
0
  5
336C
 10
651.638
 20
38.6650
 30
-8.60000e-15
  70
    32
  0
VERTEX
  8
0
  5
336D
 10
651.626
 20
38.6639
 30
-8.60000e-15
  70
    32
  0
VERTEX
  8
0
  5
336E
 10
651.614
 20
38.6629
 30
-8.60000e-15
  70
    32
  0
VERTEX
  8
0
  5
336F
 10
651.602
 20
38.6619
 30
-8.60000e-15
  70
    32
  0
VERTEX
  8
0
  5
3370
 10
651.589
 20
38.6609
 30
-8.60000e-15
  70
    32
  0
VERTEX
  8
0
  5
3371
 10
651.577
 20
38.6600
 30
-8.60000e-15
  70
    32
  0
VERTEX
  8
0
  5
3372
 10
651.565
 20
38.6591
 30
-8.60000e-15
  70
    32
  0
VERTEX
  8
0
  5
3373
 10
651.552
 20
38.6583
 30
-8.60000e-15
  70
    32
  0
VERTEX
  8
0
  5
3374
 10
651.540
 20
38.6575
 30
-8.60000e-15
  70
    32
  0
VERTEX
  8
0
  5
3375
 10
651.527
 20
38.6568
 30
-8.60000e-15
  70
    32
  0
VERTEX
  8
0
  5
3376
 10
651.515
 20
38.6560
 30
-8.60000e-15
  70
    32
  0
VERTEX
  8
0
  5
3377
 10
651.503
 20
38.6554
 30
-8.60000e-15
  70
    32
  0
VERTEX
  8
0
  5
3378
 10
651.490
 20
38.6547
 30
-8.60000e-15
  70
    32
  0
VERTEX
  8
0
  5
3379
 10
651.478
 20
38.6542
 30
-8.60000e-15
  70
    32
  0
VERTEX
  8
0
  5
337A
 10
651.465
 20
38.6536
 30
-8.60000e-15
  70
    32
  0
VERTEX
  8
0
  5
337B
 10
651.453
 20
38.6531
 30
-8.60000e-15
  70
    32
  0
VERTEX
  8
0
  5
337C
 10
651.440
 20
38.6527
 30
-8.60000e-15
  70
    32
  0
VERTEX
  8
0
  5
337D
 10
651.427
 20
38.6522
 30
-8.60000e-15
  70
    32
  0
VERTEX
  8
0
  5
337E
 10
651.415
 20
38.6519
 30
-8.60000e-15
  70
    32
  0
VERTEX
  8
0
  5
337F
 10
651.402
 20
38.6515
 30
-8.60000e-15
  70
    32
  0
VERTEX
  8
0
  5
3380
 10
651.389
 20
38.6512
 30
-8.60000e-15
  70
    32
  0
VERTEX
  8
0
  5
3381
 10
651.377
 20
38.6510
 30
-8.60000e-15
  70
    32
  0
VERTEX
  8
0
  5
3382
 10
651.364
 20
38.6508
 30
-8.60000e-15
  70
    32
  0
VERTEX
  8
0
  5
3383
 10
651.351
 20
38.6506
 30
-8.60000e-15
  70
    32
  0
VERTEX
  8
0
  5
3384
 10
651.339
 20
38.6505
 30
-8.60000e-15
  70
    32
  0
VERTEX
  8
0
  5
3385
 10
651.326
 20
38.6504
 30
-8.60000e-15
  70
    32
  0
VERTEX
  8
0
  5
3386
 10
651.313
 20
38.6504
 30
-8.60000e-15
  70
    32
  0
VERTEX
  8
0
  5
3387
 10
651.300
 20
38.6504
 30
-8.60000e-15
  70
    32
  0
VERTEX
  8
0
  5
3388
 10
651.287
 20
38.6504
 30
-8.60000e-15
  70
    32
  0
VERTEX
  8
0
  5
3389
 10
651.275
 20
38.6505
 30
-8.60000e-15
  70
    32
  0
VERTEX
  8
0
  5
338A
 10
651.262
 20
38.6506
 30
-8.60000e-15
  70
    32
  0
VERTEX
  8
0
  5
338B
 10
651.249
 20
38.6508
 30
-8.60000e-15
  70
    32
  0
VERTEX
  8
0
  5
338C
 10
651.236
 20
38.6510
 30
-8.60000e-15
  70
    32
  0
VERTEX
  8
0
  5
338D
 10
651.223
 20
38.6512
 30
-8.60000e-15
  70
    32
  0
VERTEX
  8
0
  5
338E
 10
651.210
 20
38.6515
 30
-8.60000e-15
  70
    32
  0
VERTEX
  8
0
  5
338F
 10
651.197
 20
38.6519
 30
-8.60000e-15
  70
    32
  0
VERTEX
  8
0
  5
3390
 10
651.184
 20
38.6522
 30
-8.60000e-15
  70
    32
  0
VERTEX
  8
0
  5
3391
 10
651.171
 20
38.6527
 30
-8.60000e-15
  70
    32
  0
VERTEX
  8
0
  5
3392
 10
651.157
 20
38.6531
 30
-8.60000e-15
  70
    32
  0
VERTEX
  8
0
  5
3393
 10
651.144
 20
38.6536
 30
-8.60000e-15
  70
    32
  0
VERTEX
  8
0
  5
3394
 10
651.131
 20
38.6542
 30
-8.60000e-15
  70
    32
  0
VERTEX
  8
0
  5
3395
 10
651.118
 20
38.6547
 30
-8.60000e-15
  70
    32
  0
VERTEX
  8
0
  5
3396
 10
651.104
 20
38.6554
 30
-8.60000e-15
  70
    32
  0
VERTEX
  8
0
  5
3397
 10
651.091
 20
38.6560
 30
-8.60000e-15
  70
    32
  0
VERTEX
  8
0
  5
3398
 10
651.078
 20
38.6568
 30
-8.60000e-15
  70
    32
  0
VERTEX
  8
0
  5
3399
 10
651.064
 20
38.6575
 30
-8.60000e-15
  70
    32
  0
VERTEX
  8
0
  5
339A
 10
651.051
 20
38.6583
 30
-8.60000e-15
  70
    32
  0
VERTEX
  8
0
  5
339B
 10
651.038
 20
38.6591
 30
-8.60000e-15
  70
    32
  0
VERTEX
  8
0
  5
339C
 10
651.024
 20
38.6600
 30
-8.60000e-15
  70
    32
  0
VERTEX
  8
0
  5
339D
 10
651.011
 20
38.6609
 30
-8.60000e-15
  70
    32
  0
VERTEX
  8
0
  5
339E
 10
650.997
 20
38.6619
 30
-8.60000e-15
  70
    32
  0
VERTEX
  8
0
  5
339F
 10
650.984
 20
38.6629
 30
-8.60000e-15
  70
    32
  0
VERTEX
  8
0
  5
33A0
 10
650.970
 20
38.6639
 30
-8.60000e-15
  70
    32
  0
VERTEX
  8
0
  5
33A1
 10
650.957
 20
38.6650
 30
-8.60000e-15
  70
    32
  0
VERTEX
  8
0
  5
33A2
 10
650.943
 20
38.6662
 30
-8.60000e-15
  70
    32
  0
VERTEX
  8
0
  5
33A3
 10
650.929
 20
38.6673
 30
-8.60000e-15
  70
    32
  0
VERTEX
  8
0
  5
33A4
 10
650.916
 20
38.6685
 30
-8.60000e-15
  70
    32
  0
VERTEX
  8
0
  5
33A5
 10
650.902
 20
38.6698
 30
-8.60000e-15
  70
    32
  0
VERTEX
  8
0
  5
33A6
 10
650.888
 20
38.6711
 30
-8.60000e-15
  70
    32
  0
VERTEX
  8
0
  5
33A7
 10
650.874
 20
38.6724
 30
-8.60000e-15
  70
    32
  0
VERTEX
  8
0
  5
33A8
 10
650.861
 20
38.6738
 30
-8.60000e-15
  70
    32
  0
VERTEX
  8
0
  5
33A9
 10
650.847
 20
38.6752
 30
-8.60000e-15
  70
    32
  0
VERTEX
  8
0
  5
33AA
 10
650.833
 20
38.6767
 30
-8.60000e-15
  70
    32
  0
VERTEX
  8
0
  5
33AB
 10
650.819
 20
38.6782
 30
-8.60000e-15
  70
    32
  0
VERTEX
  8
0
  5
33AC
 10
650.805
 20
38.6798
 30
-8.60000e-15
  70
    32
  0
VERTEX
  8
0
  5
33AD
 10
650.791
 20
38.6814
 30
-8.60000e-15
  70
    32
  0
VERTEX
  8
0
  5
33AE
 10
650.777
 20
38.6830
 30
-8.60000e-15
  70
    32
  0
VERTEX
  8
0
  5
33AF
 10
650.763
 20
38.6847
 30
-8.60000e-15
  70
    32
  0
VERTEX
  8
0
  5
33B0
 10
650.749
 20
38.6864
 30
-8.60000e-15
  70
    32
  0
VERTEX
  8
0
  5
33B1
 10
650.735
 20
38.6881
 30
-8.60000e-15
  70
    32
  0
VERTEX
  8
0
  5
33B2
 10
650.721
 20
38.6899
 30
-8.60000e-15
  70
    32
  0
VERTEX
  8
0
  5
33B3
 10
650.707
 20
38.6918
 30
-8.60000e-15
  70
    32
  0
VERTEX
  8
0
  5
33B4
 10
650.693
 20
38.6937
 30
-8.60000e-15
  70
    32
  0
VERTEX
  8
0
  5
33B5
 10
650.679
 20
38.6956
 30
-8.60000e-15
  70
    32
  0
VERTEX
  8
0
  5
33B6
 10
650.665
 20
38.6976
 30
-8.60000e-15
  70
    32
  0
VERTEX
  8
0
  5
33B7
 10
650.650
 20
38.6996
 30
-8.60000e-15
  70
    32
  0
VERTEX
  8
0
  5
33B8
 10
650.636
 20
38.7016
 30
-8.60000e-15
  70
    32
  0
VERTEX
  8
0
  5
33B9
 10
650.622
 20
38.7037
 30
-8.60000e-15
  70
    32
  0
VERTEX
  8
0
  5
33BA
 10
650.608
 20
38.7058
 30
-8.60000e-15
  70
    32
  0
VERTEX
  8
0
  5
33BB
 10
650.593
 20
38.7080
 30
-8.60000e-15
  70
    32
  0
VERTEX
  8
0
  5
33BC
 10
650.579
 20
38.7102
 30
-8.60000e-15
  70
    32
  0
VERTEX
  8
0
  5
33BD
 10
650.565
 20
38.7125
 30
-8.60000e-15
  70
    32
  0
VERTEX
  8
0
  5
33BE
 10
650.550
 20
38.7148
 30
-8.60000e-15
  70
    32
  0
VERTEX
  8
0
  5
33BF
 10
650.536
 20
38.7171
 30
-8.60000e-15
  70
    32
  0
VERTEX
  8
0
  5
33C0
 10
650.522
 20
38.7195
 30
-8.60000e-15
  70
    32
  0
VERTEX
  8
0
  5
33C1
 10
650.507
 20
38.7220
 30
-8.60000e-15
  70
    32
  0
VERTEX
  8
0
  5
33C2
 10
650.493
 20
38.7244
 30
-8.60000e-15
  70
    32
  0
VERTEX
  8
0
  5
33C3
 10
650.478
 20
38.7269
 30
-8.60000e-15
  70
    32
  0
VERTEX
  8
0
  5
33C4
 10
650.464
 20
38.7295
 30
-8.60000e-15
  70
    32
  0
VERTEX
  8
0
  5
33C5
 10
650.449
 20
38.7321
 30
-8.60000e-15
  70
    32
  0
VERTEX
  8
0
  5
33C6
 10
650.435
 20
38.7347
 30
-8.60000e-15
  70
    32
  0
VERTEX
  8
0
  5
33C7
 10
650.420
 20
38.7374
 30
-8.60000e-15
  70
    32
  0
VERTEX
  8
0
  5
33C8
 10
650.405
 20
38.7401
 30
-8.60000e-15
  70
    32
  0
VERTEX
  8
0
  5
33C9
 10
650.391
 20
38.7429
 30
-8.60000e-15
  70
    32
  0
VERTEX
  8
0
  5
33CA
 10
650.376
 20
38.7457
 30
-8.60000e-15
  70
    32
  0
VERTEX
  8
0
  5
33CB
 10
650.361
 20
38.7486
 30
-8.60000e-15
  70
    32
  0
VERTEX
  8
0
  5
33CC
 10
650.347
 20
38.7515
 30
-8.60000e-15
  70
    32
  0
VERTEX
  8
0
  5
33CD
 10
650.332
 20
38.7544
 30
-8.60000e-15
  70
    32
  0
VERTEX
  8
0
  5
33CE
 10
650.317
 20
38.7574
 30
-8.60000e-15
  70
    32
  0
VERTEX
  8
0
  5
33CF
 10
650.302
 20
38.7604
 30
-8.60000e-15
  70
    32
  0
VERTEX
  8
0
  5
33D0
 10
650.288
 20
38.7634
 30
-8.60000e-15
  70
    32
  0
VERTEX
  8
0
  5
33D1
 10
650.273
 20
38.7665
 30
-8.60000e-15
  70
    32
  0
VERTEX
  8
0
  5
33D2
 10
650.258
 20
38.7697
 30
-8.60000e-15
  70
    32
  0
VERTEX
  8
0
  5
33D3
 10
650.243
 20
38.7729
 30
-8.60000e-15
  70
    32
  0
VERTEX
  8
0
  5
33D4
 10
650.228
 20
38.7761
 30
-8.60000e-15
  70
    32
  0
VERTEX
  8
0
  5
33D5
 10
650.213
 20
38.7794
 30
-8.60000e-15
  70
    32
  0
VERTEX
  8
0
  5
33D6
 10
650.198
 20
38.7827
 30
-8.60000e-15
  70
    32
  0
VERTEX
  8
0
  5
33D7
 10
650.183
 20
38.7860
 30
-8.60000e-15
  70
    32
  0
VERTEX
  8
0
  5
33D8
 10
650.168
 20
38.7894
 30
-8.60000e-15
  70
    32
  0
VERTEX
  8
0
  5
33D9
 10
650.154
 20
38.7929
 30
-8.60000e-15
  70
    32
  0
VERTEX
  8
0
  5
33DA
 10
650.138
 20
38.7963
 30
-8.60003e-15
  70
    32
  0
VERTEX
  8
0
  5
33DB
 10
650.123
 20
38.7999
 30
-8.60014e-15
  70
    32
  0
VERTEX
  8
0
  5
33DC
 10
650.108
 20
38.8034
 30
-8.60034e-15
  70
    32
  0
VERTEX
  8
0
  5
33DD
 10
650.093
 20
38.8070
 30
-8.60061e-15
  70
    32
  0
VERTEX
  8
0
  5
33DE
 10
650.078
 20
38.8107
 30
-8.60097e-15
  70
    32
  0
VERTEX
  8
0
  5
33DF
 10
650.063
 20
38.8143
 30
-8.60141e-15
  70
    32
  0
VERTEX
  8
0
  5
33E0
 10
650.048
 20
38.8181
 30
-8.60192e-15
  70
    32
  0
VERTEX
  8
0
  5
33E1
 10
650.033
 20
38.8218
 30
-8.60250e-15
  70
    32
  0
VERTEX
  8
0
  5
33E2
 10
650.018
 20
38.8257
 30
-8.60315e-15
  70
    32
  0
VERTEX
  8
0
  5
33E3
 10
650.002
 20
38.8295
 30
-8.60388e-15
  70
    32
  0
VERTEX
  8
0
  5
33E4
 10
649.987
 20
38.8334
 30
-8.60467e-15
  70
    32
  0
VERTEX
  8
0
  5
33E5
 10
649.972
 20
38.8373
 30
-8.60552e-15
  70
    32
  0
VERTEX
  8
0
  5
33E6
 10
649.957
 20
38.8413
 30
-8.60644e-15
  70
    32
  0
VERTEX
  8
0
  5
33E7
 10
649.942
 20
38.8453
 30
-8.60742e-15
  70
    32
  0
VERTEX
  8
0
  5
33E8
 10
649.926
 20
38.8494
 30
-8.60846e-15
  70
    32
  0
VERTEX
  8
0
  5
33E9
 10
649.911
 20
38.8535
 30
-8.60955e-15
  70
    32
  0
VERTEX
  8
0
  5
33EA
 10
649.896
 20
38.8576
 30
-8.61070e-15
  70
    32
  0
VERTEX
  8
0
  5
33EB
 10
649.880
 20
38.8618
 30
-8.61190e-15
  70
    32
  0
VERTEX
  8
0
  5
33EC
 10
649.865
 20
38.8660
 30
-8.61315e-15
  70
    32
  0
VERTEX
  8
0
  5
33ED
 10
649.850
 20
38.8703
 30
-8.61445e-15
  70
    32
  0
VERTEX
  8
0
  5
33EE
 10
649.834
 20
38.8746
 30
-8.61579e-15
  70
    32
  0
VERTEX
  8
0
  5
33EF
 10
649.819
 20
38.8789
 30
-8.61718e-15
  70
    32
  0
VERTEX
  8
0
  5
33F0
 10
649.803
 20
38.8833
 30
-8.61861e-15
  70
    32
  0
VERTEX
  8
0
  5
33F1
 10
649.788
 20
38.8877
 30
-8.62008e-15
  70
    32
  0
VERTEX
  8
0
  5
33F2
 10
649.772
 20
38.8921
 30
-8.62158e-15
  70
    32
  0
VERTEX
  8
0
  5
33F3
 10
649.757
 20
38.8966
 30
-8.62312e-15
  70
    32
  0
VERTEX
  8
0
  5
33F4
 10
649.741
 20
38.9012
 30
-8.62469e-15
  70
    32
  0
VERTEX
  8
0
  5
33F5
 10
649.726
 20
38.9057
 30
-8.62630e-15
  70
    32
  0
VERTEX
  8
0
  5
33F6
 10
649.710
 20
38.9104
 30
-8.62793e-15
  70
    32
  0
VERTEX
  8
0
  5
33F7
 10
649.695
 20
38.9150
 30
-8.62959e-15
  70
    32
  0
VERTEX
  8
0
  5
33F8
 10
649.679
 20
38.9197
 30
-8.63128e-15
  70
    32
  0
VERTEX
  8
0
  5
33F9
 10
649.664
 20
38.9244
 30
-8.63298e-15
  70
    32
  0
VERTEX
  8
0
  5
33FA
 10
649.648
 20
38.9292
 30
-8.63471e-15
  70
    32
  0
VERTEX
  8
0
  5
33FB
 10
649.633
 20
38.9340
 30
-8.63645e-15
  70
    32
  0
VERTEX
  8
0
  5
33FC
 10
649.617
 20
38.9389
 30
-8.63821e-15
  70
    32
  0
VERTEX
  8
0
  5
33FD
 10
649.601
 20
38.9437
 30
-8.63999e-15
  70
    32
  0
VERTEX
  8
0
  5
33FE
 10
649.586
 20
38.9487
 30
-8.64178e-15
  70
    32
  0
VERTEX
  8
0
  5
33FF
 10
649.570
 20
38.9536
 30
-8.64357e-15
  70
    32
  0
VERTEX
  8
0
  5
3400
 10
649.554
 20
38.9586
 30
-8.64538e-15
  70
    32
  0
VERTEX
  8
0
  5
3401
 10
649.539
 20
38.9637
 30
-8.64718e-15
  70
    32
  0
VERTEX
  8
0
  5
3402
 10
649.523
 20
38.9687
 30
-8.64900e-15
  70
    32
  0
VERTEX
  8
0
  5
3403
 10
649.507
 20
38.9739
 30
-8.65081e-15
  70
    32
  0
VERTEX
  8
0
  5
3404
 10
649.491
 20
38.9790
 30
-8.65262e-15
  70
    32
  0
VERTEX
  8
0
  5
3405
 10
649.476
 20
38.9842
 30
-8.65443e-15
  70
    32
  0
VERTEX
  8
0
  5
3406
 10
649.460
 20
38.9894
 30
-8.65624e-15
  70
    32
  0
VERTEX
  8
0
  5
3407
 10
649.444
 20
38.9947
 30
-8.65803e-15
  70
    32
  0
VERTEX
  8
0
  5
3408
 10
649.428
 20
39.0000
 30
-8.65982e-15
  70
    32
  0
VERTEX
  8
0
  5
3409
 10
649.413
 20
39.0053
 30
-8.66160e-15
  70
    32
  0
VERTEX
  8
0
  5
340A
 10
649.397
 20
39.0107
 30
-8.66336e-15
  70
    32
  0
VERTEX
  8
0
  5
340B
 10
649.381
 20
39.0161
 30
-8.66511e-15
  70
    32
  0
VERTEX
  8
0
  5
340C
 10
649.365
 20
39.0216
 30
-8.66684e-15
  70
    32
  0
VERTEX
  8
0
  5
340D
 10
649.349
 20
39.0271
 30
-8.66854e-15
  70
    32
  0
VERTEX
  8
0
  5
340E
 10
649.333
 20
39.0326
 30
-8.67023e-15
  70
    32
  0
VERTEX
  8
0
  5
340F
 10
649.318
 20
39.0381
 30
-8.67189e-15
  70
    32
  0
VERTEX
  8
0
  5
3410
 10
649.302
 20
39.0437
 30
-8.67353e-15
  70
    32
  0
VERTEX
  8
0
  5
3411
 10
649.286
 20
39.0494
 30
-8.67514e-15
  70
    32
  0
VERTEX
  8
0
  5
3412
 10
649.270
 20
39.0551
 30
-8.67671e-15
  70
    32
  0
VERTEX
  8
0
  5
3413
 10
649.254
 20
39.0608
 30
-8.67826e-15
  70
    32
  0
VERTEX
  8
0
  5
3414
 10
649.238
 20
39.0665
 30
-8.67977e-15
  70
    32
  0
VERTEX
  8
0
  5
3415
 10
649.222
 20
39.0723
 30
-8.68124e-15
  70
    32
  0
VERTEX
  8
0
  5
3416
 10
649.206
 20
39.0781
 30
-8.68267e-15
  70
    32
  0
VERTEX
  8
0
  5
3417
 10
649.190
 20
39.0840
 30
-8.68406e-15
  70
    32
  0
VERTEX
  8
0
  5
3418
 10
649.174
 20
39.0899
 30
-8.68541e-15
  70
    32
  0
VERTEX
  8
0
  5
3419
 10
649.158
 20
39.0958
 30
-8.68671e-15
  70
    32
  0
VERTEX
  8
0
  5
341A
 10
649.142
 20
39.1017
 30
-8.68797e-15
  70
    32
  0
VERTEX
  8
0
  5
341B
 10
649.126
 20
39.1077
 30
-8.68917e-15
  70
    32
  0
VERTEX
  8
0
  5
341C
 10
649.110
 20
39.1138
 30
-8.69033e-15
  70
    32
  0
VERTEX
  8
0
  5
341D
 10
649.094
 20
39.1198
 30
-8.69143e-15
  70
    32
  0
VERTEX
  8
0
  5
341E
 10
649.078
 20
39.1259
 30
-8.69247e-15
  70
    32
  0
VERTEX
  8
0
  5
341F
 10
649.062
 20
39.1321
 30
-8.69346e-15
  70
    32
  0
VERTEX
  8
0
  5
3420
 10
649.046
 20
39.1383
 30
-8.69438e-15
  70
    32
  0
VERTEX
  8
0
  5
3421
 10
649.030
 20
39.1445
 30
-8.69524e-15
  70
    32
  0
VERTEX
  8
0
  5
3422
 10
649.014
 20
39.1507
 30
-8.69604e-15
  70
    32
  0
VERTEX
  8
0
  5
3423
 10
648.998
 20
39.1570
 30
-8.69677e-15
  70
    32
  0
VERTEX
  8
0
  5
3424
 10
648.982
 20
39.1633
 30
-8.69743e-15
  70
    32
  0
VERTEX
  8
0
  5
3425
 10
648.966
 20
39.1696
 30
-8.69803e-15
  70
    32
  0
VERTEX
  8
0
  5
3426
 10
648.950
 20
39.1760
 30
-8.69854e-15
  70
    32
  0
VERTEX
  8
0
  5
3427
 10
648.933
 20
39.1824
 30
-8.69899e-15
  70
    32
  0
VERTEX
  8
0
  5
3428
 10
648.917
 20
39.1889
 30
-8.69935e-15
  70
    32
  0
VERTEX
  8
0
  5
3429
 10
648.901
 20
39.1954
 30
-8.69964e-15
  70
    32
  0
VERTEX
  8
0
  5
342A
 10
648.885
 20
39.2019
 30
-8.69984e-15
  70
    32
  0
VERTEX
  8
0
  5
342B
 10
648.869
 20
39.2085
 30
-8.69996e-15
  70
    32
  0
VERTEX
  8
0
  5
342C
 10
648.853
 20
39.2150
 30
-8.70000e-15
  70
    32
  0
VERTEX
  8
0
  5
342D
 10
648.837
 20
39.2217
 30
-8.70011e-15
  70
    32
  0
VERTEX
  8
0
  5
342E
 10
648.821
 20
39.2283
 30
-8.70038e-15
  70
    32
  0
VERTEX
  8
0
  5
342F
 10
648.804
 20
39.2350
 30
-8.70082e-15
  70
    32
  0
VERTEX
  8
0
  5
3430
 10
648.788
 20
39.2417
 30
-8.70142e-15
  70
    32
  0
VERTEX
  8
0
  5
3431
 10
648.772
 20
39.2485
 30
-8.70217e-15
  70
    32
  0
VERTEX
  8
0
  5
3432
 10
648.756
 20
39.2553
 30
-8.70307e-15
  70
    32
  0
VERTEX
  8
0
  5
3433
 10
648.740
 20
39.2621
 30
-8.70411e-15
  70
    32
  0
VERTEX
  8
0
  5
3434
 10
648.723
 20
39.2690
 30
-8.70528e-15
  70
    32
  0
VERTEX
  8
0
  5
3435
 10
648.707
 20
39.2758
 30
-8.70659e-15
  70
    32
  0
VERTEX
  8
0
  5
3436
 10
648.691
 20
39.2828
 30
-8.70801e-15
  70
    32
  0
VERTEX
  8
0
  5
3437
 10
648.675
 20
39.2897
 30
-8.70955e-15
  70
    32
  0
VERTEX
  8
0
  5
3438
 10
648.659
 20
39.2967
 30
-8.71120e-15
  70
    32
  0
VERTEX
  8
0
  5
3439
 10
648.642
 20
39.3037
 30
-8.71295e-15
  70
    32
  0
VERTEX
  8
0
  5
343A
 10
648.626
 20
39.3108
 30
-8.71480e-15
  70
    32
  0
VERTEX
  8
0
  5
343B
 10
648.610
 20
39.3179
 30
-8.71675e-15
  70
    32
  0
VERTEX
  8
0
  5
343C
 10
648.594
 20
39.3250
 30
-8.71877e-15
  70
    32
  0
VERTEX
  8
0
  5
343D
 10
648.577
 20
39.3321
 30
-8.72088e-15
  70
    32
  0
VERTEX
  8
0
  5
343E
 10
648.561
 20
39.3393
 30
-8.72306e-15
  70
    32
  0
VERTEX
  8
0
  5
343F
 10
648.545
 20
39.3465
 30
-8.72531e-15
  70
    32
  0
VERTEX
  8
0
  5
3440
 10
648.529
 20
39.3537
 30
-8.72762e-15
  70
    32
  0
VERTEX
  8
0
  5
3441
 10
648.512
 20
39.3610
 30
-8.72998e-15
  70
    32
  0
VERTEX
  8
0
  5
3442
 10
648.496
 20
39.3683
 30
-8.73239e-15
  70
    32
  0
VERTEX
  8
0
  5
3443
 10
648.480
 20
39.3756
 30
-8.73485e-15
  70
    32
  0
VERTEX
  8
0
  5
3444
 10
648.464
 20
39.3830
 30
-8.73734e-15
  70
    32
  0
VERTEX
  8
0
  5
3445
 10
648.447
 20
39.3904
 30
-8.73986e-15
  70
    32
  0
VERTEX
  8
0
  5
3446
 10
648.431
 20
39.3978
 30
-8.74240e-15
  70
    32
  0
VERTEX
  8
0
  5
3447
 10
648.415
 20
39.4053
 30
-8.74497e-15
  70
    32
  0
VERTEX
  8
0
  5
3448
 10
648.399
 20
39.4127
 30
-8.74754e-15
  70
    32
  0
VERTEX
  8
0
  5
3449
 10
648.382
 20
39.4203
 30
-8.75012e-15
  70
    32
  0
VERTEX
  8
0
  5
344A
 10
648.366
 20
39.4278
 30
-8.75270e-15
  70
    32
  0
VERTEX
  8
0
  5
344B
 10
648.350
 20
39.4354
 30
-8.75528e-15
  70
    32
  0
VERTEX
  8
0
  5
344C
 10
648.333
 20
39.4430
 30
-8.75784e-15
  70
    32
  0
VERTEX
  8
0
  5
344D
 10
648.317
 20
39.4506
 30
-8.76038e-15
  70
    32
  0
VERTEX
  8
0
  5
344E
 10
648.301
 20
39.4582
 30
-8.76290e-15
  70
    32
  0
VERTEX
  8
0
  5
344F
 10
648.285
 20
39.4659
 30
-8.76539e-15
  70
    32
  0
VERTEX
  8
0
  5
3450
 10
648.268
 20
39.4737
 30
-8.76784e-15
  70
    32
  0
VERTEX
  8
0
  5
3451
 10
648.252
 20
39.4814
 30
-8.77025e-15
  70
    32
  0
VERTEX
  8
0
  5
3452
 10
648.236
 20
39.4892
 30
-8.77261e-15
  70
    32
  0
VERTEX
  8
0
  5
3453
 10
648.219
 20
39.4970
 30
-8.77491e-15
  70
    32
  0
VERTEX
  8
0
  5
3454
 10
648.203
 20
39.5048
 30
-8.77715e-15
  70
    32
  0
VERTEX
  8
0
  5
3455
 10
648.187
 20
39.5127
 30
-8.77932e-15
  70
    32
  0
VERTEX
  8
0
  5
3456
 10
648.171
 20
39.5205
 30
-8.78142e-15
  70
    32
  0
VERTEX
  8
0
  5
3457
 10
648.154
 20
39.5285
 30
-8.78344e-15
  70
    32
  0
VERTEX
  8
0
  5
3458
 10
648.138
 20
39.5364
 30
-8.78538e-15
  70
    32
  0
VERTEX
  8
0
  5
3459
 10
648.122
 20
39.5444
 30
-8.78722e-15
  70
    32
  0
VERTEX
  8
0
  5
345A
 10
648.105
 20
39.5524
 30
-8.78896e-15
  70
    32
  0
VERTEX
  8
0
  5
345B
 10
648.089
 20
39.5604
 30
-8.79060e-15
  70
    32
  0
VERTEX
  8
0
  5
345C
 10
648.073
 20
39.5684
 30
-8.79213e-15
  70
    32
  0
VERTEX
  8
0
  5
345D
 10
648.056
 20
39.5765
 30
-8.79354e-15
  70
    32
  0
VERTEX
  8
0
  5
345E
 10
648.040
 20
39.5846
 30
-8.79483e-15
  70
    32
  0
VERTEX
  8
0
  5
345F
 10
648.024
 20
39.5927
 30
-8.79599e-15
  70
    32
  0
VERTEX
  8
0
  5
3460
 10
648.008
 20
39.6009
 30
-8.79702e-15
  70
    32
  0
VERTEX
  8
0
  5
3461
 10
647.991
 20
39.6091
 30
-8.79791e-15
  70
    32
  0
VERTEX
  8
0
  5
3462
 10
647.975
 20
39.6173
 30
-8.79864e-15
  70
    32
  0
VERTEX
  8
0
  5
3463
 10
647.959
 20
39.6255
 30
-8.79923e-15
  70
    32
  0
VERTEX
  8
0
  5
3464
 10
647.942
 20
39.6338
 30
-8.79965e-15
  70
    32
  0
VERTEX
  8
0
  5
3465
 10
647.926
 20
39.6420
 30
-8.79991e-15
  70
    32
  0
VERTEX
  8
0
  5
3466
 10
647.910
 20
39.6503
 30
-8.80000e-15
  70
    32
  0
SEQEND
  8
0
  5
3467
  0
POLYLINE
  8
0
  5
3468
  66
     1
 10
0.000000
 20
0.000000
 30
0.000000
  70
     8
  0
VERTEX
  8
0
  5
3469
 10
755.113
 20
39.6503
 30
-8.80000e-15
  70
    32
  0
VERTEX
  8
0
  5
346A
 10
755.096
 20
39.6420
 30
-8.79991e-15
  70
    32
  0
VERTEX
  8
0
  5
346B
 10
755.080
 20
39.6338
 30
-8.79965e-15
  70
    32
  0
VERTEX
  8
0
  5
346C
 10
755.064
 20
39.6255
 30
-8.79923e-15
  70
    32
  0
VERTEX
  8
0
  5
346D
 10
755.048
 20
39.6173
 30
-8.79864e-15
  70
    32
  0
VERTEX
  8
0
  5
346E
 10
755.031
 20
39.6091
 30
-8.79791e-15
  70
    32
  0
VERTEX
  8
0
  5
346F
 10
755.015
 20
39.6009
 30
-8.79702e-15
  70
    32
  0
VERTEX
  8
0
  5
3470
 10
754.999
 20
39.5927
 30
-8.79599e-15
  70
    32
  0
VERTEX
  8
0
  5
3471
 10
754.982
 20
39.5846
 30
-8.79483e-15
  70
    32
  0
VERTEX
  8
0
  5
3472
 10
754.966
 20
39.5765
 30
-8.79354e-15
  70
    32
  0
VERTEX
  8
0
  5
3473
 10
754.950
 20
39.5684
 30
-8.79213e-15
  70
    32
  0
VERTEX
  8
0
  5
3474
 10
754.934
 20
39.5604
 30
-8.79060e-15
  70
    32
  0
VERTEX
  8
0
  5
3475
 10
754.917
 20
39.5524
 30
-8.78896e-15
  70
    32
  0
VERTEX
  8
0
  5
3476
 10
754.901
 20
39.5444
 30
-8.78722e-15
  70
    32
  0
VERTEX
  8
0
  5
3477
 10
754.885
 20
39.5364
 30
-8.78538e-15
  70
    32
  0
VERTEX
  8
0
  5
3478
 10
754.868
 20
39.5285
 30
-8.78344e-15
  70
    32
  0
VERTEX
  8
0
  5
3479
 10
754.852
 20
39.5205
 30
-8.78142e-15
  70
    32
  0
VERTEX
  8
0
  5
347A
 10
754.836
 20
39.5127
 30
-8.77932e-15
  70
    32
  0
VERTEX
  8
0
  5
347B
 10
754.819
 20
39.5048
 30
-8.77715e-15
  70
    32
  0
VERTEX
  8
0
  5
347C
 10
754.803
 20
39.4970
 30
-8.77491e-15
  70
    32
  0
VERTEX
  8
0
  5
347D
 10
754.787
 20
39.4892
 30
-8.77261e-15
  70
    32
  0
VERTEX
  8
0
  5
347E
 10
754.771
 20
39.4814
 30
-8.77025e-15
  70
    32
  0
VERTEX
  8
0
  5
347F
 10
754.754
 20
39.4737
 30
-8.76784e-15
  70
    32
  0
VERTEX
  8
0
  5
3480
 10
754.738
 20
39.4659
 30
-8.76539e-15
  70
    32
  0
VERTEX
  8
0
  5
3481
 10
754.722
 20
39.4582
 30
-8.76290e-15
  70
    32
  0
VERTEX
  8
0
  5
3482
 10
754.705
 20
39.4506
 30
-8.76038e-15
  70
    32
  0
VERTEX
  8
0
  5
3483
 10
754.689
 20
39.4430
 30
-8.75784e-15
  70
    32
  0
VERTEX
  8
0
  5
3484
 10
754.673
 20
39.4354
 30
-8.75528e-15
  70
    32
  0
VERTEX
  8
0
  5
3485
 10
754.657
 20
39.4278
 30
-8.75270e-15
  70
    32
  0
VERTEX
  8
0
  5
3486
 10
754.640
 20
39.4203
 30
-8.75012e-15
  70
    32
  0
VERTEX
  8
0
  5
3487
 10
754.624
 20
39.4127
 30
-8.74754e-15
  70
    32
  0
VERTEX
  8
0
  5
3488
 10
754.608
 20
39.4053
 30
-8.74497e-15
  70
    32
  0
VERTEX
  8
0
  5
3489
 10
754.591
 20
39.3978
 30
-8.74240e-15
  70
    32
  0
VERTEX
  8
0
  5
348A
 10
754.575
 20
39.3904
 30
-8.73986e-15
  70
    32
  0
VERTEX
  8
0
  5
348B
 10
754.559
 20
39.3830
 30
-8.73734e-15
  70
    32
  0
VERTEX
  8
0
  5
348C
 10
754.543
 20
39.3756
 30
-8.73485e-15
  70
    32
  0
VERTEX
  8
0
  5
348D
 10
754.526
 20
39.3683
 30
-8.73239e-15
  70
    32
  0
VERTEX
  8
0
  5
348E
 10
754.510
 20
39.3610
 30
-8.72998e-15
  70
    32
  0
VERTEX
  8
0
  5
348F
 10
754.494
 20
39.3537
 30
-8.72762e-15
  70
    32
  0
VERTEX
  8
0
  5
3490
 10
754.478
 20
39.3465
 30
-8.72531e-15
  70
    32
  0
VERTEX
  8
0
  5
3491
 10
754.461
 20
39.3393
 30
-8.72306e-15
  70
    32
  0
VERTEX
  8
0
  5
3492
 10
754.445
 20
39.3321
 30
-8.72088e-15
  70
    32
  0
VERTEX
  8
0
  5
3493
 10
754.429
 20
39.3250
 30
-8.71877e-15
  70
    32
  0
VERTEX
  8
0
  5
3494
 10
754.413
 20
39.3179
 30
-8.71675e-15
  70
    32
  0
VERTEX
  8
0
  5
3495
 10
754.396
 20
39.3108
 30
-8.71480e-15
  70
    32
  0
VERTEX
  8
0
  5
3496
 10
754.380
 20
39.3037
 30
-8.71295e-15
  70
    32
  0
VERTEX
  8
0
  5
3497
 10
754.364
 20
39.2967
 30
-8.71120e-15
  70
    32
  0
VERTEX
  8
0
  5
3498
 10
754.348
 20
39.2897
 30
-8.70955e-15
  70
    32
  0
VERTEX
  8
0
  5
3499
 10
754.331
 20
39.2828
 30
-8.70801e-15
  70
    32
  0
VERTEX
  8
0
  5
349A
 10
754.315
 20
39.2758
 30
-8.70659e-15
  70
    32
  0
VERTEX
  8
0
  5
349B
 10
754.299
 20
39.2690
 30
-8.70528e-15
  70
    32
  0
VERTEX
  8
0
  5
349C
 10
754.283
 20
39.2621
 30
-8.70411e-15
  70
    32
  0
VERTEX
  8
0
  5
349D
 10
754.267
 20
39.2553
 30
-8.70307e-15
  70
    32
  0
VERTEX
  8
0
  5
349E
 10
754.250
 20
39.2485
 30
-8.70217e-15
  70
    32
  0
VERTEX
  8
0
  5
349F
 10
754.234
 20
39.2417
 30
-8.70142e-15
  70
    32
  0
VERTEX
  8
0
  5
34A0
 10
754.218
 20
39.2350
 30
-8.70082e-15
  70
    32
  0
VERTEX
  8
0
  5
34A1
 10
754.202
 20
39.2283
 30
-8.70038e-15
  70
    32
  0
VERTEX
  8
0
  5
34A2
 10
754.186
 20
39.2217
 30
-8.70011e-15
  70
    32
  0
VERTEX
  8
0
  5
34A3
 10
754.170
 20
39.2150
 30
-8.70000e-15
  70
    32
  0
VERTEX
  8
0
  5
34A4
 10
754.154
 20
39.2085
 30
-8.69996e-15
  70
    32
  0
VERTEX
  8
0
  5
34A5
 10
754.137
 20
39.2019
 30
-8.69984e-15
  70
    32
  0
VERTEX
  8
0
  5
34A6
 10
754.121
 20
39.1954
 30
-8.69964e-15
  70
    32
  0
VERTEX
  8
0
  5
34A7
 10
754.105
 20
39.1889
 30
-8.69935e-15
  70
    32
  0
VERTEX
  8
0
  5
34A8
 10
754.089
 20
39.1824
 30
-8.69899e-15
  70
    32
  0
VERTEX
  8
0
  5
34A9
 10
754.073
 20
39.1760
 30
-8.69854e-15
  70
    32
  0
VERTEX
  8
0
  5
34AA
 10
754.057
 20
39.1696
 30
-8.69803e-15
  70
    32
  0
VERTEX
  8
0
  5
34AB
 10
754.041
 20
39.1633
 30
-8.69743e-15
  70
    32
  0
VERTEX
  8
0
  5
34AC
 10
754.025
 20
39.1570
 30
-8.69677e-15
  70
    32
  0
VERTEX
  8
0
  5
34AD
 10
754.009
 20
39.1507
 30
-8.69604e-15
  70
    32
  0
VERTEX
  8
0
  5
34AE
 10
753.993
 20
39.1445
 30
-8.69524e-15
  70
    32
  0
VERTEX
  8
0
  5
34AF
 10
753.977
 20
39.1383
 30
-8.69438e-15
  70
    32
  0
VERTEX
  8
0
  5
34B0
 10
753.960
 20
39.1321
 30
-8.69346e-15
  70
    32
  0
VERTEX
  8
0
  5
34B1
 10
753.944
 20
39.1259
 30
-8.69247e-15
  70
    32
  0
VERTEX
  8
0
  5
34B2
 10
753.928
 20
39.1198
 30
-8.69143e-15
  70
    32
  0
VERTEX
  8
0
  5
34B3
 10
753.912
 20
39.1138
 30
-8.69033e-15
  70
    32
  0
VERTEX
  8
0
  5
34B4
 10
753.896
 20
39.1077
 30
-8.68917e-15
  70
    32
  0
VERTEX
  8
0
  5
34B5
 10
753.880
 20
39.1017
 30
-8.68797e-15
  70
    32
  0
VERTEX
  8
0
  5
34B6
 10
753.864
 20
39.0958
 30
-8.68671e-15
  70
    32
  0
VERTEX
  8
0
  5
34B7
 10
753.848
 20
39.0899
 30
-8.68541e-15
  70
    32
  0
VERTEX
  8
0
  5
34B8
 10
753.832
 20
39.0840
 30
-8.68406e-15
  70
    32
  0
VERTEX
  8
0
  5
34B9
 10
753.816
 20
39.0781
 30
-8.68267e-15
  70
    32
  0
VERTEX
  8
0
  5
34BA
 10
753.801
 20
39.0723
 30
-8.68124e-15
  70
    32
  0
VERTEX
  8
0
  5
34BB
 10
753.785
 20
39.0665
 30
-8.67977e-15
  70
    32
  0
VERTEX
  8
0
  5
34BC
 10
753.769
 20
39.0608
 30
-8.67826e-15
  70
    32
  0
VERTEX
  8
0
  5
34BD
 10
753.753
 20
39.0551
 30
-8.67671e-15
  70
    32
  0
VERTEX
  8
0
  5
34BE
 10
753.737
 20
39.0494
 30
-8.67514e-15
  70
    32
  0
VERTEX
  8
0
  5
34BF
 10
753.721
 20
39.0437
 30
-8.67353e-15
  70
    32
  0
VERTEX
  8
0
  5
34C0
 10
753.705
 20
39.0381
 30
-8.67189e-15
  70
    32
  0
VERTEX
  8
0
  5
34C1
 10
753.689
 20
39.0326
 30
-8.67023e-15
  70
    32
  0
VERTEX
  8
0
  5
34C2
 10
753.673
 20
39.0271
 30
-8.66854e-15
  70
    32
  0
VERTEX
  8
0
  5
34C3
 10
753.657
 20
39.0216
 30
-8.66684e-15
  70
    32
  0
VERTEX
  8
0
  5
34C4
 10
753.642
 20
39.0161
 30
-8.66511e-15
  70
    32
  0
VERTEX
  8
0
  5
34C5
 10
753.626
 20
39.0107
 30
-8.66336e-15
  70
    32
  0
VERTEX
  8
0
  5
34C6
 10
753.610
 20
39.0053
 30
-8.66160e-15
  70
    32
  0
VERTEX
  8
0
  5
34C7
 10
753.594
 20
39.0000
 30
-8.65982e-15
  70
    32
  0
VERTEX
  8
0
  5
34C8
 10
753.578
 20
38.9947
 30
-8.65803e-15
  70
    32
  0
VERTEX
  8
0
  5
34C9
 10
753.563
 20
38.9894
 30
-8.65624e-15
  70
    32
  0
VERTEX
  8
0
  5
34CA
 10
753.547
 20
38.9842
 30
-8.65443e-15
  70
    32
  0
VERTEX
  8
0
  5
34CB
 10
753.531
 20
38.9790
 30
-8.65262e-15
  70
    32
  0
VERTEX
  8
0
  5
34CC
 10
753.515
 20
38.9739
 30
-8.65081e-15
  70
    32
  0
VERTEX
  8
0
  5
34CD
 10
753.500
 20
38.9687
 30
-8.64900e-15
  70
    32
  0
VERTEX
  8
0
  5
34CE
 10
753.484
 20
38.9637
 30
-8.64718e-15
  70
    32
  0
VERTEX
  8
0
  5
34CF
 10
753.468
 20
38.9586
 30
-8.64538e-15
  70
    32
  0
VERTEX
  8
0
  5
34D0
 10
753.453
 20
38.9536
 30
-8.64357e-15
  70
    32
  0
VERTEX
  8
0
  5
34D1
 10
753.437
 20
38.9487
 30
-8.64178e-15
  70
    32
  0
VERTEX
  8
0
  5
34D2
 10
753.421
 20
38.9437
 30
-8.63999e-15
  70
    32
  0
VERTEX
  8
0
  5
34D3
 10
753.406
 20
38.9389
 30
-8.63821e-15
  70
    32
  0
VERTEX
  8
0
  5
34D4
 10
753.390
 20
38.9340
 30
-8.63645e-15
  70
    32
  0
VERTEX
  8
0
  5
34D5
 10
753.374
 20
38.9292
 30
-8.63471e-15
  70
    32
  0
VERTEX
  8
0
  5
34D6
 10
753.359
 20
38.9244
 30
-8.63298e-15
  70
    32
  0
VERTEX
  8
0
  5
34D7
 10
753.343
 20
38.9197
 30
-8.63128e-15
  70
    32
  0
VERTEX
  8
0
  5
34D8
 10
753.328
 20
38.9150
 30
-8.62959e-15
  70
    32
  0
VERTEX
  8
0
  5
34D9
 10
753.312
 20
38.9104
 30
-8.62793e-15
  70
    32
  0
VERTEX
  8
0
  5
34DA
 10
753.297
 20
38.9057
 30
-8.62630e-15
  70
    32
  0
VERTEX
  8
0
  5
34DB
 10
753.281
 20
38.9012
 30
-8.62469e-15
  70
    32
  0
VERTEX
  8
0
  5
34DC
 10
753.266
 20
38.8966
 30
-8.62312e-15
  70
    32
  0
VERTEX
  8
0
  5
34DD
 10
753.250
 20
38.8921
 30
-8.62158e-15
  70
    32
  0
VERTEX
  8
0
  5
34DE
 10
753.235
 20
38.8877
 30
-8.62008e-15
  70
    32
  0
VERTEX
  8
0
  5
34DF
 10
753.219
 20
38.8833
 30
-8.61861e-15
  70
    32
  0
VERTEX
  8
0
  5
34E0
 10
753.204
 20
38.8789
 30
-8.61718e-15
  70
    32
  0
VERTEX
  8
0
  5
34E1
 10
753.188
 20
38.8746
 30
-8.61579e-15
  70
    32
  0
VERTEX
  8
0
  5
34E2
 10
753.173
 20
38.8703
 30
-8.61445e-15
  70
    32
  0
VERTEX
  8
0
  5
34E3
 10
753.158
 20
38.8660
 30
-8.61315e-15
  70
    32
  0
VERTEX
  8
0
  5
34E4
 10
753.142
 20
38.8618
 30
-8.61190e-15
  70
    32
  0
VERTEX
  8
0
  5
34E5
 10
753.127
 20
38.8576
 30
-8.61070e-15
  70
    32
  0
VERTEX
  8
0
  5
34E6
 10
753.112
 20
38.8535
 30
-8.60955e-15
  70
    32
  0
VERTEX
  8
0
  5
34E7
 10
753.096
 20
38.8494
 30
-8.60846e-15
  70
    32
  0
VERTEX
  8
0
  5
34E8
 10
753.081
 20
38.8453
 30
-8.60742e-15
  70
    32
  0
VERTEX
  8
0
  5
34E9
 10
753.066
 20
38.8413
 30
-8.60644e-15
  70
    32
  0
VERTEX
  8
0
  5
34EA
 10
753.050
 20
38.8373
 30
-8.60552e-15
  70
    32
  0
VERTEX
  8
0
  5
34EB
 10
753.035
 20
38.8334
 30
-8.60467e-15
  70
    32
  0
VERTEX
  8
0
  5
34EC
 10
753.020
 20
38.8295
 30
-8.60388e-15
  70
    32
  0
VERTEX
  8
0
  5
34ED
 10
753.005
 20
38.8257
 30
-8.60315e-15
  70
    32
  0
VERTEX
  8
0
  5
34EE
 10
752.990
 20
38.8218
 30
-8.60250e-15
  70
    32
  0
VERTEX
  8
0
  5
34EF
 10
752.975
 20
38.8181
 30
-8.60192e-15
  70
    32
  0
VERTEX
  8
0
  5
34F0
 10
752.959
 20
38.8143
 30
-8.60141e-15
  70
    32
  0
VERTEX
  8
0
  5
34F1
 10
752.944
 20
38.8107
 30
-8.60097e-15
  70
    32
  0
VERTEX
  8
0
  5
34F2
 10
752.929
 20
38.8070
 30
-8.60061e-15
  70
    32
  0
VERTEX
  8
0
  5
34F3
 10
752.914
 20
38.8034
 30
-8.60034e-15
  70
    32
  0
VERTEX
  8
0
  5
34F4
 10
752.899
 20
38.7999
 30
-8.60014e-15
  70
    32
  0
VERTEX
  8
0
  5
34F5
 10
752.884
 20
38.7963
 30
-8.60003e-15
  70
    32
  0
VERTEX
  8
0
  5
34F6
 10
752.869
 20
38.7929
 30
-8.60000e-15
  70
    32
  0
VERTEX
  8
0
  5
34F7
 10
752.854
 20
38.7894
 30
-8.60000e-15
  70
    32
  0
VERTEX
  8
0
  5
34F8
 10
752.839
 20
38.7860
 30
-8.60000e-15
  70
    32
  0
VERTEX
  8
0
  5
34F9
 10
752.824
 20
38.7827
 30
-8.60000e-15
  70
    32
  0
VERTEX
  8
0
  5
34FA
 10
752.809
 20
38.7794
 30
-8.60000e-15
  70
    32
  0
VERTEX
  8
0
  5
34FB
 10
752.794
 20
38.7761
 30
-8.60000e-15
  70
    32
  0
VERTEX
  8
0
  5
34FC
 10
752.779
 20
38.7729
 30
-8.60000e-15
  70
    32
  0
VERTEX
  8
0
  5
34FD
 10
752.765
 20
38.7697
 30
-8.60000e-15
  70
    32
  0
VERTEX
  8
0
  5
34FE
 10
752.750
 20
38.7665
 30
-8.60000e-15
  70
    32
  0
VERTEX
  8
0
  5
34FF
 10
752.735
 20
38.7634
 30
-8.60000e-15
  70
    32
  0
VERTEX
  8
0
  5
3500
 10
752.720
 20
38.7604
 30
-8.60000e-15
  70
    32
  0
VERTEX
  8
0
  5
3501
 10
752.705
 20
38.7574
 30
-8.60000e-15
  70
    32
  0
VERTEX
  8
0
  5
3502
 10
752.691
 20
38.7544
 30
-8.60000e-15
  70
    32
  0
VERTEX
  8
0
  5
3503
 10
752.676
 20
38.7515
 30
-8.60000e-15
  70
    32
  0
VERTEX
  8
0
  5
3504
 10
752.661
 20
38.7486
 30
-8.60000e-15
  70
    32
  0
VERTEX
  8
0
  5
3505
 10
752.646
 20
38.7457
 30
-8.60000e-15
  70
    32
  0
VERTEX
  8
0
  5
3506
 10
752.632
 20
38.7429
 30
-8.60000e-15
  70
    32
  0
VERTEX
  8
0
  5
3507
 10
752.617
 20
38.7401
 30
-8.60000e-15
  70
    32
  0
VERTEX
  8
0
  5
3508
 10
752.603
 20
38.7374
 30
-8.60000e-15
  70
    32
  0
VERTEX
  8
0
  5
3509
 10
752.588
 20
38.7347
 30
-8.60000e-15
  70
    32
  0
VERTEX
  8
0
  5
350A
 10
752.573
 20
38.7321
 30
-8.60000e-15
  70
    32
  0
VERTEX
  8
0
  5
350B
 10
752.559
 20
38.7295
 30
-8.60000e-15
  70
    32
  0
VERTEX
  8
0
  5
350C
 10
752.544
 20
38.7269
 30
-8.60000e-15
  70
    32
  0
VERTEX
  8
0
  5
350D
 10
752.530
 20
38.7244
 30
-8.60000e-15
  70
    32
  0
VERTEX
  8
0
  5
350E
 10
752.515
 20
38.7220
 30
-8.60000e-15
  70
    32
  0
VERTEX
  8
0
  5
350F
 10
752.501
 20
38.7195
 30
-8.60000e-15
  70
    32
  0
VERTEX
  8
0
  5
3510
 10
752.487
 20
38.7171
 30
-8.60000e-15
  70
    32
  0
VERTEX
  8
0
  5
3511
 10
752.472
 20
38.7148
 30
-8.60000e-15
  70
    32
  0
VERTEX
  8
0
  5
3512
 10
752.458
 20
38.7125
 30
-8.60000e-15
  70
    32
  0
VERTEX
  8
0
  5
3513
 10
752.443
 20
38.7102
 30
-8.60000e-15
  70
    32
  0
VERTEX
  8
0
  5
3514
 10
752.429
 20
38.7080
 30
-8.60000e-15
  70
    32
  0
VERTEX
  8
0
  5
3515
 10
752.415
 20
38.7058
 30
-8.60000e-15
  70
    32
  0
VERTEX
  8
0
  5
3516
 10
752.401
 20
38.7037
 30
-8.60000e-15
  70
    32
  0
VERTEX
  8
0
  5
3517
 10
752.386
 20
38.7016
 30
-8.60000e-15
  70
    32
  0
VERTEX
  8
0
  5
3518
 10
752.372
 20
38.6996
 30
-8.60000e-15
  70
    32
  0
VERTEX
  8
0
  5
3519
 10
752.358
 20
38.6976
 30
-8.60000e-15
  70
    32
  0
VERTEX
  8
0
  5
351A
 10
752.344
 20
38.6956
 30
-8.60000e-15
  70
    32
  0
VERTEX
  8
0
  5
351B
 10
752.330
 20
38.6937
 30
-8.60000e-15
  70
    32
  0
VERTEX
  8
0
  5
351C
 10
752.315
 20
38.6918
 30
-8.60000e-15
  70
    32
  0
VERTEX
  8
0
  5
351D
 10
752.301
 20
38.6899
 30
-8.60000e-15
  70
    32
  0
VERTEX
  8
0
  5
351E
 10
752.287
 20
38.6881
 30
-8.60000e-15
  70
    32
  0
VERTEX
  8
0
  5
351F
 10
752.273
 20
38.6864
 30
-8.60000e-15
  70
    32
  0
VERTEX
  8
0
  5
3520
 10
752.259
 20
38.6847
 30
-8.60000e-15
  70
    32
  0
VERTEX
  8
0
  5
3521
 10
752.245
 20
38.6830
 30
-8.60000e-15
  70
    32
  0
VERTEX
  8
0
  5
3522
 10
752.231
 20
38.6814
 30
-8.60000e-15
  70
    32
  0
VERTEX
  8
0
  5
3523
 10
752.217
 20
38.6798
 30
-8.60000e-15
  70
    32
  0
VERTEX
  8
0
  5
3524
 10
752.203
 20
38.6782
 30
-8.60000e-15
  70
    32
  0
VERTEX
  8
0
  5
3525
 10
752.190
 20
38.6767
 30
-8.60000e-15
  70
    32
  0
VERTEX
  8
0
  5
3526
 10
752.176
 20
38.6752
 30
-8.60000e-15
  70
    32
  0
VERTEX
  8
0
  5
3527
 10
752.162
 20
38.6738
 30
-8.60000e-15
  70
    32
  0
VERTEX
  8
0
  5
3528
 10
752.148
 20
38.6724
 30
-8.60000e-15
  70
    32
  0
VERTEX
  8
0
  5
3529
 10
752.134
 20
38.6711
 30
-8.60000e-15
  70
    32
  0
VERTEX
  8
0
  5
352A
 10
752.121
 20
38.6698
 30
-8.60000e-15
  70
    32
  0
VERTEX
  8
0
  5
352B
 10
752.107
 20
38.6685
 30
-8.60000e-15
  70
    32
  0
VERTEX
  8
0
  5
352C
 10
752.093
 20
38.6673
 30
-8.60000e-15
  70
    32
  0
VERTEX
  8
0
  5
352D
 10
752.080
 20
38.6662
 30
-8.60000e-15
  70
    32
  0
VERTEX
  8
0
  5
352E
 10
752.066
 20
38.6650
 30
-8.60000e-15
  70
    32
  0
VERTEX
  8
0
  5
352F
 10
752.052
 20
38.6639
 30
-8.60000e-15
  70
    32
  0
VERTEX
  8
0
  5
3530
 10
752.039
 20
38.6629
 30
-8.60000e-15
  70
    32
  0
VERTEX
  8
0
  5
3531
 10
752.025
 20
38.6619
 30
-8.60000e-15
  70
    32
  0
VERTEX
  8
0
  5
3532
 10
752.012
 20
38.6609
 30
-8.60000e-15
  70
    32
  0
VERTEX
  8
0
  5
3533
 10
751.998
 20
38.6600
 30
-8.60000e-15
  70
    32
  0
VERTEX
  8
0
  5
3534
 10
751.985
 20
38.6591
 30
-8.60000e-15
  70
    32
  0
VERTEX
  8
0
  5
3535
 10
751.971
 20
38.6583
 30
-8.60000e-15
  70
    32
  0
VERTEX
  8
0
  5
3536
 10
751.958
 20
38.6575
 30
-8.60000e-15
  70
    32
  0
VERTEX
  8
0
  5
3537
 10
751.945
 20
38.6568
 30
-8.60000e-15
  70
    32
  0
VERTEX
  8
0
  5
3538
 10
751.931
 20
38.6560
 30
-8.60000e-15
  70
    32
  0
VERTEX
  8
0
  5
3539
 10
751.918
 20
38.6554
 30
-8.60000e-15
  70
    32
  0
VERTEX
  8
0
  5
353A
 10
751.905
 20
38.6547
 30
-8.60000e-15
  70
    32
  0
VERTEX
  8
0
  5
353B
 10
751.892
 20
38.6542
 30
-8.60000e-15
  70
    32
  0
VERTEX
  8
0
  5
353C
 10
751.878
 20
38.6536
 30
-8.60000e-15
  70
    32
  0
VERTEX
  8
0
  5
353D
 10
751.865
 20
38.6531
 30
-8.60000e-15
  70
    32
  0
VERTEX
  8
0
  5
353E
 10
751.852
 20
38.6527
 30
-8.60000e-15
  70
    32
  0
VERTEX
  8
0
  5
353F
 10
751.839
 20
38.6522
 30
-8.60000e-15
  70
    32
  0
VERTEX
  8
0
  5
3540
 10
751.826
 20
38.6519
 30
-8.60000e-15
  70
    32
  0
VERTEX
  8
0
  5
3541
 10
751.813
 20
38.6515
 30
-8.60000e-15
  70
    32
  0
VERTEX
  8
0
  5
3542
 10
751.800
 20
38.6512
 30
-8.60000e-15
  70
    32
  0
VERTEX
  8
0
  5
3543
 10
751.787
 20
38.6510
 30
-8.60000e-15
  70
    32
  0
VERTEX
  8
0
  5
3544
 10
751.774
 20
38.6508
 30
-8.60000e-15
  70
    32
  0
VERTEX
  8
0
  5
3545
 10
751.761
 20
38.6506
 30
-8.60000e-15
  70
    32
  0
VERTEX
  8
0
  5
3546
 10
751.748
 20
38.6505
 30
-8.60000e-15
  70
    32
  0
VERTEX
  8
0
  5
3547
 10
751.735
 20
38.6504
 30
-8.60000e-15
  70
    32
  0
VERTEX
  8
0
  5
3548
 10
751.722
 20
38.6504
 30
-8.60000e-15
  70
    32
  0
VERTEX
  8
0
  5
3549
 10
751.709
 20
38.6504
 30
-8.60000e-15
  70
    32
  0
VERTEX
  8
0
  5
354A
 10
751.697
 20
38.6504
 30
-8.60000e-15
  70
    32
  0
VERTEX
  8
0
  5
354B
 10
751.684
 20
38.6505
 30
-8.60000e-15
  70
    32
  0
VERTEX
  8
0
  5
354C
 10
751.671
 20
38.6506
 30
-8.60000e-15
  70
    32
  0
VERTEX
  8
0
  5
354D
 10
751.658
 20
38.6508
 30
-8.60000e-15
  70
    32
  0
VERTEX
  8
0
  5
354E
 10
751.646
 20
38.6510
 30
-8.60000e-15
  70
    32
  0
VERTEX
  8
0
  5
354F
 10
751.633
 20
38.6512
 30
-8.60000e-15
  70
    32
  0
VERTEX
  8
0
  5
3550
 10
751.620
 20
38.6515
 30
-8.60000e-15
  70
    32
  0
VERTEX
  8
0
  5
3551
 10
751.608
 20
38.6519
 30
-8.60000e-15
  70
    32
  0
VERTEX
  8
0
  5
3552
 10
751.595
 20
38.6522
 30
-8.60000e-15
  70
    32
  0
VERTEX
  8
0
  5
3553
 10
751.583
 20
38.6527
 30
-8.60000e-15
  70
    32
  0
VERTEX
  8
0
  5
3554
 10
751.570
 20
38.6531
 30
-8.60000e-15
  70
    32
  0
VERTEX
  8
0
  5
3555
 10
751.557
 20
38.6536
 30
-8.60000e-15
  70
    32
  0
VERTEX
  8
0
  5
3556
 10
751.545
 20
38.6542
 30
-8.60000e-15
  70
    32
  0
VERTEX
  8
0
  5
3557
 10
751.532
 20
38.6547
 30
-8.60000e-15
  70
    32
  0
VERTEX
  8
0
  5
3558
 10
751.520
 20
38.6554
 30
-8.60000e-15
  70
    32
  0
VERTEX
  8
0
  5
3559
 10
751.507
 20
38.6560
 30
-8.60000e-15
  70
    32
  0
VERTEX
  8
0
  5
355A
 10
751.495
 20
38.6568
 30
-8.60000e-15
  70
    32
  0
VERTEX
  8
0
  5
355B
 10
751.483
 20
38.6575
 30
-8.60000e-15
  70
    32
  0
VERTEX
  8
0
  5
355C
 10
751.470
 20
38.6583
 30
-8.60000e-15
  70
    32
  0
VERTEX
  8
0
  5
355D
 10
751.458
 20
38.6591
 30
-8.60000e-15
  70
    32
  0
VERTEX
  8
0
  5
355E
 10
751.446
 20
38.6600
 30
-8.60000e-15
  70
    32
  0
VERTEX
  8
0
  5
355F
 10
751.433
 20
38.6609
 30
-8.60000e-15
  70
    32
  0
VERTEX
  8
0
  5
3560
 10
751.421
 20
38.6619
 30
-8.60000e-15
  70
    32
  0
VERTEX
  8
0
  5
3561
 10
751.409
 20
38.6629
 30
-8.60000e-15
  70
    32
  0
VERTEX
  8
0
  5
3562
 10
751.396
 20
38.6639
 30
-8.60000e-15
  70
    32
  0
VERTEX
  8
0
  5
3563
 10
751.384
 20
38.6650
 30
-8.60000e-15
  70
    32
  0
VERTEX
  8
0
  5
3564
 10
751.372
 20
38.6662
 30
-8.60000e-15
  70
    32
  0
VERTEX
  8
0
  5
3565
 10
751.360
 20
38.6673
 30
-8.60000e-15
  70
    32
  0
VERTEX
  8
0
  5
3566
 10
751.348
 20
38.6685
 30
-8.60000e-15
  70
    32
  0
VERTEX
  8
0
  5
3567
 10
751.335
 20
38.6698
 30
-8.60000e-15
  70
    32
  0
VERTEX
  8
0
  5
3568
 10
751.323
 20
38.6711
 30
-8.60000e-15
  70
    32
  0
VERTEX
  8
0
  5
3569
 10
751.311
 20
38.6724
 30
-8.60000e-15
  70
    32
  0
VERTEX
  8
0
  5
356A
 10
751.299
 20
38.6738
 30
-8.60000e-15
  70
    32
  0
VERTEX
  8
0
  5
356B
 10
751.287
 20
38.6752
 30
-8.60000e-15
  70
    32
  0
VERTEX
  8
0
  5
356C
 10
751.275
 20
38.6767
 30
-8.60000e-15
  70
    32
  0
VERTEX
  8
0
  5
356D
 10
751.263
 20
38.6782
 30
-8.60000e-15
  70
    32
  0
VERTEX
  8
0
  5
356E
 10
751.251
 20
38.6798
 30
-8.60000e-15
  70
    32
  0
VERTEX
  8
0
  5
356F
 10
751.239
 20
38.6814
 30
-8.60000e-15
  70
    32
  0
VERTEX
  8
0
  5
3570
 10
751.227
 20
38.6830
 30
-8.60000e-15
  70
    32
  0
VERTEX
  8
0
  5
3571
 10
751.216
 20
38.6847
 30
-8.60000e-15
  70
    32
  0
VERTEX
  8
0
  5
3572
 10
751.204
 20
38.6864
 30
-8.60000e-15
  70
    32
  0
VERTEX
  8
0
  5
3573
 10
751.192
 20
38.6881
 30
-8.60000e-15
  70
    32
  0
VERTEX
  8
0
  5
3574
 10
751.180
 20
38.6899
 30
-8.60000e-15
  70
    32
  0
VERTEX
  8
0
  5
3575
 10
751.168
 20
38.6918
 30
-8.60000e-15
  70
    32
  0
VERTEX
  8
0
  5
3576
 10
751.156
 20
38.6937
 30
-8.60000e-15
  70
    32
  0
VERTEX
  8
0
  5
3577
 10
751.145
 20
38.6956
 30
-8.60000e-15
  70
    32
  0
VERTEX
  8
0
  5
3578
 10
751.133
 20
38.6976
 30
-8.60000e-15
  70
    32
  0
VERTEX
  8
0
  5
3579
 10
751.121
 20
38.6996
 30
-8.60000e-15
  70
    32
  0
VERTEX
  8
0
  5
357A
 10
751.110
 20
38.7016
 30
-8.60000e-15
  70
    32
  0
VERTEX
  8
0
  5
357B
 10
751.098
 20
38.7037
 30
-8.60000e-15
  70
    32
  0
VERTEX
  8
0
  5
357C
 10
751.087
 20
38.7058
 30
-8.60000e-15
  70
    32
  0
VERTEX
  8
0
  5
357D
 10
751.075
 20
38.7080
 30
-8.60000e-15
  70
    32
  0
VERTEX
  8
0
  5
357E
 10
751.063
 20
38.7102
 30
-8.60000e-15
  70
    32
  0
VERTEX
  8
0
  5
357F
 10
751.052
 20
38.7125
 30
-8.60000e-15
  70
    32
  0
VERTEX
  8
0
  5
3580
 10
751.040
 20
38.7148
 30
-8.60000e-15
  70
    32
  0
VERTEX
  8
0
  5
3581
 10
751.029
 20
38.7171
 30
-8.60000e-15
  70
    32
  0
VERTEX
  8
0
  5
3582
 10
751.018
 20
38.7195
 30
-8.60000e-15
  70
    32
  0
VERTEX
  8
0
  5
3583
 10
751.006
 20
38.7220
 30
-8.60000e-15
  70
    32
  0
VERTEX
  8
0
  5
3584
 10
750.995
 20
38.7244
 30
-8.60000e-15
  70
    32
  0
VERTEX
  8
0
  5
3585
 10
750.984
 20
38.7269
 30
-8.60000e-15
  70
    32
  0
VERTEX
  8
0
  5
3586
 10
750.972
 20
38.7295
 30
-8.60000e-15
  70
    32
  0
VERTEX
  8
0
  5
3587
 10
750.961
 20
38.7321
 30
-8.60000e-15
  70
    32
  0
VERTEX
  8
0
  5
3588
 10
750.950
 20
38.7347
 30
-8.60000e-15
  70
    32
  0
VERTEX
  8
0
  5
3589
 10
750.938
 20
38.7374
 30
-8.60000e-15
  70
    32
  0
VERTEX
  8
0
  5
358A
 10
750.927
 20
38.7401
 30
-8.60000e-15
  70
    32
  0
VERTEX
  8
0
  5
358B
 10
750.916
 20
38.7429
 30
-8.60000e-15
  70
    32
  0
VERTEX
  8
0
  5
358C
 10
750.905
 20
38.7457
 30
-8.60000e-15
  70
    32
  0
VERTEX
  8
0
  5
358D
 10
750.894
 20
38.7486
 30
-8.60000e-15
  70
    32
  0
VERTEX
  8
0
  5
358E
 10
750.883
 20
38.7515
 30
-8.60000e-15
  70
    32
  0
VERTEX
  8
0
  5
358F
 10
750.872
 20
38.7544
 30
-8.60000e-15
  70
    32
  0
VERTEX
  8
0
  5
3590
 10
750.861
 20
38.7574
 30
-8.60000e-15
  70
    32
  0
VERTEX
  8
0
  5
3591
 10
750.850
 20
38.7604
 30
-8.60000e-15
  70
    32
  0
VERTEX
  8
0
  5
3592
 10
750.839
 20
38.7634
 30
-8.60000e-15
  70
    32
  0
VERTEX
  8
0
  5
3593
 10
750.828
 20
38.7665
 30
-8.60000e-15
  70
    32
  0
VERTEX
  8
0
  5
3594
 10
750.817
 20
38.7697
 30
-8.60000e-15
  70
    32
  0
VERTEX
  8
0
  5
3595
 10
750.806
 20
38.7729
 30
-8.60000e-15
  70
    32
  0
VERTEX
  8
0
  5
3596
 10
750.795
 20
38.7761
 30
-8.60000e-15
  70
    32
  0
VERTEX
  8
0
  5
3597
 10
750.785
 20
38.7794
 30
-8.60000e-15
  70
    32
  0
VERTEX
  8
0
  5
3598
 10
750.774
 20
38.7827
 30
-8.60000e-15
  70
    32
  0
VERTEX
  8
0
  5
3599
 10
750.763
 20
38.7860
 30
-8.60000e-15
  70
    32
  0
VERTEX
  8
0
  5
359A
 10
750.752
 20
38.7894
 30
-8.60000e-15
  70
    32
  0
VERTEX
  8
0
  5
359B
 10
750.742
 20
38.7929
 30
-8.60000e-15
  70
    32
  0
VERTEX
  8
0
  5
359C
 10
750.731
 20
38.7963
 30
-8.60003e-15
  70
    32
  0
VERTEX
  8
0
  5
359D
 10
750.720
 20
38.7999
 30
-8.60014e-15
  70
    32
  0
VERTEX
  8
0
  5
359E
 10
750.710
 20
38.8034
 30
-8.60034e-15
  70
    32
  0
VERTEX
  8
0
  5
359F
 10
750.699
 20
38.8070
 30
-8.60061e-15
  70
    32
  0
VERTEX
  8
0
  5
35A0
 10
750.689
 20
38.8107
 30
-8.60097e-15
  70
    32
  0
VERTEX
  8
0
  5
35A1
 10
750.678
 20
38.8143
 30
-8.60141e-15
  70
    32
  0
VERTEX
  8
0
  5
35A2
 10
750.668
 20
38.8181
 30
-8.60192e-15
  70
    32
  0
VERTEX
  8
0
  5
35A3
 10
750.658
 20
38.8218
 30
-8.60250e-15
  70
    32
  0
VERTEX
  8
0
  5
35A4
 10
750.647
 20
38.8257
 30
-8.60315e-15
  70
    32
  0
VERTEX
  8
0
  5
35A5
 10
750.637
 20
38.8295
 30
-8.60388e-15
  70
    32
  0
VERTEX
  8
0
  5
35A6
 10
750.626
 20
38.8334
 30
-8.60467e-15
  70
    32
  0
VERTEX
  8
0
  5
35A7
 10
750.616
 20
38.8373
 30
-8.60552e-15
  70
    32
  0
VERTEX
  8
0
  5
35A8
 10
750.606
 20
38.8413
 30
-8.60644e-15
  70
    32
  0
VERTEX
  8
0
  5
35A9
 10
750.596
 20
38.8453
 30
-8.60742e-15
  70
    32
  0
VERTEX
  8
0
  5
35AA
 10
750.586
 20
38.8494
 30
-8.60846e-15
  70
    32
  0
VERTEX
  8
0
  5
35AB
 10
750.575
 20
38.8535
 30
-8.60955e-15
  70
    32
  0
VERTEX
  8
0
  5
35AC
 10
750.565
 20
38.8576
 30
-8.61070e-15
  70
    32
  0
VERTEX
  8
0
  5
35AD
 10
750.555
 20
38.8618
 30
-8.61190e-15
  70
    32
  0
VERTEX
  8
0
  5
35AE
 10
750.545
 20
38.8660
 30
-8.61315e-15
  70
    32
  0
VERTEX
  8
0
  5
35AF
 10
750.535
 20
38.8703
 30
-8.61445e-15
  70
    32
  0
VERTEX
  8
0
  5
35B0
 10
750.525
 20
38.8746
 30
-8.61579e-15
  70
    32
  0
VERTEX
  8
0
  5
35B1
 10
750.515
 20
38.8789
 30
-8.61718e-15
  70
    32
  0
VERTEX
  8
0
  5
35B2
 10
750.505
 20
38.8833
 30
-8.61861e-15
  70
    32
  0
VERTEX
  8
0
  5
35B3
 10
750.495
 20
38.8877
 30
-8.62008e-15
  70
    32
  0
VERTEX
  8
0
  5
35B4
 10
750.486
 20
38.8921
 30
-8.62158e-15
  70
    32
  0
VERTEX
  8
0
  5
35B5
 10
750.476
 20
38.8966
 30
-8.62312e-15
  70
    32
  0
VERTEX
  8
0
  5
35B6
 10
750.466
 20
38.9012
 30
-8.62469e-15
  70
    32
  0
VERTEX
  8
0
  5
35B7
 10
750.456
 20
38.9057
 30
-8.62630e-15
  70
    32
  0
VERTEX
  8
0
  5
35B8
 10
750.446
 20
38.9104
 30
-8.62793e-15
  70
    32
  0
VERTEX
  8
0
  5
35B9
 10
750.437
 20
38.9150
 30
-8.62959e-15
  70
    32
  0
VERTEX
  8
0
  5
35BA
 10
750.427
 20
38.9197
 30
-8.63128e-15
  70
    32
  0
VERTEX
  8
0
  5
35BB
 10
750.418
 20
38.9244
 30
-8.63298e-15
  70
    32
  0
VERTEX
  8
0
  5
35BC
 10
750.408
 20
38.9292
 30
-8.63471e-15
  70
    32
  0
VERTEX
  8
0
  5
35BD
 10
750.398
 20
38.9340
 30
-8.63645e-15
  70
    32
  0
VERTEX
  8
0
  5
35BE
 10
750.389
 20
38.9389
 30
-8.63821e-15
  70
    32
  0
VERTEX
  8
0
  5
35BF
 10
750.379
 20
38.9437
 30
-8.63999e-15
  70
    32
  0
VERTEX
  8
0
  5
35C0
 10
750.370
 20
38.9487
 30
-8.64178e-15
  70
    32
  0
VERTEX
  8
0
  5
35C1
 10
750.361
 20
38.9536
 30
-8.64357e-15
  70
    32
  0
VERTEX
  8
0
  5
35C2
 10
750.351
 20
38.9586
 30
-8.64538e-15
  70
    32
  0
VERTEX
  8
0
  5
35C3
 10
750.342
 20
38.9637
 30
-8.64718e-15
  70
    32
  0
VERTEX
  8
0
  5
35C4
 10
750.333
 20
38.9687
 30
-8.64900e-15
  70
    32
  0
VERTEX
  8
0
  5
35C5
 10
750.323
 20
38.9739
 30
-8.65081e-15
  70
    32
  0
VERTEX
  8
0
  5
35C6
 10
750.314
 20
38.9790
 30
-8.65262e-15
  70
    32
  0
VERTEX
  8
0
  5
35C7
 10
750.305
 20
38.9842
 30
-8.65443e-15
  70
    32
  0
VERTEX
  8
0
  5
35C8
 10
750.296
 20
38.9894
 30
-8.65624e-15
  70
    32
  0
VERTEX
  8
0
  5
35C9
 10
750.287
 20
38.9947
 30
-8.65803e-15
  70
    32
  0
VERTEX
  8
0
  5
35CA
 10
750.277
 20
39.0000
 30
-8.65982e-15
  70
    32
  0
VERTEX
  8
0
  5
35CB
 10
750.268
 20
39.0053
 30
-8.66160e-15
  70
    32
  0
VERTEX
  8
0
  5
35CC
 10
750.259
 20
39.0107
 30
-8.66336e-15
  70
    32
  0
VERTEX
  8
0
  5
35CD
 10
750.250
 20
39.0161
 30
-8.66511e-15
  70
    32
  0
VERTEX
  8
0
  5
35CE
 10
750.241
 20
39.0216
 30
-8.66684e-15
  70
    32
  0
VERTEX
  8
0
  5
35CF
 10
750.232
 20
39.0271
 30
-8.66854e-15
  70
    32
  0
VERTEX
  8
0
  5
35D0
 10
750.224
 20
39.0326
 30
-8.67023e-15
  70
    32
  0
VERTEX
  8
0
  5
35D1
 10
750.215
 20
39.0381
 30
-8.67189e-15
  70
    32
  0
VERTEX
  8
0
  5
35D2
 10
750.206
 20
39.0437
 30
-8.67353e-15
  70
    32
  0
VERTEX
  8
0
  5
35D3
 10
750.197
 20
39.0494
 30
-8.67514e-15
  70
    32
  0
VERTEX
  8
0
  5
35D4
 10
750.188
 20
39.0551
 30
-8.67671e-15
  70
    32
  0
VERTEX
  8
0
  5
35D5
 10
750.180
 20
39.0608
 30
-8.67826e-15
  70
    32
  0
VERTEX
  8
0
  5
35D6
 10
750.171
 20
39.0665
 30
-8.67977e-15
  70
    32
  0
VERTEX
  8
0
  5
35D7
 10
750.162
 20
39.0723
 30
-8.68124e-15
  70
    32
  0
VERTEX
  8
0
  5
35D8
 10
750.154
 20
39.0781
 30
-8.68267e-15
  70
    32
  0
VERTEX
  8
0
  5
35D9
 10
750.145
 20
39.0840
 30
-8.68406e-15
  70
    32
  0
VERTEX
  8
0
  5
35DA
 10
750.137
 20
39.0899
 30
-8.68541e-15
  70
    32
  0
VERTEX
  8
0
  5
35DB
 10
750.128
 20
39.0958
 30
-8.68671e-15
  70
    32
  0
VERTEX
  8
0
  5
35DC
 10
750.120
 20
39.1017
 30
-8.68797e-15
  70
    32
  0
VERTEX
  8
0
  5
35DD
 10
750.111
 20
39.1077
 30
-8.68917e-15
  70
    32
  0
VERTEX
  8
0
  5
35DE
 10
750.103
 20
39.1138
 30
-8.69033e-15
  70
    32
  0
VERTEX
  8
0
  5
35DF
 10
750.095
 20
39.1198
 30
-8.69143e-15
  70
    32
  0
VERTEX
  8
0
  5
35E0
 10
750.086
 20
39.1259
 30
-8.69247e-15
  70
    32
  0
VERTEX
  8
0
  5
35E1
 10
750.078
 20
39.1321
 30
-8.69346e-15
  70
    32
  0
VERTEX
  8
0
  5
35E2
 10
750.070
 20
39.1383
 30
-8.69438e-15
  70
    32
  0
VERTEX
  8
0
  5
35E3
 10
750.061
 20
39.1445
 30
-8.69524e-15
  70
    32
  0
VERTEX
  8
0
  5
35E4
 10
750.053
 20
39.1507
 30
-8.69604e-15
  70
    32
  0
VERTEX
  8
0
  5
35E5
 10
750.045
 20
39.1570
 30
-8.69677e-15
  70
    32
  0
VERTEX
  8
0
  5
35E6
 10
750.037
 20
39.1633
 30
-8.69743e-15
  70
    32
  0
VERTEX
  8
0
  5
35E7
 10
750.029
 20
39.1696
 30
-8.69803e-15
  70
    32
  0
VERTEX
  8
0
  5
35E8
 10
750.021
 20
39.1760
 30
-8.69854e-15
  70
    32
  0
VERTEX
  8
0
  5
35E9
 10
750.013
 20
39.1824
 30
-8.69899e-15
  70
    32
  0
VERTEX
  8
0
  5
35EA
 10
750.005
 20
39.1889
 30
-8.69935e-15
  70
    32
  0
VERTEX
  8
0
  5
35EB
 10
749.997
 20
39.1954
 30
-8.69964e-15
  70
    32
  0
VERTEX
  8
0
  5
35EC
 10
749.989
 20
39.2019
 30
-8.69984e-15
  70
    32
  0
VERTEX
  8
0
  5
35ED
 10
749.981
 20
39.2085
 30
-8.69996e-15
  70
    32
  0
VERTEX
  8
0
  5
35EE
 10
749.974
 20
39.2150
 30
-8.70000e-15
  70
    32
  0
VERTEX
  8
0
  5
35EF
 10
749.966
 20
39.2217
 30
-8.70011e-15
  70
    32
  0
VERTEX
  8
0
  5
35F0
 10
749.958
 20
39.2283
 30
-8.70038e-15
  70
    32
  0
VERTEX
  8
0
  5
35F1
 10
749.950
 20
39.2350
 30
-8.70082e-15
  70
    32
  0
VERTEX
  8
0
  5
35F2
 10
749.943
 20
39.2417
 30
-8.70142e-15
  70
    32
  0
VERTEX
  8
0
  5
35F3
 10
749.935
 20
39.2485
 30
-8.70217e-15
  70
    32
  0
VERTEX
  8
0
  5
35F4
 10
749.928
 20
39.2553
 30
-8.70307e-15
  70
    32
  0
VERTEX
  8
0
  5
35F5
 10
749.920
 20
39.2621
 30
-8.70411e-15
  70
    32
  0
VERTEX
  8
0
  5
35F6
 10
749.912
 20
39.2690
 30
-8.70528e-15
  70
    32
  0
VERTEX
  8
0
  5
35F7
 10
749.905
 20
39.2758
 30
-8.70659e-15
  70
    32
  0
VERTEX
  8
0
  5
35F8
 10
749.898
 20
39.2828
 30
-8.70801e-15
  70
    32
  0
VERTEX
  8
0
  5
35F9
 10
749.890
 20
39.2897
 30
-8.70955e-15
  70
    32
  0
VERTEX
  8
0
  5
35FA
 10
749.883
 20
39.2967
 30
-8.71120e-15
  70
    32
  0
VERTEX
  8
0
  5
35FB
 10
749.875
 20
39.3037
 30
-8.71295e-15
  70
    32
  0
VERTEX
  8
0
  5
35FC
 10
749.868
 20
39.3108
 30
-8.71480e-15
  70
    32
  0
VERTEX
  8
0
  5
35FD
 10
749.861
 20
39.3179
 30
-8.71675e-15
  70
    32
  0
VERTEX
  8
0
  5
35FE
 10
749.854
 20
39.3250
 30
-8.71877e-15
  70
    32
  0
VERTEX
  8
0
  5
35FF
 10
749.846
 20
39.3321
 30
-8.72088e-15
  70
    32
  0
VERTEX
  8
0
  5
3600
 10
749.839
 20
39.3393
 30
-8.72306e-15
  70
    32
  0
VERTEX
  8
0
  5
3601
 10
749.832
 20
39.3465
 30
-8.72531e-15
  70
    32
  0
VERTEX
  8
0
  5
3602
 10
749.825
 20
39.3537
 30
-8.72762e-15
  70
    32
  0
VERTEX
  8
0
  5
3603
 10
749.818
 20
39.3610
 30
-8.72998e-15
  70
    32
  0
VERTEX
  8
0
  5
3604
 10
749.811
 20
39.3683
 30
-8.73239e-15
  70
    32
  0
VERTEX
  8
0
  5
3605
 10
749.804
 20
39.3756
 30
-8.73485e-15
  70
    32
  0
VERTEX
  8
0
  5
3606
 10
749.797
 20
39.3830
 30
-8.73734e-15
  70
    32
  0
VERTEX
  8
0
  5
3607
 10
749.790
 20
39.3904
 30
-8.73986e-15
  70
    32
  0
VERTEX
  8
0
  5
3608
 10
749.783
 20
39.3978
 30
-8.74240e-15
  70
    32
  0
VERTEX
  8
0
  5
3609
 10
749.777
 20
39.4053
 30
-8.74497e-15
  70
    32
  0
VERTEX
  8
0
  5
360A
 10
749.770
 20
39.4127
 30
-8.74754e-15
  70
    32
  0
VERTEX
  8
0
  5
360B
 10
749.763
 20
39.4203
 30
-8.75012e-15
  70
    32
  0
VERTEX
  8
0
  5
360C
 10
749.756
 20
39.4278
 30
-8.75270e-15
  70
    32
  0
VERTEX
  8
0
  5
360D
 10
749.750
 20
39.4354
 30
-8.75528e-15
  70
    32
  0
VERTEX
  8
0
  5
360E
 10
749.743
 20
39.4430
 30
-8.75784e-15
  70
    32
  0
VERTEX
  8
0
  5
360F
 10
749.736
 20
39.4506
 30
-8.76038e-15
  70
    32
  0
VERTEX
  8
0
  5
3610
 10
749.730
 20
39.4582
 30
-8.76290e-15
  70
    32
  0
VERTEX
  8
0
  5
3611
 10
749.723
 20
39.4659
 30
-8.76539e-15
  70
    32
  0
VERTEX
  8
0
  5
3612
 10
749.717
 20
39.4737
 30
-8.76784e-15
  70
    32
  0
VERTEX
  8
0
  5
3613
 10
749.710
 20
39.4814
 30
-8.77025e-15
  70
    32
  0
VERTEX
  8
0
  5
3614
 10
749.704
 20
39.4892
 30
-8.77261e-15
  70
    32
  0
VERTEX
  8
0
  5
3615
 10
749.697
 20
39.4970
 30
-8.77491e-15
  70
    32
  0
VERTEX
  8
0
  5
3616
 10
749.691
 20
39.5048
 30
-8.77715e-15
  70
    32
  0
VERTEX
  8
0
  5
3617
 10
749.685
 20
39.5127
 30
-8.77932e-15
  70
    32
  0
VERTEX
  8
0
  5
3618
 10
749.679
 20
39.5205
 30
-8.78142e-15
  70
    32
  0
VERTEX
  8
0
  5
3619
 10
749.672
 20
39.5285
 30
-8.78344e-15
  70
    32
  0
VERTEX
  8
0
  5
361A
 10
749.666
 20
39.5364
 30
-8.78538e-15
  70
    32
  0
VERTEX
  8
0
  5
361B
 10
749.660
 20
39.5444
 30
-8.78722e-15
  70
    32
  0
VERTEX
  8
0
  5
361C
 10
749.654
 20
39.5524
 30
-8.78896e-15
  70
    32
  0
VERTEX
  8
0
  5
361D
 10
749.648
 20
39.5604
 30
-8.79060e-15
  70
    32
  0
VERTEX
  8
0
  5
361E
 10
749.642
 20
39.5684
 30
-8.79213e-15
  70
    32
  0
VERTEX
  8
0
  5
361F
 10
749.636
 20
39.5765
 30
-8.79354e-15
  70
    32
  0
VERTEX
  8
0
  5
3620
 10
749.630
 20
39.5846
 30
-8.79483e-15
  70
    32
  0
VERTEX
  8
0
  5
3621
 10
749.624
 20
39.5927
 30
-8.79599e-15
  70
    32
  0
VERTEX
  8
0
  5
3622
 10
749.618
 20
39.6009
 30
-8.79702e-15
  70
    32
  0
VERTEX
  8
0
  5
3623
 10
749.612
 20
39.6091
 30
-8.79791e-15
  70
    32
  0
VERTEX
  8
0
  5
3624
 10
749.606
 20
39.6173
 30
-8.79864e-15
  70
    32
  0
VERTEX
  8
0
  5
3625
 10
749.600
 20
39.6255
 30
-8.79923e-15
  70
    32
  0
VERTEX
  8
0
  5
3626
 10
749.594
 20
39.6338
 30
-8.79965e-15
  70
    32
  0
VERTEX
  8
0
  5
3627
 10
749.589
 20
39.6420
 30
-8.79991e-15
  70
    32
  0
VERTEX
  8
0
  5
3628
 10
749.583
 20
39.6503
 30
-8.80000e-15
  70
    32
  0
SEQEND
  8
0
  5
3629
  0
POLYLINE
  8
0
  5
362A
  66
     1
 10
0.000000
 20
0.000000
 30
0.000000
  70
     8
  0
VERTEX
  8
0
  5
362B
 10
772.511
 20
38.6503
 30
-8.60000e-15
  70
    32
  0
VERTEX
  8
0
  5
362C
 10
772.511
 20
38.6504
 30
-8.60000e-15
  70
    32
  0
VERTEX
  8
0
  5
362D
 10
772.511
 20
38.6504
 30
-8.60000e-15
  70
    32
  0
VERTEX
  8
0
  5
362E
 10
772.511
 20
38.6505
 30
-8.60000e-15
  70
    32
  0
VERTEX
  8
0
  5
362F
 10
772.511
 20
38.6506
 30
-8.60000e-15
  70
    32
  0
VERTEX
  8
0
  5
3630
 10
772.512
 20
38.6507
 30
-8.60000e-15
  70
    32
  0
VERTEX
  8
0
  5
3631
 10
772.512
 20
38.6509
 30
-8.60000e-15
  70
    32
  0
VERTEX
  8
0
  5
3632
 10
772.512
 20
38.6511
 30
-8.60000e-15
  70
    32
  0
VERTEX
  8
0
  5
3633
 10
772.512
 20
38.6514
 30
-8.60000e-15
  70
    32
  0
VERTEX
  8
0
  5
3634
 10
772.512
 20
38.6516
 30
-8.60000e-15
  70
    32
  0
VERTEX
  8
0
  5
3635
 10
772.513
 20
38.6520
 30
-8.60000e-15
  70
    32
  0
VERTEX
  8
0
  5
3636
 10
772.513
 20
38.6523
 30
-8.60000e-15
  70
    32
  0
VERTEX
  8
0
  5
3637
 10
772.513
 20
38.6527
 30
-8.60000e-15
  70
    32
  0
VERTEX
  8
0
  5
3638
 10
772.514
 20
38.6531
 30
-8.60000e-15
  70
    32
  0
VERTEX
  8
0
  5
3639
 10
772.514
 20
38.6535
 30
-8.60000e-15
  70
    32
  0
VERTEX
  8
0
  5
363A
 10
772.514
 20
38.6540
 30
-8.60000e-15
  70
    32
  0
VERTEX
  8
0
  5
363B
 10
772.515
 20
38.6545
 30
-8.60000e-15
  70
    32
  0
VERTEX
  8
0
  5
363C
 10
772.515
 20
38.6550
 30
-8.60000e-15
  70
    32
  0
VERTEX
  8
0
  5
363D
 10
772.516
 20
38.6556
 30
-8.60000e-15
  70
    32
  0
VERTEX
  8
0
  5
363E
 10
772.516
 20
38.6561
 30
-8.60000e-15
  70
    32
  0
VERTEX
  8
0
  5
363F
 10
772.517
 20
38.6568
 30
-8.60000e-15
  70
    32
  0
VERTEX
  8
0
  5
3640
 10
772.518
 20
38.6574
 30
-8.60000e-15
  70
    32
  0
VERTEX
  8
0
  5
3641
 10
772.518
 20
38.6581
 30
-8.60000e-15
  70
    32
  0
VERTEX
  8
0
  5
3642
 10
772.519
 20
38.6588
 30
-8.60000e-15
  70
    32
  0
VERTEX
  8
0
  5
3643
 10
772.519
 20
38.6596
 30
-8.60000e-15
  70
    32
  0
VERTEX
  8
0
  5
3644
 10
772.520
 20
38.6604
 30
-8.60000e-15
  70
    32
  0
VERTEX
  8
0
  5
3645
 10
772.521
 20
38.6612
 30
-8.60000e-15
  70
    32
  0
VERTEX
  8
0
  5
3646
 10
772.522
 20
38.6621
 30
-8.60000e-15
  70
    32
  0
VERTEX
  8
0
  5
3647
 10
772.522
 20
38.6629
 30
-8.60000e-15
  70
    32
  0
VERTEX
  8
0
  5
3648
 10
772.523
 20
38.6639
 30
-8.60000e-15
  70
    32
  0
VERTEX
  8
0
  5
3649
 10
772.524
 20
38.6648
 30
-8.60000e-15
  70
    32
  0
VERTEX
  8
0
  5
364A
 10
772.525
 20
38.6658
 30
-8.60000e-15
  70
    32
  0
VERTEX
  8
0
  5
364B
 10
772.526
 20
38.6668
 30
-8.60000e-15
  70
    32
  0
VERTEX
  8
0
  5
364C
 10
772.527
 20
38.6678
 30
-8.60000e-15
  70
    32
  0
VERTEX
  8
0
  5
364D
 10
772.528
 20
38.6689
 30
-8.60000e-15
  70
    32
  0
VERTEX
  8
0
  5
364E
 10
772.529
 20
38.6700
 30
-8.60000e-15
  70
    32
  0
VERTEX
  8
0
  5
364F
 10
772.530
 20
38.6712
 30
-8.60000e-15
  70
    32
  0
VERTEX
  8
0
  5
3650
 10
772.531
 20
38.6723
 30
-8.60000e-15
  70
    32
  0
VERTEX
  8
0
  5
3651
 10
772.532
 20
38.6735
 30
-8.60000e-15
  70
    32
  0
VERTEX
  8
0
  5
3652
 10
772.533
 20
38.6748
 30
-8.60000e-15
  70
    32
  0
VERTEX
  8
0
  5
3653
 10
772.534
 20
38.6761
 30
-8.60000e-15
  70
    32
  0
VERTEX
  8
0
  5
3654
 10
772.535
 20
38.6774
 30
-8.60000e-15
  70
    32
  0
VERTEX
  8
0
  5
3655
 10
772.536
 20
38.6787
 30
-8.60000e-15
  70
    32
  0
VERTEX
  8
0
  5
3656
 10
772.538
 20
38.6801
 30
-8.60000e-15
  70
    32
  0
VERTEX
  8
0
  5
3657
 10
772.539
 20
38.6815
 30
-8.60000e-15
  70
    32
  0
VERTEX
  8
0
  5
3658
 10
772.540
 20
38.6829
 30
-8.60000e-15
  70
    32
  0
VERTEX
  8
0
  5
3659
 10
772.541
 20
38.6844
 30
-8.60000e-15
  70
    32
  0
VERTEX
  8
0
  5
365A
 10
772.543
 20
38.6858
 30
-8.60000e-15
  70
    32
  0
VERTEX
  8
0
  5
365B
 10
772.544
 20
38.6874
 30
-8.60000e-15
  70
    32
  0
VERTEX
  8
0
  5
365C
 10
772.546
 20
38.6889
 30
-8.60000e-15
  70
    32
  0
VERTEX
  8
0
  5
365D
 10
772.547
 20
38.6905
 30
-8.60000e-15
  70
    32
  0
VERTEX
  8
0
  5
365E
 10
772.548
 20
38.6922
 30
-8.60000e-15
  70
    32
  0
VERTEX
  8
0
  5
365F
 10
772.550
 20
38.6938
 30
-8.60000e-15
  70
    32
  0
VERTEX
  8
0
  5
3660
 10
772.551
 20
38.6955
 30
-8.60000e-15
  70
    32
  0
VERTEX
  8
0
  5
3661
 10
772.553
 20
38.6972
 30
-8.60000e-15
  70
    32
  0
VERTEX
  8
0
  5
3662
 10
772.554
 20
38.6990
 30
-8.60000e-15
  70
    32
  0
VERTEX
  8
0
  5
3663
 10
772.556
 20
38.7008
 30
-8.60000e-15
  70
    32
  0
VERTEX
  8
0
  5
3664
 10
772.558
 20
38.7026
 30
-8.60000e-15
  70
    32
  0
VERTEX
  8
0
  5
3665
 10
772.559
 20
38.7044
 30
-8.60000e-15
  70
    32
  0
VERTEX
  8
0
  5
3666
 10
772.561
 20
38.7063
 30
-8.60000e-15
  70
    32
  0
VERTEX
  8
0
  5
3667
 10
772.563
 20
38.7082
 30
-8.60000e-15
  70
    32
  0
VERTEX
  8
0
  5
3668
 10
772.564
 20
38.7102
 30
-8.60000e-15
  70
    32
  0
VERTEX
  8
0
  5
3669
 10
772.566
 20
38.7121
 30
-8.60000e-15
  70
    32
  0
VERTEX
  8
0
  5
366A
 10
772.568
 20
38.7142
 30
-8.60000e-15
  70
    32
  0
VERTEX
  8
0
  5
366B
 10
772.570
 20
38.7162
 30
-8.60000e-15
  70
    32
  0
VERTEX
  8
0
  5
366C
 10
772.572
 20
38.7183
 30
-8.60000e-15
  70
    32
  0
VERTEX
  8
0
  5
366D
 10
772.573
 20
38.7204
 30
-8.60000e-15
  70
    32
  0
VERTEX
  8
0
  5
366E
 10
772.575
 20
38.7225
 30
-8.60000e-15
  70
    32
  0
VERTEX
  8
0
  5
366F
 10
772.577
 20
38.7247
 30
-8.60000e-15
  70
    32
  0
VERTEX
  8
0
  5
3670
 10
772.579
 20
38.7269
 30
-8.60000e-15
  70
    32
  0
VERTEX
  8
0
  5
3671
 10
772.581
 20
38.7291
 30
-8.60000e-15
  70
    32
  0
VERTEX
  8
0
  5
3672
 10
772.583
 20
38.7314
 30
-8.60000e-15
  70
    32
  0
VERTEX
  8
0
  5
3673
 10
772.585
 20
38.7337
 30
-8.60000e-15
  70
    32
  0
VERTEX
  8
0
  5
3674
 10
772.587
 20
38.7360
 30
-8.60000e-15
  70
    32
  0
VERTEX
  8
0
  5
3675
 10
772.589
 20
38.7384
 30
-8.60000e-15
  70
    32
  0
VERTEX
  8
0
  5
3676
 10
772.592
 20
38.7408
 30
-8.60000e-15
  70
    32
  0
VERTEX
  8
0
  5
3677
 10
772.594
 20
38.7432
 30
-8.60000e-15
  70
    32
  0
VERTEX
  8
0
  5
3678
 10
772.596
 20
38.7457
 30
-8.60000e-15
  70
    32
  0
VERTEX
  8
0
  5
3679
 10
772.598
 20
38.7482
 30
-8.60000e-15
  70
    32
  0
VERTEX
  8
0
  5
367A
 10
772.600
 20
38.7507
 30
-8.60000e-15
  70
    32
  0
VERTEX
  8
0
  5
367B
 10
772.603
 20
38.7533
 30
-8.60000e-15
  70
    32
  0
VERTEX
  8
0
  5
367C
 10
772.605
 20
38.7559
 30
-8.60000e-15
  70
    32
  0
VERTEX
  8
0
  5
367D
 10
772.607
 20
38.7585
 30
-8.60000e-15
  70
    32
  0
VERTEX
  8
0
  5
367E
 10
772.610
 20
38.7611
 30
-8.60000e-15
  70
    32
  0
VERTEX
  8
0
  5
367F
 10
772.612
 20
38.7638
 30
-8.60000e-15
  70
    32
  0
VERTEX
  8
0
  5
3680
 10
772.614
 20
38.7665
 30
-8.60000e-15
  70
    32
  0
VERTEX
  8
0
  5
3681
 10
772.617
 20
38.7693
 30
-8.60000e-15
  70
    32
  0
VERTEX
  8
0
  5
3682
 10
772.619
 20
38.7721
 30
-8.60000e-15
  70
    32
  0
VERTEX
  8
0
  5
3683
 10
772.622
 20
38.7749
 30
-8.60000e-15
  70
    32
  0
VERTEX
  8
0
  5
3684
 10
772.624
 20
38.7777
 30
-8.60000e-15
  70
    32
  0
VERTEX
  8
0
  5
3685
 10
772.627
 20
38.7806
 30
-8.60000e-15
  70
    32
  0
VERTEX
  8
0
  5
3686
 10
772.630
 20
38.7835
 30
-8.60000e-15
  70
    32
  0
VERTEX
  8
0
  5
3687
 10
772.632
 20
38.7865
 30
-8.60000e-15
  70
    32
  0
VERTEX
  8
0
  5
3688
 10
772.635
 20
38.7895
 30
-8.60000e-15
  70
    32
  0
VERTEX
  8
0
  5
3689
 10
772.638
 20
38.7925
 30
-8.60000e-15
  70
    32
  0
VERTEX
  8
0
  5
368A
 10
772.640
 20
38.7955
 30
-8.60001e-15
  70
    32
  0
VERTEX
  8
0
  5
368B
 10
772.643
 20
38.7986
 30
-8.60009e-15
  70
    32
  0
VERTEX
  8
0
  5
368C
 10
772.646
 20
38.8017
 30
-8.60023e-15
  70
    32
  0
VERTEX
  8
0
  5
368D
 10
772.649
 20
38.8048
 30
-8.60044e-15
  70
    32
  0
VERTEX
  8
0
  5
368E
 10
772.651
 20
38.8080
 30
-8.60070e-15
  70
    32
  0
VERTEX
  8
0
  5
368F
 10
772.654
 20
38.8112
 30
-8.60103e-15
  70
    32
  0
VERTEX
  8
0
  5
3690
 10
772.657
 20
38.8144
 30
-8.60142e-15
  70
    32
  0
VERTEX
  8
0
  5
3691
 10
772.660
 20
38.8177
 30
-8.60186e-15
  70
    32
  0
VERTEX
  8
0
  5
3692
 10
772.663
 20
38.8210
 30
-8.60236e-15
  70
    32
  0
VERTEX
  8
0
  5
3693
 10
772.666
 20
38.8243
 30
-8.60292e-15
  70
    32
  0
VERTEX
  8
0
  5
3694
 10
772.669
 20
38.8277
 30
-8.60353e-15
  70
    32
  0
VERTEX
  8
0
  5
3695
 10
772.672
 20
38.8311
 30
-8.60419e-15
  70
    32
  0
VERTEX
  8
0
  5
3696
 10
772.675
 20
38.8345
 30
-8.60490e-15
  70
    32
  0
VERTEX
  8
0
  5
3697
 10
772.678
 20
38.8380
 30
-8.60567e-15
  70
    32
  0
VERTEX
  8
0
  5
3698
 10
772.681
 20
38.8414
 30
-8.60648e-15
  70
    32
  0
VERTEX
  8
0
  5
3699
 10
772.684
 20
38.8450
 30
-8.60733e-15
  70
    32
  0
VERTEX
  8
0
  5
369A
 10
772.687
 20
38.8485
 30
-8.60823e-15
  70
    32
  0
VERTEX
  8
0
  5
369B
 10
772.691
 20
38.8521
 30
-8.60918e-15
  70
    32
  0
VERTEX
  8
0
  5
369C
 10
772.694
 20
38.8557
 30
-8.61017e-15
  70
    32
  0
VERTEX
  8
0
  5
369D
 10
772.697
 20
38.8593
 30
-8.61120e-15
  70
    32
  0
VERTEX
  8
0
  5
369E
 10
772.700
 20
38.8630
 30
-8.61226e-15
  70
    32
  0
VERTEX
  8
0
  5
369F
 10
772.704
 20
38.8667
 30
-8.61337e-15
  70
    32
  0
VERTEX
  8
0
  5
36A0
 10
772.707
 20
38.8705
 30
-8.61451e-15
  70
    32
  0
VERTEX
  8
0
  5
36A1
 10
772.710
 20
38.8742
 30
-8.61569e-15
  70
    32
  0
VERTEX
  8
0
  5
36A2
 10
772.714
 20
38.8780
 30
-8.61690e-15
  70
    32
  0
VERTEX
  8
0
  5
36A3
 10
772.717
 20
38.8818
 30
-8.61814e-15
  70
    32
  0
VERTEX
  8
0
  5
36A4
 10
772.720
 20
38.8857
 30
-8.61941e-15
  70
    32
  0
VERTEX
  8
0
  5
36A5
 10
772.724
 20
38.8896
 30
-8.62072e-15
  70
    32
  0
VERTEX
  8
0
  5
36A6
 10
772.727
 20
38.8935
 30
-8.62205e-15
  70
    32
  0
VERTEX
  8
0
  5
36A7
 10
772.731
 20
38.8975
 30
-8.62341e-15
  70
    32
  0
VERTEX
  8
0
  5
36A8
 10
772.734
 20
38.9014
 30
-8.62479e-15
  70
    32
  0
VERTEX
  8
0
  5
36A9
 10
772.738
 20
38.9054
 30
-8.62619e-15
  70
    32
  0
VERTEX
  8
0
  5
36AA
 10
772.742
 20
38.9095
 30
-8.62762e-15
  70
    32
  0
VERTEX
  8
0
  5
36AB
 10
772.745
 20
38.9136
 30
-8.62907e-15
  70
    32
  0
VERTEX
  8
0
  5
36AC
 10
772.749
 20
38.9177
 30
-8.63054e-15
  70
    32
  0
VERTEX
  8
0
  5
36AD
 10
772.753
 20
38.9218
 30
-8.63203e-15
  70
    32
  0
VERTEX
  8
0
  5
36AE
 10
772.756
 20
38.9259
 30
-8.63353e-15
  70
    32
  0
VERTEX
  8
0
  5
36AF
 10
772.760
 20
38.9301
 30
-8.63505e-15
  70
    32
  0
VERTEX
  8
0
  5
36B0
 10
772.764
 20
38.9343
 30
-8.63658e-15
  70
    32
  0
VERTEX
  8
0
  5
36B1
 10
772.768
 20
38.9386
 30
-8.63812e-15
  70
    32
  0
VERTEX
  8
0
  5
36B2
 10
772.771
 20
38.9429
 30
-8.63967e-15
  70
    32
  0
VERTEX
  8
0
  5
36B3
 10
772.775
 20
38.9472
 30
-8.64124e-15
  70
    32
  0
VERTEX
  8
0
  5
36B4
 10
772.779
 20
38.9515
 30
-8.64281e-15
  70
    32
  0
VERTEX
  8
0
  5
36B5
 10
772.783
 20
38.9559
 30
-8.64439e-15
  70
    32
  0
VERTEX
  8
0
  5
36B6
 10
772.787
 20
38.9603
 30
-8.64597e-15
  70
    32
  0
VERTEX
  8
0
  5
36B7
 10
772.791
 20
38.9647
 30
-8.64756e-15
  70
    32
  0
VERTEX
  8
0
  5
36B8
 10
772.795
 20
38.9692
 30
-8.64915e-15
  70
    32
  0
VERTEX
  8
0
  5
36B9
 10
772.799
 20
38.9736
 30
-8.65074e-15
  70
    32
  0
VERTEX
  8
0
  5
36BA
 10
772.803
 20
38.9782
 30
-8.65232e-15
  70
    32
  0
VERTEX
  8
0
  5
36BB
 10
772.807
 20
38.9827
 30
-8.65391e-15
  70
    32
  0
VERTEX
  8
0
  5
36BC
 10
772.811
 20
38.9873
 30
-8.65550e-15
  70
    32
  0
VERTEX
  8
0
  5
36BD
 10
772.815
 20
38.9919
 30
-8.65707e-15
  70
    32
  0
VERTEX
  8
0
  5
36BE
 10
772.819
 20
38.9965
 30
-8.65865e-15
  70
    32
  0
VERTEX
  8
0
  5
36BF
 10
772.823
 20
39.0011
 30
-8.66021e-15
  70
    32
  0
VERTEX
  8
0
  5
36C0
 10
772.828
 20
39.0058
 30
-8.66176e-15
  70
    32
  0
VERTEX
  8
0
  5
36C1
 10
772.832
 20
39.0105
 30
-8.66331e-15
  70
    32
  0
VERTEX
  8
0
  5
36C2
 10
772.836
 20
39.0153
 30
-8.66484e-15
  70
    32
  0
VERTEX
  8
0
  5
36C3
 10
772.840
 20
39.0201
 30
-8.66636e-15
  70
    32
  0
VERTEX
  8
0
  5
36C4
 10
772.845
 20
39.0249
 30
-8.66786e-15
  70
    32
  0
VERTEX
  8
0
  5
36C5
 10
772.849
 20
39.0297
 30
-8.66935e-15
  70
    32
  0
VERTEX
  8
0
  5
36C6
 10
772.853
 20
39.0345
 30
-8.67082e-15
  70
    32
  0
VERTEX
  8
0
  5
36C7
 10
772.858
 20
39.0394
 30
-8.67227e-15
  70
    32
  0
VERTEX
  8
0
  5
36C8
 10
772.862
 20
39.0443
 30
-8.67370e-15
  70
    32
  0
VERTEX
  8
0
  5
36C9
 10
772.866
 20
39.0493
 30
-8.67511e-15
  70
    32
  0
VERTEX
  8
0
  5
36CA
 10
772.871
 20
39.0543
 30
-8.67649e-15
  70
    32
  0
VERTEX
  8
0
  5
36CB
 10
772.875
 20
39.0593
 30
-8.67785e-15
  70
    32
  0
VERTEX
  8
0
  5
36CC
 10
772.880
 20
39.0643
 30
-8.67918e-15
  70
    32
  0
VERTEX
  8
0
  5
36CD
 10
772.884
 20
39.0693
 30
-8.68049e-15
  70
    32
  0
VERTEX
  8
0
  5
36CE
 10
772.889
 20
39.0744
 30
-8.68177e-15
  70
    32
  0
VERTEX
  8
0
  5
36CF
 10
772.893
 20
39.0795
 30
-8.68301e-15
  70
    32
  0
VERTEX
  8
0
  5
36D0
 10
772.898
 20
39.0847
 30
-8.68422e-15
  70
    32
  0
VERTEX
  8
0
  5
36D1
 10
772.903
 20
39.0898
 30
-8.68540e-15
  70
    32
  0
VERTEX
  8
0
  5
36D2
 10
772.907
 20
39.0950
 30
-8.68655e-15
  70
    32
  0
VERTEX
  8
0
  5
36D3
 10
772.912
 20
39.1002
 30
-8.68766e-15
  70
    32
  0
VERTEX
  8
0
  5
36D4
 10
772.916
 20
39.1055
 30
-8.68873e-15
  70
    32
  0
VERTEX
  8
0
  5
36D5
 10
772.921
 20
39.1107
 30
-8.68976e-15
  70
    32
  0
VERTEX
  8
0
  5
36D6
 10
772.926
 20
39.1160
 30
-8.69075e-15
  70
    32
  0
VERTEX
  8
0
  5
36D7
 10
772.931
 20
39.1214
 30
-8.69170e-15
  70
    32
  0
VERTEX
  8
0
  5
36D8
 10
772.935
 20
39.1267
 30
-8.69260e-15
  70
    32
  0
VERTEX
  8
0
  5
36D9
 10
772.940
 20
39.1321
 30
-8.69346e-15
  70
    32
  0
VERTEX
  8
0
  5
36DA
 10
772.945
 20
39.1375
 30
-8.69428e-15
  70
    32
  0
VERTEX
  8
0
  5
36DB
 10
772.950
 20
39.1430
 30
-8.69504e-15
  70
    32
  0
VERTEX
  8
0
  5
36DC
 10
772.955
 20
39.1484
 30
-8.69576e-15
  70
    32
  0
VERTEX
  8
0
  5
36DD
 10
772.960
 20
39.1539
 30
-8.69642e-15
  70
    32
  0
VERTEX
  8
0
  5
36DE
 10
772.965
 20
39.1594
 30
-8.69704e-15
  70
    32
  0
VERTEX
  8
0
  5
36DF
 10
772.970
 20
39.1650
 30
-8.69760e-15
  70
    32
  0
VERTEX
  8
0
  5
36E0
 10
772.975
 20
39.1705
 30
-8.69810e-15
  70
    32
  0
VERTEX
  8
0
  5
36E1
 10
772.980
 20
39.1761
 30
-8.69855e-15
  70
    32
  0
VERTEX
  8
0
  5
36E2
 10
772.985
 20
39.1818
 30
-8.69894e-15
  70
    32
  0
VERTEX
  8
0
  5
36E3
 10
772.990
 20
39.1874
 30
-8.69928e-15
  70
    32
  0
VERTEX
  8
0
  5
36E4
 10
772.995
 20
39.1931
 30
-8.69955e-15
  70
    32
  0
VERTEX
  8
0
  5
36E5
 10
773.000
 20
39.1988
 30
-8.69976e-15
  70
    32
  0
VERTEX
  8
0
  5
36E6
 10
773.005
 20
39.2045
 30
-8.69990e-15
  70
    32
  0
VERTEX
  8
0
  5
36E7
 10
773.010
 20
39.2103
 30
-8.69998e-15
  70
    32
  0
VERTEX
  8
0
  5
36E8
 10
773.015
 20
39.2161
 30
-8.70001e-15
  70
    32
  0
VERTEX
  8
0
  5
36E9
 10
773.021
 20
39.2219
 30
-8.70011e-15
  70
    32
  0
VERTEX
  8
0
  5
36EA
 10
773.026
 20
39.2277
 30
-8.70035e-15
  70
    32
  0
VERTEX
  8
0
  5
36EB
 10
773.031
 20
39.2336
 30
-8.70071e-15
  70
    32
  0
VERTEX
  8
0
  5
36EC
 10
773.036
 20
39.2394
 30
-8.70120e-15
  70
    32
  0
VERTEX
  8
0
  5
36ED
 10
773.042
 20
39.2453
 30
-8.70181e-15
  70
    32
  0
VERTEX
  8
0
  5
36EE
 10
773.047
 20
39.2513
 30
-8.70253e-15
  70
    32
  0
VERTEX
  8
0
  5
36EF
 10
773.052
 20
39.2572
 30
-8.70336e-15
  70
    32
  0
VERTEX
  8
0
  5
36F0
 10
773.058
 20
39.2632
 30
-8.70430e-15
  70
    32
  0
VERTEX
  8
0
  5
36F1
 10
773.063
 20
39.2692
 30
-8.70534e-15
  70
    32
  0
VERTEX
  8
0
  5
36F2
 10
773.068
 20
39.2753
 30
-8.70647e-15
  70
    32
  0
VERTEX
  8
0
  5
36F3
 10
773.074
 20
39.2813
 30
-8.70771e-15
  70
    32
  0
VERTEX
  8
0
  5
36F4
 10
773.079
 20
39.2874
 30
-8.70903e-15
  70
    32
  0
VERTEX
  8
0
  5
36F5
 10
773.085
 20
39.2935
 30
-8.71044e-15
  70
    32
  0
VERTEX
  8
0
  5
36F6
 10
773.090
 20
39.2997
 30
-8.71193e-15
  70
    32
  0
VERTEX
  8
0
  5
36F7
 10
773.096
 20
39.3058
 30
-8.71350e-15
  70
    32
  0
VERTEX
  8
0
  5
36F8
 10
773.101
 20
39.3120
 30
-8.71514e-15
  70
    32
  0
VERTEX
  8
0
  5
36F9
 10
773.107
 20
39.3182
 30
-8.71685e-15
  70
    32
  0
VERTEX
  8
0
  5
36FA
 10
773.112
 20
39.3245
 30
-8.71863e-15
  70
    32
  0
VERTEX
  8
0
  5
36FB
 10
773.118
 20
39.3307
 30
-8.72047e-15
  70
    32
  0
VERTEX
  8
0
  5
36FC
 10
773.124
 20
39.3370
 30
-8.72236e-15
  70
    32
  0
VERTEX
  8
0
  5
36FD
 10
773.129
 20
39.3433
 30
-8.72431e-15
  70
    32
  0
VERTEX
  8
0
  5
36FE
 10
773.135
 20
39.3496
 30
-8.72631e-15
  70
    32
  0
VERTEX
  8
0
  5
36FF
 10
773.141
 20
39.3560
 30
-8.72835e-15
  70
    32
  0
VERTEX
  8
0
  5
3700
 10
773.146
 20
39.3624
 30
-8.73043e-15
  70
    32
  0
VERTEX
  8
0
  5
3701
 10
773.152
 20
39.3688
 30
-8.73255e-15
  70
    32
  0
VERTEX
  8
0
  5
3702
 10
773.158
 20
39.3752
 30
-8.73470e-15
  70
    32
  0
VERTEX
  8
0
  5
3703
 10
773.164
 20
39.3816
 30
-8.73688e-15
  70
    32
  0
VERTEX
  8
0
  5
3704
 10
773.169
 20
39.3881
 30
-8.73909e-15
  70
    32
  0
VERTEX
  8
0
  5
3705
 10
773.175
 20
39.3946
 30
-8.74131e-15
  70
    32
  0
VERTEX
  8
0
  5
3706
 10
773.181
 20
39.4011
 30
-8.74355e-15
  70
    32
  0
VERTEX
  8
0
  5
3707
 10
773.187
 20
39.4077
 30
-8.74580e-15
  70
    32
  0
VERTEX
  8
0
  5
3708
 10
773.193
 20
39.4142
 30
-8.74806e-15
  70
    32
  0
VERTEX
  8
0
  5
3709
 10
773.199
 20
39.4208
 30
-8.75032e-15
  70
    32
  0
VERTEX
  8
0
  5
370A
 10
773.205
 20
39.4274
 30
-8.75258e-15
  70
    32
  0
VERTEX
  8
0
  5
370B
 10
773.211
 20
39.4341
 30
-8.75484e-15
  70
    32
  0
VERTEX
  8
0
  5
370C
 10
773.217
 20
39.4407
 30
-8.75709e-15
  70
    32
  0
VERTEX
  8
0
  5
370D
 10
773.223
 20
39.4474
 30
-8.75932e-15
  70
    32
  0
VERTEX
  8
0
  5
370E
 10
773.229
 20
39.4541
 30
-8.76154e-15
  70
    32
  0
VERTEX
  8
0
  5
370F
 10
773.235
 20
39.4608
 30
-8.76374e-15
  70
    32
  0
VERTEX
  8
0
  5
3710
 10
773.241
 20
39.4676
 30
-8.76591e-15
  70
    32
  0
VERTEX
  8
0
  5
3711
 10
773.247
 20
39.4743
 30
-8.76805e-15
  70
    32
  0
VERTEX
  8
0
  5
3712
 10
773.253
 20
39.4811
 30
-8.77016e-15
  70
    32
  0
VERTEX
  8
0
  5
3713
 10
773.259
 20
39.4879
 30
-8.77223e-15
  70
    32
  0
VERTEX
  8
0
  5
3714
 10
773.265
 20
39.4948
 30
-8.77426e-15
  70
    32
  0
VERTEX
  8
0
  5
3715
 10
773.271
 20
39.5016
 30
-8.77625e-15
  70
    32
  0
VERTEX
  8
0
  5
3716
 10
773.277
 20
39.5085
 30
-8.77818e-15
  70
    32
  0
VERTEX
  8
0
  5
3717
 10
773.284
 20
39.5154
 30
-8.78006e-15
  70
    32
  0
VERTEX
  8
0
  5
3718
 10
773.290
 20
39.5223
 30
-8.78188e-15
  70
    32
  0
VERTEX
  8
0
  5
3719
 10
773.296
 20
39.5292
 30
-8.78364e-15
  70
    32
  0
VERTEX
  8
0
  5
371A
 10
773.302
 20
39.5362
 30
-8.78533e-15
  70
    32
  0
VERTEX
  8
0
  5
371B
 10
773.309
 20
39.5432
 30
-8.78695e-15
  70
    32
  0
VERTEX
  8
0
  5
371C
 10
773.315
 20
39.5502
 30
-8.78850e-15
  70
    32
  0
VERTEX
  8
0
  5
371D
 10
773.321
 20
39.5572
 30
-8.78997e-15
  70
    32
  0
VERTEX
  8
0
  5
371E
 10
773.328
 20
39.5643
 30
-8.79135e-15
  70
    32
  0
VERTEX
  8
0
  5
371F
 10
773.334
 20
39.5713
 30
-8.79265e-15
  70
    32
  0
VERTEX
  8
0
  5
3720
 10
773.340
 20
39.5784
 30
-8.79386e-15
  70
    32
  0
VERTEX
  8
0
  5
3721
 10
773.347
 20
39.5855
 30
-8.79497e-15
  70
    32
  0
VERTEX
  8
0
  5
3722
 10
773.353
 20
39.5926
 30
-8.79598e-15
  70
    32
  0
VERTEX
  8
0
  5
3723
 10
773.360
 20
39.5998
 30
-8.79689e-15
  70
    32
  0
VERTEX
  8
0
  5
3724
 10
773.366
 20
39.6069
 30
-8.79769e-15
  70
    32
  0
VERTEX
  8
0
  5
3725
 10
773.372
 20
39.6141
 30
-8.79838e-15
  70
    32
  0
VERTEX
  8
0
  5
3726
 10
773.379
 20
39.6213
 30
-8.79895e-15
  70
    32
  0
VERTEX
  8
0
  5
3727
 10
773.385
 20
39.6286
 30
-8.79940e-15
  70
    32
  0
VERTEX
  8
0
  5
3728
 10
773.392
 20
39.6358
 30
-8.79973e-15
  70
    32
  0
VERTEX
  8
0
  5
3729
 10
773.398
 20
39.6431
 30
-8.79993e-15
  70
    32
  0
VERTEX
  8
0
  5
372A
 10
773.405
 20
39.6503
 30
-8.80000e-15
  70
    32
  0
SEQEND
  8
0
  5
372B
  0
POLYLINE
  8
0
  5
372C
  66
     1
 10
0.000000
 20
0.000000
 30
0.000000
  70
     8
  0
VERTEX
  8
0
  5
372D
 10
705.421
 20
39.6503
 30
-8.80000e-15
  70
    32
  0
VERTEX
  8
0
  5
372E
 10
705.406
 20
39.6420
 30
-8.79991e-15
  70
    32
  0
VERTEX
  8
0
  5
372F
 10
705.390
 20
39.6338
 30
-8.79965e-15
  70
    32
  0
VERTEX
  8
0
  5
3730
 10
705.375
 20
39.6255
 30
-8.79923e-15
  70
    32
  0
VERTEX
  8
0
  5
3731
 10
705.359
 20
39.6173
 30
-8.79864e-15
  70
    32
  0
VERTEX
  8
0
  5
3732
 10
705.343
 20
39.6091
 30
-8.79791e-15
  70
    32
  0
VERTEX
  8
0
  5
3733
 10
705.328
 20
39.6009
 30
-8.79702e-15
  70
    32
  0
VERTEX
  8
0
  5
3734
 10
705.312
 20
39.5927
 30
-8.79599e-15
  70
    32
  0
VERTEX
  8
0
  5
3735
 10
705.296
 20
39.5846
 30
-8.79483e-15
  70
    32
  0
VERTEX
  8
0
  5
3736
 10
705.281
 20
39.5765
 30
-8.79354e-15
  70
    32
  0
VERTEX
  8
0
  5
3737
 10
705.265
 20
39.5684
 30
-8.79213e-15
  70
    32
  0
VERTEX
  8
0
  5
3738
 10
705.249
 20
39.5604
 30
-8.79060e-15
  70
    32
  0
VERTEX
  8
0
  5
3739
 10
705.233
 20
39.5524
 30
-8.78896e-15
  70
    32
  0
VERTEX
  8
0
  5
373A
 10
705.217
 20
39.5444
 30
-8.78722e-15
  70
    32
  0
VERTEX
  8
0
  5
373B
 10
705.201
 20
39.5364
 30
-8.78538e-15
  70
    32
  0
VERTEX
  8
0
  5
373C
 10
705.185
 20
39.5285
 30
-8.78344e-15
  70
    32
  0
VERTEX
  8
0
  5
373D
 10
705.169
 20
39.5205
 30
-8.78142e-15
  70
    32
  0
VERTEX
  8
0
  5
373E
 10
705.154
 20
39.5127
 30
-8.77932e-15
  70
    32
  0
VERTEX
  8
0
  5
373F
 10
705.138
 20
39.5048
 30
-8.77715e-15
  70
    32
  0
VERTEX
  8
0
  5
3740
 10
705.121
 20
39.4970
 30
-8.77491e-15
  70
    32
  0
VERTEX
  8
0
  5
3741
 10
705.105
 20
39.4892
 30
-8.77261e-15
  70
    32
  0
VERTEX
  8
0
  5
3742
 10
705.089
 20
39.4814
 30
-8.77025e-15
  70
    32
  0
VERTEX
  8
0
  5
3743
 10
705.073
 20
39.4737
 30
-8.76784e-15
  70
    32
  0
VERTEX
  8
0
  5
3744
 10
705.057
 20
39.4659
 30
-8.76539e-15
  70
    32
  0
VERTEX
  8
0
  5
3745
 10
705.041
 20
39.4582
 30
-8.76290e-15
  70
    32
  0
VERTEX
  8
0
  5
3746
 10
705.025
 20
39.4506
 30
-8.76038e-15
  70
    32
  0
VERTEX
  8
0
  5
3747
 10
705.009
 20
39.4430
 30
-8.75784e-15
  70
    32
  0
VERTEX
  8
0
  5
3748
 10
704.992
 20
39.4354
 30
-8.75528e-15
  70
    32
  0
VERTEX
  8
0
  5
3749
 10
704.976
 20
39.4278
 30
-8.75270e-15
  70
    32
  0
VERTEX
  8
0
  5
374A
 10
704.960
 20
39.4203
 30
-8.75012e-15
  70
    32
  0
VERTEX
  8
0
  5
374B
 10
704.944
 20
39.4127
 30
-8.74754e-15
  70
    32
  0
VERTEX
  8
0
  5
374C
 10
704.927
 20
39.4053
 30
-8.74497e-15
  70
    32
  0
VERTEX
  8
0
  5
374D
 10
704.911
 20
39.3978
 30
-8.74240e-15
  70
    32
  0
VERTEX
  8
0
  5
374E
 10
704.895
 20
39.3904
 30
-8.73986e-15
  70
    32
  0
VERTEX
  8
0
  5
374F
 10
704.878
 20
39.3830
 30
-8.73734e-15
  70
    32
  0
VERTEX
  8
0
  5
3750
 10
704.862
 20
39.3756
 30
-8.73485e-15
  70
    32
  0
VERTEX
  8
0
  5
3751
 10
704.845
 20
39.3683
 30
-8.73239e-15
  70
    32
  0
VERTEX
  8
0
  5
3752
 10
704.829
 20
39.3610
 30
-8.72998e-15
  70
    32
  0
VERTEX
  8
0
  5
3753
 10
704.813
 20
39.3537
 30
-8.72762e-15
  70
    32
  0
VERTEX
  8
0
  5
3754
 10
704.796
 20
39.3465
 30
-8.72531e-15
  70
    32
  0
VERTEX
  8
0
  5
3755
 10
704.780
 20
39.3393
 30
-8.72306e-15
  70
    32
  0
VERTEX
  8
0
  5
3756
 10
704.763
 20
39.3321
 30
-8.72088e-15
  70
    32
  0
VERTEX
  8
0
  5
3757
 10
704.746
 20
39.3250
 30
-8.71877e-15
  70
    32
  0
VERTEX
  8
0
  5
3758
 10
704.730
 20
39.3179
 30
-8.71675e-15
  70
    32
  0
VERTEX
  8
0
  5
3759
 10
704.713
 20
39.3108
 30
-8.71480e-15
  70
    32
  0
VERTEX
  8
0
  5
375A
 10
704.697
 20
39.3037
 30
-8.71295e-15
  70
    32
  0
VERTEX
  8
0
  5
375B
 10
704.680
 20
39.2967
 30
-8.71120e-15
  70
    32
  0
VERTEX
  8
0
  5
375C
 10
704.663
 20
39.2897
 30
-8.70955e-15
  70
    32
  0
VERTEX
  8
0
  5
375D
 10
704.647
 20
39.2828
 30
-8.70801e-15
  70
    32
  0
VERTEX
  8
0
  5
375E
 10
704.630
 20
39.2758
 30
-8.70659e-15
  70
    32
  0
VERTEX
  8
0
  5
375F
 10
704.613
 20
39.2690
 30
-8.70528e-15
  70
    32
  0
VERTEX
  8
0
  5
3760
 10
704.596
 20
39.2621
 30
-8.70411e-15
  70
    32
  0
VERTEX
  8
0
  5
3761
 10
704.580
 20
39.2553
 30
-8.70307e-15
  70
    32
  0
VERTEX
  8
0
  5
3762
 10
704.563
 20
39.2485
 30
-8.70217e-15
  70
    32
  0
VERTEX
  8
0
  5
3763
 10
704.546
 20
39.2417
 30
-8.70142e-15
  70
    32
  0
VERTEX
  8
0
  5
3764
 10
704.529
 20
39.2350
 30
-8.70082e-15
  70
    32
  0
VERTEX
  8
0
  5
3765
 10
704.512
 20
39.2283
 30
-8.70038e-15
  70
    32
  0
VERTEX
  8
0
  5
3766
 10
704.495
 20
39.2217
 30
-8.70011e-15
  70
    32
  0
VERTEX
  8
0
  5
3767
 10
704.478
 20
39.2150
 30
-8.70000e-15
  70
    32
  0
VERTEX
  8
0
  5
3768
 10
704.461
 20
39.2085
 30
-8.69996e-15
  70
    32
  0
VERTEX
  8
0
  5
3769
 10
704.444
 20
39.2019
 30
-8.69984e-15
  70
    32
  0
VERTEX
  8
0
  5
376A
 10
704.428
 20
39.1954
 30
-8.69964e-15
  70
    32
  0
VERTEX
  8
0
  5
376B
 10
704.411
 20
39.1889
 30
-8.69935e-15
  70
    32
  0
VERTEX
  8
0
  5
376C
 10
704.394
 20
39.1824
 30
-8.69899e-15
  70
    32
  0
VERTEX
  8
0
  5
376D
 10
704.376
 20
39.1760
 30
-8.69854e-15
  70
    32
  0
VERTEX
  8
0
  5
376E
 10
704.359
 20
39.1696
 30
-8.69803e-15
  70
    32
  0
VERTEX
  8
0
  5
376F
 10
704.342
 20
39.1633
 30
-8.69743e-15
  70
    32
  0
VERTEX
  8
0
  5
3770
 10
704.325
 20
39.1570
 30
-8.69677e-15
  70
    32
  0
VERTEX
  8
0
  5
3771
 10
704.308
 20
39.1507
 30
-8.69604e-15
  70
    32
  0
VERTEX
  8
0
  5
3772
 10
704.291
 20
39.1445
 30
-8.69524e-15
  70
    32
  0
VERTEX
  8
0
  5
3773
 10
704.274
 20
39.1383
 30
-8.69438e-15
  70
    32
  0
VERTEX
  8
0
  5
3774
 10
704.257
 20
39.1321
 30
-8.69346e-15
  70
    32
  0
VERTEX
  8
0
  5
3775
 10
704.239
 20
39.1259
 30
-8.69247e-15
  70
    32
  0
VERTEX
  8
0
  5
3776
 10
704.222
 20
39.1198
 30
-8.69143e-15
  70
    32
  0
VERTEX
  8
0
  5
3777
 10
704.205
 20
39.1138
 30
-8.69033e-15
  70
    32
  0
VERTEX
  8
0
  5
3778
 10
704.188
 20
39.1077
 30
-8.68917e-15
  70
    32
  0
VERTEX
  8
0
  5
3779
 10
704.170
 20
39.1017
 30
-8.68797e-15
  70
    32
  0
VERTEX
  8
0
  5
377A
 10
704.153
 20
39.0958
 30
-8.68671e-15
  70
    32
  0
VERTEX
  8
0
  5
377B
 10
704.136
 20
39.0899
 30
-8.68541e-15
  70
    32
  0
VERTEX
  8
0
  5
377C
 10
704.119
 20
39.0840
 30
-8.68406e-15
  70
    32
  0
VERTEX
  8
0
  5
377D
 10
704.101
 20
39.0781
 30
-8.68267e-15
  70
    32
  0
VERTEX
  8
0
  5
377E
 10
704.084
 20
39.0723
 30
-8.68124e-15
  70
    32
  0
VERTEX
  8
0
  5
377F
 10
704.066
 20
39.0665
 30
-8.67977e-15
  70
    32
  0
VERTEX
  8
0
  5
3780
 10
704.049
 20
39.0608
 30
-8.67826e-15
  70
    32
  0
VERTEX
  8
0
  5
3781
 10
704.032
 20
39.0551
 30
-8.67671e-15
  70
    32
  0
VERTEX
  8
0
  5
3782
 10
704.014
 20
39.0494
 30
-8.67514e-15
  70
    32
  0
VERTEX
  8
0
  5
3783
 10
703.997
 20
39.0437
 30
-8.67353e-15
  70
    32
  0
VERTEX
  8
0
  5
3784
 10
703.979
 20
39.0381
 30
-8.67189e-15
  70
    32
  0
VERTEX
  8
0
  5
3785
 10
703.962
 20
39.0326
 30
-8.67023e-15
  70
    32
  0
VERTEX
  8
0
  5
3786
 10
703.944
 20
39.0271
 30
-8.66854e-15
  70
    32
  0
VERTEX
  8
0
  5
3787
 10
703.927
 20
39.0216
 30
-8.66684e-15
  70
    32
  0
VERTEX
  8
0
  5
3788
 10
703.909
 20
39.0161
 30
-8.66511e-15
  70
    32
  0
VERTEX
  8
0
  5
3789
 10
703.892
 20
39.0107
 30
-8.66336e-15
  70
    32
  0
VERTEX
  8
0
  5
378A
 10
703.874
 20
39.0053
 30
-8.66160e-15
  70
    32
  0
VERTEX
  8
0
  5
378B
 10
703.857
 20
39.0000
 30
-8.65982e-15
  70
    32
  0
VERTEX
  8
0
  5
378C
 10
703.839
 20
38.9947
 30
-8.65803e-15
  70
    32
  0
VERTEX
  8
0
  5
378D
 10
703.821
 20
38.9894
 30
-8.65624e-15
  70
    32
  0
VERTEX
  8
0
  5
378E
 10
703.804
 20
38.9842
 30
-8.65443e-15
  70
    32
  0
VERTEX
  8
0
  5
378F
 10
703.786
 20
38.9790
 30
-8.65262e-15
  70
    32
  0
VERTEX
  8
0
  5
3790
 10
703.768
 20
38.9739
 30
-8.65081e-15
  70
    32
  0
VERTEX
  8
0
  5
3791
 10
703.751
 20
38.9687
 30
-8.64900e-15
  70
    32
  0
VERTEX
  8
0
  5
3792
 10
703.733
 20
38.9637
 30
-8.64718e-15
  70
    32
  0
VERTEX
  8
0
  5
3793
 10
703.715
 20
38.9586
 30
-8.64538e-15
  70
    32
  0
VERTEX
  8
0
  5
3794
 10
703.698
 20
38.9536
 30
-8.64357e-15
  70
    32
  0
VERTEX
  8
0
  5
3795
 10
703.680
 20
38.9487
 30
-8.64178e-15
  70
    32
  0
VERTEX
  8
0
  5
3796
 10
703.662
 20
38.9437
 30
-8.63999e-15
  70
    32
  0
VERTEX
  8
0
  5
3797
 10
703.644
 20
38.9389
 30
-8.63821e-15
  70
    32
  0
VERTEX
  8
0
  5
3798
 10
703.627
 20
38.9340
 30
-8.63645e-15
  70
    32
  0
VERTEX
  8
0
  5
3799
 10
703.609
 20
38.9292
 30
-8.63471e-15
  70
    32
  0
VERTEX
  8
0
  5
379A
 10
703.591
 20
38.9244
 30
-8.63298e-15
  70
    32
  0
VERTEX
  8
0
  5
379B
 10
703.573
 20
38.9197
 30
-8.63128e-15
  70
    32
  0
VERTEX
  8
0
  5
379C
 10
703.555
 20
38.9150
 30
-8.62959e-15
  70
    32
  0
VERTEX
  8
0
  5
379D
 10
703.538
 20
38.9104
 30
-8.62793e-15
  70
    32
  0
VERTEX
  8
0
  5
379E
 10
703.520
 20
38.9057
 30
-8.62630e-15
  70
    32
  0
VERTEX
  8
0
  5
379F
 10
703.502
 20
38.9012
 30
-8.62469e-15
  70
    32
  0
VERTEX
  8
0
  5
37A0
 10
703.484
 20
38.8966
 30
-8.62312e-15
  70
    32
  0
VERTEX
  8
0
  5
37A1
 10
703.466
 20
38.8921
 30
-8.62158e-15
  70
    32
  0
VERTEX
  8
0
  5
37A2
 10
703.448
 20
38.8877
 30
-8.62008e-15
  70
    32
  0
VERTEX
  8
0
  5
37A3
 10
703.430
 20
38.8833
 30
-8.61861e-15
  70
    32
  0
VERTEX
  8
0
  5
37A4
 10
703.412
 20
38.8789
 30
-8.61718e-15
  70
    32
  0
VERTEX
  8
0
  5
37A5
 10
703.394
 20
38.8746
 30
-8.61579e-15
  70
    32
  0
VERTEX
  8
0
  5
37A6
 10
703.376
 20
38.8703
 30
-8.61445e-15
  70
    32
  0
VERTEX
  8
0
  5
37A7
 10
703.359
 20
38.8660
 30
-8.61315e-15
  70
    32
  0
VERTEX
  8
0
  5
37A8
 10
703.341
 20
38.8618
 30
-8.61190e-15
  70
    32
  0
VERTEX
  8
0
  5
37A9
 10
703.323
 20
38.8576
 30
-8.61070e-15
  70
    32
  0
VERTEX
  8
0
  5
37AA
 10
703.305
 20
38.8535
 30
-8.60955e-15
  70
    32
  0
VERTEX
  8
0
  5
37AB
 10
703.287
 20
38.8494
 30
-8.60846e-15
  70
    32
  0
VERTEX
  8
0
  5
37AC
 10
703.269
 20
38.8453
 30
-8.60742e-15
  70
    32
  0
VERTEX
  8
0
  5
37AD
 10
703.251
 20
38.8413
 30
-8.60644e-15
  70
    32
  0
VERTEX
  8
0
  5
37AE
 10
703.233
 20
38.8373
 30
-8.60552e-15
  70
    32
  0
VERTEX
  8
0
  5
37AF
 10
703.215
 20
38.8334
 30
-8.60467e-15
  70
    32
  0
VERTEX
  8
0
  5
37B0
 10
703.196
 20
38.8295
 30
-8.60388e-15
  70
    32
  0
VERTEX
  8
0
  5
37B1
 10
703.178
 20
38.8257
 30
-8.60315e-15
  70
    32
  0
VERTEX
  8
0
  5
37B2
 10
703.160
 20
38.8218
 30
-8.60250e-15
  70
    32
  0
VERTEX
  8
0
  5
37B3
 10
703.142
 20
38.8181
 30
-8.60192e-15
  70
    32
  0
VERTEX
  8
0
  5
37B4
 10
703.124
 20
38.8143
 30
-8.60141e-15
  70
    32
  0
VERTEX
  8
0
  5
37B5
 10
703.106
 20
38.8107
 30
-8.60097e-15
  70
    32
  0
VERTEX
  8
0
  5
37B6
 10
703.088
 20
38.8070
 30
-8.60061e-15
  70
    32
  0
VERTEX
  8
0
  5
37B7
 10
703.070
 20
38.8034
 30
-8.60034e-15
  70
    32
  0
VERTEX
  8
0
  5
37B8
 10
703.052
 20
38.7999
 30
-8.60014e-15
  70
    32
  0
VERTEX
  8
0
  5
37B9
 10
703.034
 20
38.7963
 30
-8.60003e-15
  70
    32
  0
VERTEX
  8
0
  5
37BA
 10
703.016
 20
38.7929
 30
-8.60000e-15
  70
    32
  0
VERTEX
  8
0
  5
37BB
 10
702.997
 20
38.7894
 30
-8.60000e-15
  70
    32
  0
VERTEX
  8
0
  5
37BC
 10
702.979
 20
38.7860
 30
-8.60000e-15
  70
    32
  0
VERTEX
  8
0
  5
37BD
 10
702.961
 20
38.7827
 30
-8.60000e-15
  70
    32
  0
VERTEX
  8
0
  5
37BE
 10
702.943
 20
38.7794
 30
-8.60000e-15
  70
    32
  0
VERTEX
  8
0
  5
37BF
 10
702.925
 20
38.7761
 30
-8.60000e-15
  70
    32
  0
VERTEX
  8
0
  5
37C0
 10
702.907
 20
38.7729
 30
-8.60000e-15
  70
    32
  0
VERTEX
  8
0
  5
37C1
 10
702.888
 20
38.7697
 30
-8.60000e-15
  70
    32
  0
VERTEX
  8
0
  5
37C2
 10
702.870
 20
38.7665
 30
-8.60000e-15
  70
    32
  0
VERTEX
  8
0
  5
37C3
 10
702.852
 20
38.7634
 30
-8.60000e-15
  70
    32
  0
VERTEX
  8
0
  5
37C4
 10
702.834
 20
38.7604
 30
-8.60000e-15
  70
    32
  0
VERTEX
  8
0
  5
37C5
 10
702.816
 20
38.7574
 30
-8.60000e-15
  70
    32
  0
VERTEX
  8
0
  5
37C6
 10
702.797
 20
38.7544
 30
-8.60000e-15
  70
    32
  0
VERTEX
  8
0
  5
37C7
 10
702.779
 20
38.7515
 30
-8.60000e-15
  70
    32
  0
VERTEX
  8
0
  5
37C8
 10
702.761
 20
38.7486
 30
-8.60000e-15
  70
    32
  0
VERTEX
  8
0
  5
37C9
 10
702.743
 20
38.7457
 30
-8.60000e-15
  70
    32
  0
VERTEX
  8
0
  5
37CA
 10
702.724
 20
38.7429
 30
-8.60000e-15
  70
    32
  0
VERTEX
  8
0
  5
37CB
 10
702.706
 20
38.7401
 30
-8.60000e-15
  70
    32
  0
VERTEX
  8
0
  5
37CC
 10
702.688
 20
38.7374
 30
-8.60000e-15
  70
    32
  0
VERTEX
  8
0
  5
37CD
 10
702.670
 20
38.7347
 30
-8.60000e-15
  70
    32
  0
VERTEX
  8
0
  5
37CE
 10
702.651
 20
38.7321
 30
-8.60000e-15
  70
    32
  0
VERTEX
  8
0
  5
37CF
 10
702.633
 20
38.7295
 30
-8.60000e-15
  70
    32
  0
VERTEX
  8
0
  5
37D0
 10
702.615
 20
38.7269
 30
-8.60000e-15
  70
    32
  0
VERTEX
  8
0
  5
37D1
 10
702.597
 20
38.7244
 30
-8.60000e-15
  70
    32
  0
VERTEX
  8
0
  5
37D2
 10
702.578
 20
38.7220
 30
-8.60000e-15
  70
    32
  0
VERTEX
  8
0
  5
37D3
 10
702.560
 20
38.7195
 30
-8.60000e-15
  70
    32
  0
VERTEX
  8
0
  5
37D4
 10
702.542
 20
38.7171
 30
-8.60000e-15
  70
    32
  0
VERTEX
  8
0
  5
37D5
 10
702.524
 20
38.7148
 30
-8.60000e-15
  70
    32
  0
VERTEX
  8
0
  5
37D6
 10
702.505
 20
38.7125
 30
-8.60000e-15
  70
    32
  0
VERTEX
  8
0
  5
37D7
 10
702.487
 20
38.7102
 30
-8.60000e-15
  70
    32
  0
VERTEX
  8
0
  5
37D8
 10
702.469
 20
38.7080
 30
-8.60000e-15
  70
    32
  0
VERTEX
  8
0
  5
37D9
 10
702.450
 20
38.7058
 30
-8.60000e-15
  70
    32
  0
VERTEX
  8
0
  5
37DA
 10
702.432
 20
38.7037
 30
-8.60000e-15
  70
    32
  0
VERTEX
  8
0
  5
37DB
 10
702.414
 20
38.7016
 30
-8.60000e-15
  70
    32
  0
VERTEX
  8
0
  5
37DC
 10
702.396
 20
38.6996
 30
-8.60000e-15
  70
    32
  0
VERTEX
  8
0
  5
37DD
 10
702.377
 20
38.6976
 30
-8.60000e-15
  70
    32
  0
VERTEX
  8
0
  5
37DE
 10
702.359
 20
38.6956
 30
-8.60000e-15
  70
    32
  0
VERTEX
  8
0
  5
37DF
 10
702.341
 20
38.6937
 30
-8.60000e-15
  70
    32
  0
VERTEX
  8
0
  5
37E0
 10
702.322
 20
38.6918
 30
-8.60000e-15
  70
    32
  0
VERTEX
  8
0
  5
37E1
 10
702.304
 20
38.6899
 30
-8.60000e-15
  70
    32
  0
VERTEX
  8
0
  5
37E2
 10
702.286
 20
38.6881
 30
-8.60000e-15
  70
    32
  0
VERTEX
  8
0
  5
37E3
 10
702.268
 20
38.6864
 30
-8.60000e-15
  70
    32
  0
VERTEX
  8
0
  5
37E4
 10
702.249
 20
38.6847
 30
-8.60000e-15
  70
    32
  0
VERTEX
  8
0
  5
37E5
 10
702.231
 20
38.6830
 30
-8.60000e-15
  70
    32
  0
VERTEX
  8
0
  5
37E6
 10
702.213
 20
38.6814
 30
-8.60000e-15
  70
    32
  0
VERTEX
  8
0
  5
37E7
 10
702.194
 20
38.6798
 30
-8.60000e-15
  70
    32
  0
VERTEX
  8
0
  5
37E8
 10
702.176
 20
38.6782
 30
-8.60000e-15
  70
    32
  0
VERTEX
  8
0
  5
37E9
 10
702.158
 20
38.6767
 30
-8.60000e-15
  70
    32
  0
VERTEX
  8
0
  5
37EA
 10
702.140
 20
38.6752
 30
-8.60000e-15
  70
    32
  0
VERTEX
  8
0
  5
37EB
 10
702.121
 20
38.6738
 30
-8.60000e-15
  70
    32
  0
VERTEX
  8
0
  5
37EC
 10
702.103
 20
38.6724
 30
-8.60000e-15
  70
    32
  0
VERTEX
  8
0
  5
37ED
 10
702.085
 20
38.6711
 30
-8.60000e-15
  70
    32
  0
VERTEX
  8
0
  5
37EE
 10
702.066
 20
38.6698
 30
-8.60000e-15
  70
    32
  0
VERTEX
  8
0
  5
37EF
 10
702.048
 20
38.6685
 30
-8.60000e-15
  70
    32
  0
VERTEX
  8
0
  5
37F0
 10
702.030
 20
38.6673
 30
-8.60000e-15
  70
    32
  0
VERTEX
  8
0
  5
37F1
 10
702.012
 20
38.6662
 30
-8.60000e-15
  70
    32
  0
VERTEX
  8
0
  5
37F2
 10
701.993
 20
38.6650
 30
-8.60000e-15
  70
    32
  0
VERTEX
  8
0
  5
37F3
 10
701.975
 20
38.6639
 30
-8.60000e-15
  70
    32
  0
VERTEX
  8
0
  5
37F4
 10
701.957
 20
38.6629
 30
-8.60000e-15
  70
    32
  0
VERTEX
  8
0
  5
37F5
 10
701.939
 20
38.6619
 30
-8.60000e-15
  70
    32
  0
VERTEX
  8
0
  5
37F6
 10
701.920
 20
38.6609
 30
-8.60000e-15
  70
    32
  0
VERTEX
  8
0
  5
37F7
 10
701.902
 20
38.6600
 30
-8.60000e-15
  70
    32
  0
VERTEX
  8
0
  5
37F8
 10
701.884
 20
38.6591
 30
-8.60000e-15
  70
    32
  0
VERTEX
  8
0
  5
37F9
 10
701.866
 20
38.6583
 30
-8.60000e-15
  70
    32
  0
VERTEX
  8
0
  5
37FA
 10
701.847
 20
38.6575
 30
-8.60000e-15
  70
    32
  0
VERTEX
  8
0
  5
37FB
 10
701.829
 20
38.6568
 30
-8.60000e-15
  70
    32
  0
VERTEX
  8
0
  5
37FC
 10
701.811
 20
38.6560
 30
-8.60000e-15
  70
    32
  0
VERTEX
  8
0
  5
37FD
 10
701.793
 20
38.6554
 30
-8.60000e-15
  70
    32
  0
VERTEX
  8
0
  5
37FE
 10
701.775
 20
38.6547
 30
-8.60000e-15
  70
    32
  0
VERTEX
  8
0
  5
37FF
 10
701.756
 20
38.6542
 30
-8.60000e-15
  70
    32
  0
VERTEX
  8
0
  5
3800
 10
701.738
 20
38.6536
 30
-8.60000e-15
  70
    32
  0
VERTEX
  8
0
  5
3801
 10
701.720
 20
38.6531
 30
-8.60000e-15
  70
    32
  0
VERTEX
  8
0
  5
3802
 10
701.702
 20
38.6527
 30
-8.60000e-15
  70
    32
  0
VERTEX
  8
0
  5
3803
 10
701.684
 20
38.6522
 30
-8.60000e-15
  70
    32
  0
VERTEX
  8
0
  5
3804
 10
701.665
 20
38.6519
 30
-8.60000e-15
  70
    32
  0
VERTEX
  8
0
  5
3805
 10
701.647
 20
38.6515
 30
-8.60000e-15
  70
    32
  0
VERTEX
  8
0
  5
3806
 10
701.629
 20
38.6512
 30
-8.60000e-15
  70
    32
  0
VERTEX
  8
0
  5
3807
 10
701.611
 20
38.6510
 30
-8.60000e-15
  70
    32
  0
VERTEX
  8
0
  5
3808
 10
701.593
 20
38.6508
 30
-8.60000e-15
  70
    32
  0
VERTEX
  8
0
  5
3809
 10
701.575
 20
38.6506
 30
-8.60000e-15
  70
    32
  0
VERTEX
  8
0
  5
380A
 10
701.557
 20
38.6505
 30
-8.60000e-15
  70
    32
  0
VERTEX
  8
0
  5
380B
 10
701.538
 20
38.6504
 30
-8.60000e-15
  70
    32
  0
VERTEX
  8
0
  5
380C
 10
701.520
 20
38.6504
 30
-8.60000e-15
  70
    32
  0
VERTEX
  8
0
  5
380D
 10
701.502
 20
38.6504
 30
-8.60000e-15
  70
    32
  0
VERTEX
  8
0
  5
380E
 10
701.484
 20
38.6504
 30
-8.60000e-15
  70
    32
  0
VERTEX
  8
0
  5
380F
 10
701.466
 20
38.6505
 30
-8.60000e-15
  70
    32
  0
VERTEX
  8
0
  5
3810
 10
701.448
 20
38.6506
 30
-8.60000e-15
  70
    32
  0
VERTEX
  8
0
  5
3811
 10
701.430
 20
38.6508
 30
-8.60000e-15
  70
    32
  0
VERTEX
  8
0
  5
3812
 10
701.412
 20
38.6510
 30
-8.60000e-15
  70
    32
  0
VERTEX
  8
0
  5
3813
 10
701.393
 20
38.6512
 30
-8.60000e-15
  70
    32
  0
VERTEX
  8
0
  5
3814
 10
701.375
 20
38.6515
 30
-8.60000e-15
  70
    32
  0
VERTEX
  8
0
  5
3815
 10
701.357
 20
38.6519
 30
-8.60000e-15
  70
    32
  0
VERTEX
  8
0
  5
3816
 10
701.339
 20
38.6522
 30
-8.60000e-15
  70
    32
  0
VERTEX
  8
0
  5
3817
 10
701.321
 20
38.6527
 30
-8.60000e-15
  70
    32
  0
VERTEX
  8
0
  5
3818
 10
701.303
 20
38.6531
 30
-8.60000e-15
  70
    32
  0
VERTEX
  8
0
  5
3819
 10
701.284
 20
38.6536
 30
-8.60000e-15
  70
    32
  0
VERTEX
  8
0
  5
381A
 10
701.266
 20
38.6542
 30
-8.60000e-15
  70
    32
  0
VERTEX
  8
0
  5
381B
 10
701.248
 20
38.6547
 30
-8.60000e-15
  70
    32
  0
VERTEX
  8
0
  5
381C
 10
701.230
 20
38.6554
 30
-8.60000e-15
  70
    32
  0
VERTEX
  8
0
  5
381D
 10
701.212
 20
38.6560
 30
-8.60000e-15
  70
    32
  0
VERTEX
  8
0
  5
381E
 10
701.193
 20
38.6568
 30
-8.60000e-15
  70
    32
  0
VERTEX
  8
0
  5
381F
 10
701.175
 20
38.6575
 30
-8.60000e-15
  70
    32
  0
VERTEX
  8
0
  5
3820
 10
701.157
 20
38.6583
 30
-8.60000e-15
  70
    32
  0
VERTEX
  8
0
  5
3821
 10
701.139
 20
38.6591
 30
-8.60000e-15
  70
    32
  0
VERTEX
  8
0
  5
3822
 10
701.120
 20
38.6600
 30
-8.60000e-15
  70
    32
  0
VERTEX
  8
0
  5
3823
 10
701.102
 20
38.6609
 30
-8.60000e-15
  70
    32
  0
VERTEX
  8
0
  5
3824
 10
701.084
 20
38.6619
 30
-8.60000e-15
  70
    32
  0
VERTEX
  8
0
  5
3825
 10
701.066
 20
38.6629
 30
-8.60000e-15
  70
    32
  0
VERTEX
  8
0
  5
3826
 10
701.047
 20
38.6639
 30
-8.60000e-15
  70
    32
  0
VERTEX
  8
0
  5
3827
 10
701.029
 20
38.6650
 30
-8.60000e-15
  70
    32
  0
VERTEX
  8
0
  5
3828
 10
701.011
 20
38.6662
 30
-8.60000e-15
  70
    32
  0
VERTEX
  8
0
  5
3829
 10
700.993
 20
38.6673
 30
-8.60000e-15
  70
    32
  0
VERTEX
  8
0
  5
382A
 10
700.974
 20
38.6685
 30
-8.60000e-15
  70
    32
  0
VERTEX
  8
0
  5
382B
 10
700.956
 20
38.6698
 30
-8.60000e-15
  70
    32
  0
VERTEX
  8
0
  5
382C
 10
700.938
 20
38.6711
 30
-8.60000e-15
  70
    32
  0
VERTEX
  8
0
  5
382D
 10
700.920
 20
38.6724
 30
-8.60000e-15
  70
    32
  0
VERTEX
  8
0
  5
382E
 10
700.901
 20
38.6738
 30
-8.60000e-15
  70
    32
  0
VERTEX
  8
0
  5
382F
 10
700.883
 20
38.6752
 30
-8.60000e-15
  70
    32
  0
VERTEX
  8
0
  5
3830
 10
700.865
 20
38.6767
 30
-8.60000e-15
  70
    32
  0
VERTEX
  8
0
  5
3831
 10
700.846
 20
38.6782
 30
-8.60000e-15
  70
    32
  0
VERTEX
  8
0
  5
3832
 10
700.828
 20
38.6798
 30
-8.60000e-15
  70
    32
  0
VERTEX
  8
0
  5
3833
 10
700.810
 20
38.6814
 30
-8.60000e-15
  70
    32
  0
VERTEX
  8
0
  5
3834
 10
700.792
 20
38.6830
 30
-8.60000e-15
  70
    32
  0
VERTEX
  8
0
  5
3835
 10
700.773
 20
38.6847
 30
-8.60000e-15
  70
    32
  0
VERTEX
  8
0
  5
3836
 10
700.755
 20
38.6864
 30
-8.60000e-15
  70
    32
  0
VERTEX
  8
0
  5
3837
 10
700.737
 20
38.6881
 30
-8.60000e-15
  70
    32
  0
VERTEX
  8
0
  5
3838
 10
700.718
 20
38.6899
 30
-8.60000e-15
  70
    32
  0
VERTEX
  8
0
  5
3839
 10
700.700
 20
38.6918
 30
-8.60000e-15
  70
    32
  0
VERTEX
  8
0
  5
383A
 10
700.682
 20
38.6937
 30
-8.60000e-15
  70
    32
  0
VERTEX
  8
0
  5
383B
 10
700.663
 20
38.6956
 30
-8.60000e-15
  70
    32
  0
VERTEX
  8
0
  5
383C
 10
700.645
 20
38.6976
 30
-8.60000e-15
  70
    32
  0
VERTEX
  8
0
  5
383D
 10
700.627
 20
38.6996
 30
-8.60000e-15
  70
    32
  0
VERTEX
  8
0
  5
383E
 10
700.609
 20
38.7016
 30
-8.60000e-15
  70
    32
  0
VERTEX
  8
0
  5
383F
 10
700.590
 20
38.7037
 30
-8.60000e-15
  70
    32
  0
VERTEX
  8
0
  5
3840
 10
700.572
 20
38.7058
 30
-8.60000e-15
  70
    32
  0
VERTEX
  8
0
  5
3841
 10
700.554
 20
38.7080
 30
-8.60000e-15
  70
    32
  0
VERTEX
  8
0
  5
3842
 10
700.535
 20
38.7102
 30
-8.60000e-15
  70
    32
  0
VERTEX
  8
0
  5
3843
 10
700.517
 20
38.7125
 30
-8.60000e-15
  70
    32
  0
VERTEX
  8
0
  5
3844
 10
700.499
 20
38.7148
 30
-8.60000e-15
  70
    32
  0
VERTEX
  8
0
  5
3845
 10
700.481
 20
38.7171
 30
-8.60000e-15
  70
    32
  0
VERTEX
  8
0
  5
3846
 10
700.462
 20
38.7195
 30
-8.60000e-15
  70
    32
  0
VERTEX
  8
0
  5
3847
 10
700.444
 20
38.7220
 30
-8.60000e-15
  70
    32
  0
VERTEX
  8
0
  5
3848
 10
700.426
 20
38.7244
 30
-8.60000e-15
  70
    32
  0
VERTEX
  8
0
  5
3849
 10
700.408
 20
38.7269
 30
-8.60000e-15
  70
    32
  0
VERTEX
  8
0
  5
384A
 10
700.389
 20
38.7295
 30
-8.60000e-15
  70
    32
  0
VERTEX
  8
0
  5
384B
 10
700.371
 20
38.7321
 30
-8.60000e-15
  70
    32
  0
VERTEX
  8
0
  5
384C
 10
700.353
 20
38.7347
 30
-8.60000e-15
  70
    32
  0
VERTEX
  8
0
  5
384D
 10
700.335
 20
38.7374
 30
-8.60000e-15
  70
    32
  0
VERTEX
  8
0
  5
384E
 10
700.316
 20
38.7401
 30
-8.60000e-15
  70
    32
  0
VERTEX
  8
0
  5
384F
 10
700.298
 20
38.7429
 30
-8.60000e-15
  70
    32
  0
VERTEX
  8
0
  5
3850
 10
700.280
 20
38.7457
 30
-8.60000e-15
  70
    32
  0
VERTEX
  8
0
  5
3851
 10
700.262
 20
38.7486
 30
-8.60000e-15
  70
    32
  0
VERTEX
  8
0
  5
3852
 10
700.243
 20
38.7515
 30
-8.60000e-15
  70
    32
  0
VERTEX
  8
0
  5
3853
 10
700.225
 20
38.7544
 30
-8.60000e-15
  70
    32
  0
VERTEX
  8
0
  5
3854
 10
700.207
 20
38.7574
 30
-8.60000e-15
  70
    32
  0
VERTEX
  8
0
  5
3855
 10
700.189
 20
38.7604
 30
-8.60000e-15
  70
    32
  0
VERTEX
  8
0
  5
3856
 10
700.171
 20
38.7634
 30
-8.60000e-15
  70
    32
  0
VERTEX
  8
0
  5
3857
 10
700.152
 20
38.7665
 30
-8.60000e-15
  70
    32
  0
VERTEX
  8
0
  5
3858
 10
700.134
 20
38.7697
 30
-8.60000e-15
  70
    32
  0
VERTEX
  8
0
  5
3859
 10
700.116
 20
38.7729
 30
-8.60000e-15
  70
    32
  0
VERTEX
  8
0
  5
385A
 10
700.098
 20
38.7761
 30
-8.60000e-15
  70
    32
  0
VERTEX
  8
0
  5
385B
 10
700.080
 20
38.7794
 30
-8.60000e-15
  70
    32
  0
VERTEX
  8
0
  5
385C
 10
700.061
 20
38.7827
 30
-8.60000e-15
  70
    32
  0
VERTEX
  8
0
  5
385D
 10
700.043
 20
38.7860
 30
-8.60000e-15
  70
    32
  0
VERTEX
  8
0
  5
385E
 10
700.025
 20
38.7894
 30
-8.60000e-15
  70
    32
  0
VERTEX
  8
0
  5
385F
 10
700.007
 20
38.7929
 30
-8.60000e-15
  70
    32
  0
VERTEX
  8
0
  5
3860
 10
699.989
 20
38.7963
 30
-8.60003e-15
  70
    32
  0
VERTEX
  8
0
  5
3861
 10
699.971
 20
38.7999
 30
-8.60014e-15
  70
    32
  0
VERTEX
  8
0
  5
3862
 10
699.953
 20
38.8034
 30
-8.60034e-15
  70
    32
  0
VERTEX
  8
0
  5
3863
 10
699.935
 20
38.8070
 30
-8.60061e-15
  70
    32
  0
VERTEX
  8
0
  5
3864
 10
699.916
 20
38.8107
 30
-8.60097e-15
  70
    32
  0
VERTEX
  8
0
  5
3865
 10
699.898
 20
38.8143
 30
-8.60141e-15
  70
    32
  0
VERTEX
  8
0
  5
3866
 10
699.880
 20
38.8181
 30
-8.60192e-15
  70
    32
  0
VERTEX
  8
0
  5
3867
 10
699.862
 20
38.8218
 30
-8.60250e-15
  70
    32
  0
VERTEX
  8
0
  5
3868
 10
699.844
 20
38.8257
 30
-8.60315e-15
  70
    32
  0
VERTEX
  8
0
  5
3869
 10
699.826
 20
38.8295
 30
-8.60388e-15
  70
    32
  0
VERTEX
  8
0
  5
386A
 10
699.808
 20
38.8334
 30
-8.60467e-15
  70
    32
  0
VERTEX
  8
0
  5
386B
 10
699.790
 20
38.8373
 30
-8.60552e-15
  70
    32
  0
VERTEX
  8
0
  5
386C
 10
699.772
 20
38.8413
 30
-8.60644e-15
  70
    32
  0
VERTEX
  8
0
  5
386D
 10
699.754
 20
38.8453
 30
-8.60742e-15
  70
    32
  0
VERTEX
  8
0
  5
386E
 10
699.736
 20
38.8494
 30
-8.60846e-15
  70
    32
  0
VERTEX
  8
0
  5
386F
 10
699.718
 20
38.8535
 30
-8.60955e-15
  70
    32
  0
VERTEX
  8
0
  5
3870
 10
699.700
 20
38.8576
 30
-8.61070e-15
  70
    32
  0
VERTEX
  8
0
  5
3871
 10
699.682
 20
38.8618
 30
-8.61190e-15
  70
    32
  0
VERTEX
  8
0
  5
3872
 10
699.664
 20
38.8660
 30
-8.61315e-15
  70
    32
  0
VERTEX
  8
0
  5
3873
 10
699.646
 20
38.8703
 30
-8.61445e-15
  70
    32
  0
VERTEX
  8
0
  5
3874
 10
699.628
 20
38.8746
 30
-8.61579e-15
  70
    32
  0
VERTEX
  8
0
  5
3875
 10
699.610
 20
38.8789
 30
-8.61718e-15
  70
    32
  0
VERTEX
  8
0
  5
3876
 10
699.592
 20
38.8833
 30
-8.61861e-15
  70
    32
  0
VERTEX
  8
0
  5
3877
 10
699.574
 20
38.8877
 30
-8.62008e-15
  70
    32
  0
VERTEX
  8
0
  5
3878
 10
699.556
 20
38.8921
 30
-8.62158e-15
  70
    32
  0
VERTEX
  8
0
  5
3879
 10
699.539
 20
38.8966
 30
-8.62312e-15
  70
    32
  0
VERTEX
  8
0
  5
387A
 10
699.521
 20
38.9012
 30
-8.62469e-15
  70
    32
  0
VERTEX
  8
0
  5
387B
 10
699.503
 20
38.9057
 30
-8.62630e-15
  70
    32
  0
VERTEX
  8
0
  5
387C
 10
699.485
 20
38.9104
 30
-8.62793e-15
  70
    32
  0
VERTEX
  8
0
  5
387D
 10
699.467
 20
38.9150
 30
-8.62959e-15
  70
    32
  0
VERTEX
  8
0
  5
387E
 10
699.449
 20
38.9197
 30
-8.63128e-15
  70
    32
  0
VERTEX
  8
0
  5
387F
 10
699.431
 20
38.9244
 30
-8.63298e-15
  70
    32
  0
VERTEX
  8
0
  5
3880
 10
699.414
 20
38.9292
 30
-8.63471e-15
  70
    32
  0
VERTEX
  8
0
  5
3881
 10
699.396
 20
38.9340
 30
-8.63645e-15
  70
    32
  0
VERTEX
  8
0
  5
3882
 10
699.378
 20
38.9389
 30
-8.63821e-15
  70
    32
  0
VERTEX
  8
0
  5
3883
 10
699.360
 20
38.9437
 30
-8.63999e-15
  70
    32
  0
VERTEX
  8
0
  5
3884
 10
699.343
 20
38.9487
 30
-8.64178e-15
  70
    32
  0
VERTEX
  8
0
  5
3885
 10
699.325
 20
38.9536
 30
-8.64357e-15
  70
    32
  0
VERTEX
  8
0
  5
3886
 10
699.307
 20
38.9586
 30
-8.64538e-15
  70
    32
  0
VERTEX
  8
0
  5
3887
 10
699.289
 20
38.9637
 30
-8.64718e-15
  70
    32
  0
VERTEX
  8
0
  5
3888
 10
699.272
 20
38.9687
 30
-8.64900e-15
  70
    32
  0
VERTEX
  8
0
  5
3889
 10
699.254
 20
38.9739
 30
-8.65081e-15
  70
    32
  0
VERTEX
  8
0
  5
388A
 10
699.236
 20
38.9790
 30
-8.65262e-15
  70
    32
  0
VERTEX
  8
0
  5
388B
 10
699.219
 20
38.9842
 30
-8.65443e-15
  70
    32
  0
VERTEX
  8
0
  5
388C
 10
699.201
 20
38.9894
 30
-8.65624e-15
  70
    32
  0
VERTEX
  8
0
  5
388D
 10
699.184
 20
38.9947
 30
-8.65803e-15
  70
    32
  0
VERTEX
  8
0
  5
388E
 10
699.166
 20
39.0000
 30
-8.65982e-15
  70
    32
  0
VERTEX
  8
0
  5
388F
 10
699.148
 20
39.0053
 30
-8.66160e-15
  70
    32
  0
VERTEX
  8
0
  5
3890
 10
699.131
 20
39.0107
 30
-8.66336e-15
  70
    32
  0
VERTEX
  8
0
  5
3891
 10
699.113
 20
39.0161
 30
-8.66511e-15
  70
    32
  0
VERTEX
  8
0
  5
3892
 10
699.096
 20
39.0216
 30
-8.66684e-15
  70
    32
  0
VERTEX
  8
0
  5
3893
 10
699.078
 20
39.0271
 30
-8.66854e-15
  70
    32
  0
VERTEX
  8
0
  5
3894
 10
699.061
 20
39.0326
 30
-8.67023e-15
  70
    32
  0
VERTEX
  8
0
  5
3895
 10
699.043
 20
39.0381
 30
-8.67189e-15
  70
    32
  0
VERTEX
  8
0
  5
3896
 10
699.026
 20
39.0437
 30
-8.67353e-15
  70
    32
  0
VERTEX
  8
0
  5
3897
 10
699.008
 20
39.0494
 30
-8.67514e-15
  70
    32
  0
VERTEX
  8
0
  5
3898
 10
698.991
 20
39.0551
 30
-8.67671e-15
  70
    32
  0
VERTEX
  8
0
  5
3899
 10
698.973
 20
39.0608
 30
-8.67826e-15
  70
    32
  0
VERTEX
  8
0
  5
389A
 10
698.956
 20
39.0665
 30
-8.67977e-15
  70
    32
  0
VERTEX
  8
0
  5
389B
 10
698.939
 20
39.0723
 30
-8.68124e-15
  70
    32
  0
VERTEX
  8
0
  5
389C
 10
698.921
 20
39.0781
 30
-8.68267e-15
  70
    32
  0
VERTEX
  8
0
  5
389D
 10
698.904
 20
39.0840
 30
-8.68406e-15
  70
    32
  0
VERTEX
  8
0
  5
389E
 10
698.887
 20
39.0899
 30
-8.68541e-15
  70
    32
  0
VERTEX
  8
0
  5
389F
 10
698.869
 20
39.0958
 30
-8.68671e-15
  70
    32
  0
VERTEX
  8
0
  5
38A0
 10
698.852
 20
39.1017
 30
-8.68797e-15
  70
    32
  0
VERTEX
  8
0
  5
38A1
 10
698.835
 20
39.1077
 30
-8.68917e-15
  70
    32
  0
VERTEX
  8
0
  5
38A2
 10
698.818
 20
39.1138
 30
-8.69033e-15
  70
    32
  0
VERTEX
  8
0
  5
38A3
 10
698.800
 20
39.1198
 30
-8.69143e-15
  70
    32
  0
VERTEX
  8
0
  5
38A4
 10
698.783
 20
39.1259
 30
-8.69247e-15
  70
    32
  0
VERTEX
  8
0
  5
38A5
 10
698.766
 20
39.1321
 30
-8.69346e-15
  70
    32
  0
VERTEX
  8
0
  5
38A6
 10
698.749
 20
39.1383
 30
-8.69438e-15
  70
    32
  0
VERTEX
  8
0
  5
38A7
 10
698.732
 20
39.1445
 30
-8.69524e-15
  70
    32
  0
VERTEX
  8
0
  5
38A8
 10
698.714
 20
39.1507
 30
-8.69604e-15
  70
    32
  0
VERTEX
  8
0
  5
38A9
 10
698.697
 20
39.1570
 30
-8.69677e-15
  70
    32
  0
VERTEX
  8
0
  5
38AA
 10
698.680
 20
39.1633
 30
-8.69743e-15
  70
    32
  0
VERTEX
  8
0
  5
38AB
 10
698.663
 20
39.1696
 30
-8.69803e-15
  70
    32
  0
VERTEX
  8
0
  5
38AC
 10
698.646
 20
39.1760
 30
-8.69854e-15
  70
    32
  0
VERTEX
  8
0
  5
38AD
 10
698.629
 20
39.1824
 30
-8.69899e-15
  70
    32
  0
VERTEX
  8
0
  5
38AE
 10
698.612
 20
39.1889
 30
-8.69935e-15
  70
    32
  0
VERTEX
  8
0
  5
38AF
 10
698.595
 20
39.1954
 30
-8.69964e-15
  70
    32
  0
VERTEX
  8
0
  5
38B0
 10
698.578
 20
39.2019
 30
-8.69984e-15
  70
    32
  0
VERTEX
  8
0
  5
38B1
 10
698.561
 20
39.2085
 30
-8.69996e-15
  70
    32
  0
VERTEX
  8
0
  5
38B2
 10
698.544
 20
39.2150
 30
-8.70000e-15
  70
    32
  0
VERTEX
  8
0
  5
38B3
 10
698.527
 20
39.2217
 30
-8.70011e-15
  70
    32
  0
VERTEX
  8
0
  5
38B4
 10
698.510
 20
39.2283
 30
-8.70038e-15
  70
    32
  0
VERTEX
  8
0
  5
38B5
 10
698.493
 20
39.2350
 30
-8.70082e-15
  70
    32
  0
VERTEX
  8
0
  5
38B6
 10
698.477
 20
39.2417
 30
-8.70142e-15
  70
    32
  0
VERTEX
  8
0
  5
38B7
 10
698.460
 20
39.2485
 30
-8.70217e-15
  70
    32
  0
VERTEX
  8
0
  5
38B8
 10
698.443
 20
39.2553
 30
-8.70307e-15
  70
    32
  0
VERTEX
  8
0
  5
38B9
 10
698.426
 20
39.2621
 30
-8.70411e-15
  70
    32
  0
VERTEX
  8
0
  5
38BA
 10
698.409
 20
39.2690
 30
-8.70528e-15
  70
    32
  0
VERTEX
  8
0
  5
38BB
 10
698.393
 20
39.2758
 30
-8.70659e-15
  70
    32
  0
VERTEX
  8
0
  5
38BC
 10
698.376
 20
39.2828
 30
-8.70801e-15
  70
    32
  0
VERTEX
  8
0
  5
38BD
 10
698.359
 20
39.2897
 30
-8.70955e-15
  70
    32
  0
VERTEX
  8
0
  5
38BE
 10
698.343
 20
39.2967
 30
-8.71120e-15
  70
    32
  0
VERTEX
  8
0
  5
38BF
 10
698.326
 20
39.3037
 30
-8.71295e-15
  70
    32
  0
VERTEX
  8
0
  5
38C0
 10
698.309
 20
39.3108
 30
-8.71480e-15
  70
    32
  0
VERTEX
  8
0
  5
38C1
 10
698.293
 20
39.3179
 30
-8.71675e-15
  70
    32
  0
VERTEX
  8
0
  5
38C2
 10
698.276
 20
39.3250
 30
-8.71877e-15
  70
    32
  0
VERTEX
  8
0
  5
38C3
 10
698.260
 20
39.3321
 30
-8.72088e-15
  70
    32
  0
VERTEX
  8
0
  5
38C4
 10
698.243
 20
39.3393
 30
-8.72306e-15
  70
    32
  0
VERTEX
  8
0
  5
38C5
 10
698.227
 20
39.3465
 30
-8.72531e-15
  70
    32
  0
VERTEX
  8
0
  5
38C6
 10
698.210
 20
39.3537
 30
-8.72762e-15
  70
    32
  0
VERTEX
  8
0
  5
38C7
 10
698.194
 20
39.3610
 30
-8.72998e-15
  70
    32
  0
VERTEX
  8
0
  5
38C8
 10
698.177
 20
39.3683
 30
-8.73239e-15
  70
    32
  0
VERTEX
  8
0
  5
38C9
 10
698.161
 20
39.3756
 30
-8.73485e-15
  70
    32
  0
VERTEX
  8
0
  5
38CA
 10
698.144
 20
39.3830
 30
-8.73734e-15
  70
    32
  0
VERTEX
  8
0
  5
38CB
 10
698.128
 20
39.3904
 30
-8.73986e-15
  70
    32
  0
VERTEX
  8
0
  5
38CC
 10
698.112
 20
39.3978
 30
-8.74240e-15
  70
    32
  0
VERTEX
  8
0
  5
38CD
 10
698.095
 20
39.4053
 30
-8.74497e-15
  70
    32
  0
VERTEX
  8
0
  5
38CE
 10
698.079
 20
39.4127
 30
-8.74754e-15
  70
    32
  0
VERTEX
  8
0
  5
38CF
 10
698.063
 20
39.4203
 30
-8.75012e-15
  70
    32
  0
VERTEX
  8
0
  5
38D0
 10
698.046
 20
39.4278
 30
-8.75270e-15
  70
    32
  0
VERTEX
  8
0
  5
38D1
 10
698.030
 20
39.4354
 30
-8.75528e-15
  70
    32
  0
VERTEX
  8
0
  5
38D2
 10
698.014
 20
39.4430
 30
-8.75784e-15
  70
    32
  0
VERTEX
  8
0
  5
38D3
 10
697.998
 20
39.4506
 30
-8.76038e-15
  70
    32
  0
VERTEX
  8
0
  5
38D4
 10
697.981
 20
39.4582
 30
-8.76290e-15
  70
    32
  0
VERTEX
  8
0
  5
38D5
 10
697.965
 20
39.4659
 30
-8.76539e-15
  70
    32
  0
VERTEX
  8
0
  5
38D6
 10
697.949
 20
39.4737
 30
-8.76784e-15
  70
    32
  0
VERTEX
  8
0
  5
38D7
 10
697.933
 20
39.4814
 30
-8.77025e-15
  70
    32
  0
VERTEX
  8
0
  5
38D8
 10
697.917
 20
39.4892
 30
-8.77261e-15
  70
    32
  0
VERTEX
  8
0
  5
38D9
 10
697.901
 20
39.4970
 30
-8.77491e-15
  70
    32
  0
VERTEX
  8
0
  5
38DA
 10
697.885
 20
39.5048
 30
-8.77715e-15
  70
    32
  0
VERTEX
  8
0
  5
38DB
 10
697.869
 20
39.5127
 30
-8.77932e-15
  70
    32
  0
VERTEX
  8
0
  5
38DC
 10
697.853
 20
39.5205
 30
-8.78142e-15
  70
    32
  0
VERTEX
  8
0
  5
38DD
 10
697.837
 20
39.5285
 30
-8.78344e-15
  70
    32
  0
VERTEX
  8
0
  5
38DE
 10
697.821
 20
39.5364
 30
-8.78538e-15
  70
    32
  0
VERTEX
  8
0
  5
38DF
 10
697.805
 20
39.5444
 30
-8.78722e-15
  70
    32
  0
VERTEX
  8
0
  5
38E0
 10
697.789
 20
39.5524
 30
-8.78896e-15
  70
    32
  0
VERTEX
  8
0
  5
38E1
 10
697.774
 20
39.5604
 30
-8.79060e-15
  70
    32
  0
VERTEX
  8
0
  5
38E2
 10
697.758
 20
39.5684
 30
-8.79213e-15
  70
    32
  0
VERTEX
  8
0
  5
38E3
 10
697.742
 20
39.5765
 30
-8.79354e-15
  70
    32
  0
VERTEX
  8
0
  5
38E4
 10
697.726
 20
39.5846
 30
-8.79483e-15
  70
    32
  0
VERTEX
  8
0
  5
38E5
 10
697.711
 20
39.5927
 30
-8.79599e-15
  70
    32
  0
VERTEX
  8
0
  5
38E6
 10
697.695
 20
39.6009
 30
-8.79702e-15
  70
    32
  0
VERTEX
  8
0
  5
38E7
 10
697.679
 20
39.6091
 30
-8.79791e-15
  70
    32
  0
VERTEX
  8
0
  5
38E8
 10
697.664
 20
39.6173
 30
-8.79864e-15
  70
    32
  0
VERTEX
  8
0
  5
38E9
 10
697.648
 20
39.6255
 30
-8.79923e-15
  70
    32
  0
VERTEX
  8
0
  5
38EA
 10
697.632
 20
39.6338
 30
-8.79965e-15
  70
    32
  0
VERTEX
  8
0
  5
38EB
 10
697.617
 20
39.6420
 30
-8.79991e-15
  70
    32
  0
VERTEX
  8
0
  5
38EC
 10
697.601
 20
39.6503
 30
-8.80000e-15
  70
    32
  0
SEQEND
  8
0
  5
38ED
  0
POLYLINE
  8
0
  5
38EE
  66
     1
 10
0.000000
 20
0.000000
 30
0.000000
  70
     8
  0
VERTEX
  8
0
  5
38EF
 10
629.618
 20
39.6503
 30
-8.80000e-15
  70
    32
  0
VERTEX
  8
0
  5
38F0
 10
629.624
 20
39.6431
 30
-8.79993e-15
  70
    32
  0
VERTEX
  8
0
  5
38F1
 10
629.631
 20
39.6358
 30
-8.79973e-15
  70
    32
  0
VERTEX
  8
0
  5
38F2
 10
629.637
 20
39.6286
 30
-8.79940e-15
  70
    32
  0
VERTEX
  8
0
  5
38F3
 10
629.644
 20
39.6213
 30
-8.79895e-15
  70
    32
  0
VERTEX
  8
0
  5
38F4
 10
629.650
 20
39.6141
 30
-8.79838e-15
  70
    32
  0
VERTEX
  8
0
  5
38F5
 10
629.657
 20
39.6069
 30
-8.79769e-15
  70
    32
  0
VERTEX
  8
0
  5
38F6
 10
629.663
 20
39.5998
 30
-8.79689e-15
  70
    32
  0
VERTEX
  8
0
  5
38F7
 10
629.669
 20
39.5926
 30
-8.79598e-15
  70
    32
  0
VERTEX
  8
0
  5
38F8
 10
629.676
 20
39.5855
 30
-8.79497e-15
  70
    32
  0
VERTEX
  8
0
  5
38F9
 10
629.682
 20
39.5784
 30
-8.79386e-15
  70
    32
  0
VERTEX
  8
0
  5
38FA
 10
629.689
 20
39.5713
 30
-8.79265e-15
  70
    32
  0
VERTEX
  8
0
  5
38FB
 10
629.695
 20
39.5643
 30
-8.79135e-15
  70
    32
  0
VERTEX
  8
0
  5
38FC
 10
629.701
 20
39.5572
 30
-8.78997e-15
  70
    32
  0
VERTEX
  8
0
  5
38FD
 10
629.708
 20
39.5502
 30
-8.78850e-15
  70
    32
  0
VERTEX
  8
0
  5
38FE
 10
629.714
 20
39.5432
 30
-8.78695e-15
  70
    32
  0
VERTEX
  8
0
  5
38FF
 10
629.720
 20
39.5362
 30
-8.78533e-15
  70
    32
  0
VERTEX
  8
0
  5
3900
 10
629.726
 20
39.5292
 30
-8.78364e-15
  70
    32
  0
VERTEX
  8
0
  5
3901
 10
629.733
 20
39.5223
 30
-8.78188e-15
  70
    32
  0
VERTEX
  8
0
  5
3902
 10
629.739
 20
39.5154
 30
-8.78006e-15
  70
    32
  0
VERTEX
  8
0
  5
3903
 10
629.745
 20
39.5085
 30
-8.77818e-15
  70
    32
  0
VERTEX
  8
0
  5
3904
 10
629.751
 20
39.5016
 30
-8.77625e-15
  70
    32
  0
VERTEX
  8
0
  5
3905
 10
629.757
 20
39.4948
 30
-8.77426e-15
  70
    32
  0
VERTEX
  8
0
  5
3906
 10
629.764
 20
39.4879
 30
-8.77223e-15
  70
    32
  0
VERTEX
  8
0
  5
3907
 10
629.770
 20
39.4811
 30
-8.77016e-15
  70
    32
  0
VERTEX
  8
0
  5
3908
 10
629.776
 20
39.4743
 30
-8.76805e-15
  70
    32
  0
VERTEX
  8
0
  5
3909
 10
629.782
 20
39.4676
 30
-8.76591e-15
  70
    32
  0
VERTEX
  8
0
  5
390A
 10
629.788
 20
39.4608
 30
-8.76374e-15
  70
    32
  0
VERTEX
  8
0
  5
390B
 10
629.794
 20
39.4541
 30
-8.76154e-15
  70
    32
  0
VERTEX
  8
0
  5
390C
 10
629.800
 20
39.4474
 30
-8.75932e-15
  70
    32
  0
VERTEX
  8
0
  5
390D
 10
629.806
 20
39.4407
 30
-8.75709e-15
  70
    32
  0
VERTEX
  8
0
  5
390E
 10
629.812
 20
39.4341
 30
-8.75484e-15
  70
    32
  0
VERTEX
  8
0
  5
390F
 10
629.818
 20
39.4274
 30
-8.75258e-15
  70
    32
  0
VERTEX
  8
0
  5
3910
 10
629.824
 20
39.4208
 30
-8.75032e-15
  70
    32
  0
VERTEX
  8
0
  5
3911
 10
629.830
 20
39.4142
 30
-8.74806e-15
  70
    32
  0
VERTEX
  8
0
  5
3912
 10
629.836
 20
39.4077
 30
-8.74580e-15
  70
    32
  0
VERTEX
  8
0
  5
3913
 10
629.841
 20
39.4011
 30
-8.74355e-15
  70
    32
  0
VERTEX
  8
0
  5
3914
 10
629.847
 20
39.3946
 30
-8.74131e-15
  70
    32
  0
VERTEX
  8
0
  5
3915
 10
629.853
 20
39.3881
 30
-8.73909e-15
  70
    32
  0
VERTEX
  8
0
  5
3916
 10
629.859
 20
39.3816
 30
-8.73688e-15
  70
    32
  0
VERTEX
  8
0
  5
3917
 10
629.865
 20
39.3752
 30
-8.73470e-15
  70
    32
  0
VERTEX
  8
0
  5
3918
 10
629.870
 20
39.3688
 30
-8.73255e-15
  70
    32
  0
VERTEX
  8
0
  5
3919
 10
629.876
 20
39.3624
 30
-8.73043e-15
  70
    32
  0
VERTEX
  8
0
  5
391A
 10
629.882
 20
39.3560
 30
-8.72835e-15
  70
    32
  0
VERTEX
  8
0
  5
391B
 10
629.888
 20
39.3496
 30
-8.72631e-15
  70
    32
  0
VERTEX
  8
0
  5
391C
 10
629.893
 20
39.3433
 30
-8.72431e-15
  70
    32
  0
VERTEX
  8
0
  5
391D
 10
629.899
 20
39.3370
 30
-8.72236e-15
  70
    32
  0
VERTEX
  8
0
  5
391E
 10
629.905
 20
39.3307
 30
-8.72047e-15
  70
    32
  0
VERTEX
  8
0
  5
391F
 10
629.910
 20
39.3245
 30
-8.71863e-15
  70
    32
  0
VERTEX
  8
0
  5
3920
 10
629.916
 20
39.3182
 30
-8.71685e-15
  70
    32
  0
VERTEX
  8
0
  5
3921
 10
629.921
 20
39.3120
 30
-8.71514e-15
  70
    32
  0
VERTEX
  8
0
  5
3922
 10
629.927
 20
39.3058
 30
-8.71350e-15
  70
    32
  0
VERTEX
  8
0
  5
3923
 10
629.932
 20
39.2997
 30
-8.71193e-15
  70
    32
  0
VERTEX
  8
0
  5
3924
 10
629.938
 20
39.2935
 30
-8.71044e-15
  70
    32
  0
VERTEX
  8
0
  5
3925
 10
629.943
 20
39.2874
 30
-8.70903e-15
  70
    32
  0
VERTEX
  8
0
  5
3926
 10
629.949
 20
39.2813
 30
-8.70771e-15
  70
    32
  0
VERTEX
  8
0
  5
3927
 10
629.954
 20
39.2753
 30
-8.70647e-15
  70
    32
  0
VERTEX
  8
0
  5
3928
 10
629.960
 20
39.2692
 30
-8.70534e-15
  70
    32
  0
VERTEX
  8
0
  5
3929
 10
629.965
 20
39.2632
 30
-8.70430e-15
  70
    32
  0
VERTEX
  8
0
  5
392A
 10
629.970
 20
39.2572
 30
-8.70336e-15
  70
    32
  0
VERTEX
  8
0
  5
392B
 10
629.976
 20
39.2513
 30
-8.70253e-15
  70
    32
  0
VERTEX
  8
0
  5
392C
 10
629.981
 20
39.2453
 30
-8.70181e-15
  70
    32
  0
VERTEX
  8
0
  5
392D
 10
629.986
 20
39.2394
 30
-8.70120e-15
  70
    32
  0
VERTEX
  8
0
  5
392E
 10
629.992
 20
39.2336
 30
-8.70071e-15
  70
    32
  0
VERTEX
  8
0
  5
392F
 10
629.997
 20
39.2277
 30
-8.70035e-15
  70
    32
  0
VERTEX
  8
0
  5
3930
 10
630.002
 20
39.2219
 30
-8.70011e-15
  70
    32
  0
VERTEX
  8
0
  5
3931
 10
630.007
 20
39.2161
 30
-8.70001e-15
  70
    32
  0
VERTEX
  8
0
  5
3932
 10
630.012
 20
39.2103
 30
-8.69998e-15
  70
    32
  0
VERTEX
  8
0
  5
3933
 10
630.018
 20
39.2045
 30
-8.69990e-15
  70
    32
  0
VERTEX
  8
0
  5
3934
 10
630.023
 20
39.1988
 30
-8.69976e-15
  70
    32
  0
VERTEX
  8
0
  5
3935
 10
630.028
 20
39.1931
 30
-8.69955e-15
  70
    32
  0
VERTEX
  8
0
  5
3936
 10
630.033
 20
39.1874
 30
-8.69928e-15
  70
    32
  0
VERTEX
  8
0
  5
3937
 10
630.038
 20
39.1818
 30
-8.69894e-15
  70
    32
  0
VERTEX
  8
0
  5
3938
 10
630.043
 20
39.1761
 30
-8.69855e-15
  70
    32
  0
VERTEX
  8
0
  5
3939
 10
630.048
 20
39.1705
 30
-8.69810e-15
  70
    32
  0
VERTEX
  8
0
  5
393A
 10
630.053
 20
39.1650
 30
-8.69760e-15
  70
    32
  0
VERTEX
  8
0
  5
393B
 10
630.058
 20
39.1594
 30
-8.69704e-15
  70
    32
  0
VERTEX
  8
0
  5
393C
 10
630.063
 20
39.1539
 30
-8.69642e-15
  70
    32
  0
VERTEX
  8
0
  5
393D
 10
630.068
 20
39.1484
 30
-8.69576e-15
  70
    32
  0
VERTEX
  8
0
  5
393E
 10
630.073
 20
39.1430
 30
-8.69504e-15
  70
    32
  0
VERTEX
  8
0
  5
393F
 10
630.077
 20
39.1375
 30
-8.69428e-15
  70
    32
  0
VERTEX
  8
0
  5
3940
 10
630.082
 20
39.1321
 30
-8.69346e-15
  70
    32
  0
VERTEX
  8
0
  5
3941
 10
630.087
 20
39.1267
 30
-8.69260e-15
  70
    32
  0
VERTEX
  8
0
  5
3942
 10
630.092
 20
39.1214
 30
-8.69170e-15
  70
    32
  0
VERTEX
  8
0
  5
3943
 10
630.097
 20
39.1160
 30
-8.69075e-15
  70
    32
  0
VERTEX
  8
0
  5
3944
 10
630.101
 20
39.1107
 30
-8.68976e-15
  70
    32
  0
VERTEX
  8
0
  5
3945
 10
630.106
 20
39.1055
 30
-8.68873e-15
  70
    32
  0
VERTEX
  8
0
  5
3946
 10
630.111
 20
39.1002
 30
-8.68766e-15
  70
    32
  0
VERTEX
  8
0
  5
3947
 10
630.115
 20
39.0950
 30
-8.68655e-15
  70
    32
  0
VERTEX
  8
0
  5
3948
 10
630.120
 20
39.0898
 30
-8.68540e-15
  70
    32
  0
VERTEX
  8
0
  5
3949
 10
630.125
 20
39.0847
 30
-8.68422e-15
  70
    32
  0
VERTEX
  8
0
  5
394A
 10
630.129
 20
39.0795
 30
-8.68301e-15
  70
    32
  0
VERTEX
  8
0
  5
394B
 10
630.134
 20
39.0744
 30
-8.68177e-15
  70
    32
  0
VERTEX
  8
0
  5
394C
 10
630.138
 20
39.0693
 30
-8.68049e-15
  70
    32
  0
VERTEX
  8
0
  5
394D
 10
630.143
 20
39.0643
 30
-8.67918e-15
  70
    32
  0
VERTEX
  8
0
  5
394E
 10
630.147
 20
39.0593
 30
-8.67785e-15
  70
    32
  0
VERTEX
  8
0
  5
394F
 10
630.152
 20
39.0543
 30
-8.67649e-15
  70
    32
  0
VERTEX
  8
0
  5
3950
 10
630.156
 20
39.0493
 30
-8.67511e-15
  70
    32
  0
VERTEX
  8
0
  5
3951
 10
630.161
 20
39.0443
 30
-8.67370e-15
  70
    32
  0
VERTEX
  8
0
  5
3952
 10
630.165
 20
39.0394
 30
-8.67227e-15
  70
    32
  0
VERTEX
  8
0
  5
3953
 10
630.169
 20
39.0345
 30
-8.67082e-15
  70
    32
  0
VERTEX
  8
0
  5
3954
 10
630.174
 20
39.0297
 30
-8.66935e-15
  70
    32
  0
VERTEX
  8
0
  5
3955
 10
630.178
 20
39.0249
 30
-8.66786e-15
  70
    32
  0
VERTEX
  8
0
  5
3956
 10
630.182
 20
39.0201
 30
-8.66636e-15
  70
    32
  0
VERTEX
  8
0
  5
3957
 10
630.187
 20
39.0153
 30
-8.66484e-15
  70
    32
  0
VERTEX
  8
0
  5
3958
 10
630.191
 20
39.0105
 30
-8.66331e-15
  70
    32
  0
VERTEX
  8
0
  5
3959
 10
630.195
 20
39.0058
 30
-8.66176e-15
  70
    32
  0
VERTEX
  8
0
  5
395A
 10
630.199
 20
39.0011
 30
-8.66021e-15
  70
    32
  0
VERTEX
  8
0
  5
395B
 10
630.203
 20
38.9965
 30
-8.65865e-15
  70
    32
  0
VERTEX
  8
0
  5
395C
 10
630.207
 20
38.9919
 30
-8.65707e-15
  70
    32
  0
VERTEX
  8
0
  5
395D
 10
630.212
 20
38.9873
 30
-8.65550e-15
  70
    32
  0
VERTEX
  8
0
  5
395E
 10
630.216
 20
38.9827
 30
-8.65391e-15
  70
    32
  0
VERTEX
  8
0
  5
395F
 10
630.220
 20
38.9782
 30
-8.65232e-15
  70
    32
  0
VERTEX
  8
0
  5
3960
 10
630.224
 20
38.9736
 30
-8.65074e-15
  70
    32
  0
VERTEX
  8
0
  5
3961
 10
630.228
 20
38.9692
 30
-8.64915e-15
  70
    32
  0
VERTEX
  8
0
  5
3962
 10
630.232
 20
38.9647
 30
-8.64756e-15
  70
    32
  0
VERTEX
  8
0
  5
3963
 10
630.236
 20
38.9603
 30
-8.64597e-15
  70
    32
  0
VERTEX
  8
0
  5
3964
 10
630.240
 20
38.9559
 30
-8.64439e-15
  70
    32
  0
VERTEX
  8
0
  5
3965
 10
630.243
 20
38.9515
 30
-8.64281e-15
  70
    32
  0
VERTEX
  8
0
  5
3966
 10
630.247
 20
38.9472
 30
-8.64124e-15
  70
    32
  0
VERTEX
  8
0
  5
3967
 10
630.251
 20
38.9429
 30
-8.63967e-15
  70
    32
  0
VERTEX
  8
0
  5
3968
 10
630.255
 20
38.9386
 30
-8.63812e-15
  70
    32
  0
VERTEX
  8
0
  5
3969
 10
630.259
 20
38.9343
 30
-8.63658e-15
  70
    32
  0
VERTEX
  8
0
  5
396A
 10
630.262
 20
38.9301
 30
-8.63505e-15
  70
    32
  0
VERTEX
  8
0
  5
396B
 10
630.266
 20
38.9259
 30
-8.63353e-15
  70
    32
  0
VERTEX
  8
0
  5
396C
 10
630.270
 20
38.9218
 30
-8.63203e-15
  70
    32
  0
VERTEX
  8
0
  5
396D
 10
630.274
 20
38.9177
 30
-8.63054e-15
  70
    32
  0
VERTEX
  8
0
  5
396E
 10
630.277
 20
38.9136
 30
-8.62907e-15
  70
    32
  0
VERTEX
  8
0
  5
396F
 10
630.281
 20
38.9095
 30
-8.62762e-15
  70
    32
  0
VERTEX
  8
0
  5
3970
 10
630.284
 20
38.9054
 30
-8.62619e-15
  70
    32
  0
VERTEX
  8
0
  5
3971
 10
630.288
 20
38.9014
 30
-8.62479e-15
  70
    32
  0
VERTEX
  8
0
  5
3972
 10
630.292
 20
38.8975
 30
-8.62341e-15
  70
    32
  0
VERTEX
  8
0
  5
3973
 10
630.295
 20
38.8935
 30
-8.62205e-15
  70
    32
  0
VERTEX
  8
0
  5
3974
 10
630.299
 20
38.8896
 30
-8.62072e-15
  70
    32
  0
VERTEX
  8
0
  5
3975
 10
630.302
 20
38.8857
 30
-8.61941e-15
  70
    32
  0
VERTEX
  8
0
  5
3976
 10
630.305
 20
38.8818
 30
-8.61814e-15
  70
    32
  0
VERTEX
  8
0
  5
3977
 10
630.309
 20
38.8780
 30
-8.61690e-15
  70
    32
  0
VERTEX
  8
0
  5
3978
 10
630.312
 20
38.8742
 30
-8.61569e-15
  70
    32
  0
VERTEX
  8
0
  5
3979
 10
630.316
 20
38.8705
 30
-8.61451e-15
  70
    32
  0
VERTEX
  8
0
  5
397A
 10
630.319
 20
38.8667
 30
-8.61337e-15
  70
    32
  0
VERTEX
  8
0
  5
397B
 10
630.322
 20
38.8630
 30
-8.61226e-15
  70
    32
  0
VERTEX
  8
0
  5
397C
 10
630.326
 20
38.8593
 30
-8.61120e-15
  70
    32
  0
VERTEX
  8
0
  5
397D
 10
630.329
 20
38.8557
 30
-8.61017e-15
  70
    32
  0
VERTEX
  8
0
  5
397E
 10
630.332
 20
38.8521
 30
-8.60918e-15
  70
    32
  0
VERTEX
  8
0
  5
397F
 10
630.335
 20
38.8485
 30
-8.60823e-15
  70
    32
  0
VERTEX
  8
0
  5
3980
 10
630.338
 20
38.8450
 30
-8.60733e-15
  70
    32
  0
VERTEX
  8
0
  5
3981
 10
630.341
 20
38.8414
 30
-8.60648e-15
  70
    32
  0
VERTEX
  8
0
  5
3982
 10
630.345
 20
38.8380
 30
-8.60567e-15
  70
    32
  0
VERTEX
  8
0
  5
3983
 10
630.348
 20
38.8345
 30
-8.60490e-15
  70
    32
  0
VERTEX
  8
0
  5
3984
 10
630.351
 20
38.8311
 30
-8.60419e-15
  70
    32
  0
VERTEX
  8
0
  5
3985
 10
630.354
 20
38.8277
 30
-8.60353e-15
  70
    32
  0
VERTEX
  8
0
  5
3986
 10
630.357
 20
38.8243
 30
-8.60292e-15
  70
    32
  0
VERTEX
  8
0
  5
3987
 10
630.360
 20
38.8210
 30
-8.60236e-15
  70
    32
  0
VERTEX
  8
0
  5
3988
 10
630.363
 20
38.8177
 30
-8.60186e-15
  70
    32
  0
VERTEX
  8
0
  5
3989
 10
630.365
 20
38.8144
 30
-8.60142e-15
  70
    32
  0
VERTEX
  8
0
  5
398A
 10
630.368
 20
38.8112
 30
-8.60103e-15
  70
    32
  0
VERTEX
  8
0
  5
398B
 10
630.371
 20
38.8080
 30
-8.60070e-15
  70
    32
  0
VERTEX
  8
0
  5
398C
 10
630.374
 20
38.8048
 30
-8.60044e-15
  70
    32
  0
VERTEX
  8
0
  5
398D
 10
630.377
 20
38.8017
 30
-8.60023e-15
  70
    32
  0
VERTEX
  8
0
  5
398E
 10
630.380
 20
38.7986
 30
-8.60009e-15
  70
    32
  0
VERTEX
  8
0
  5
398F
 10
630.382
 20
38.7955
 30
-8.60001e-15
  70
    32
  0
VERTEX
  8
0
  5
3990
 10
630.385
 20
38.7925
 30
-8.60000e-15
  70
    32
  0
VERTEX
  8
0
  5
3991
 10
630.388
 20
38.7895
 30
-8.60000e-15
  70
    32
  0
VERTEX
  8
0
  5
3992
 10
630.390
 20
38.7865
 30
-8.60000e-15
  70
    32
  0
VERTEX
  8
0
  5
3993
 10
630.393
 20
38.7835
 30
-8.60000e-15
  70
    32
  0
VERTEX
  8
0
  5
3994
 10
630.396
 20
38.7806
 30
-8.60000e-15
  70
    32
  0
VERTEX
  8
0
  5
3995
 10
630.398
 20
38.7777
 30
-8.60000e-15
  70
    32
  0
VERTEX
  8
0
  5
3996
 10
630.401
 20
38.7749
 30
-8.60000e-15
  70
    32
  0
VERTEX
  8
0
  5
3997
 10
630.403
 20
38.7721
 30
-8.60000e-15
  70
    32
  0
VERTEX
  8
0
  5
3998
 10
630.406
 20
38.7693
 30
-8.60000e-15
  70
    32
  0
VERTEX
  8
0
  5
3999
 10
630.408
 20
38.7665
 30
-8.60000e-15
  70
    32
  0
VERTEX
  8
0
  5
399A
 10
630.410
 20
38.7638
 30
-8.60000e-15
  70
    32
  0
VERTEX
  8
0
  5
399B
 10
630.413
 20
38.7611
 30
-8.60000e-15
  70
    32
  0
VERTEX
  8
0
  5
399C
 10
630.415
 20
38.7585
 30
-8.60000e-15
  70
    32
  0
VERTEX
  8
0
  5
399D
 10
630.418
 20
38.7559
 30
-8.60000e-15
  70
    32
  0
VERTEX
  8
0
  5
399E
 10
630.420
 20
38.7533
 30
-8.60000e-15
  70
    32
  0
VERTEX
  8
0
  5
399F
 10
630.422
 20
38.7507
 30
-8.60000e-15
  70
    32
  0
VERTEX
  8
0
  5
39A0
 10
630.424
 20
38.7482
 30
-8.60000e-15
  70
    32
  0
VERTEX
  8
0
  5
39A1
 10
630.427
 20
38.7457
 30
-8.60000e-15
  70
    32
  0
VERTEX
  8
0
  5
39A2
 10
630.429
 20
38.7432
 30
-8.60000e-15
  70
    32
  0
VERTEX
  8
0
  5
39A3
 10
630.431
 20
38.7408
 30
-8.60000e-15
  70
    32
  0
VERTEX
  8
0
  5
39A4
 10
630.433
 20
38.7384
 30
-8.60000e-15
  70
    32
  0
VERTEX
  8
0
  5
39A5
 10
630.435
 20
38.7360
 30
-8.60000e-15
  70
    32
  0
VERTEX
  8
0
  5
39A6
 10
630.437
 20
38.7337
 30
-8.60000e-15
  70
    32
  0
VERTEX
  8
0
  5
39A7
 10
630.439
 20
38.7314
 30
-8.60000e-15
  70
    32
  0
VERTEX
  8
0
  5
39A8
 10
630.441
 20
38.7291
 30
-8.60000e-15
  70
    32
  0
VERTEX
  8
0
  5
39A9
 10
630.443
 20
38.7269
 30
-8.60000e-15
  70
    32
  0
VERTEX
  8
0
  5
39AA
 10
630.445
 20
38.7247
 30
-8.60000e-15
  70
    32
  0
VERTEX
  8
0
  5
39AB
 10
630.447
 20
38.7225
 30
-8.60000e-15
  70
    32
  0
VERTEX
  8
0
  5
39AC
 10
630.449
 20
38.7204
 30
-8.60000e-15
  70
    32
  0
VERTEX
  8
0
  5
39AD
 10
630.451
 20
38.7183
 30
-8.60000e-15
  70
    32
  0
VERTEX
  8
0
  5
39AE
 10
630.453
 20
38.7162
 30
-8.60000e-15
  70
    32
  0
VERTEX
  8
0
  5
39AF
 10
630.455
 20
38.7142
 30
-8.60000e-15
  70
    32
  0
VERTEX
  8
0
  5
39B0
 10
630.456
 20
38.7121
 30
-8.60000e-15
  70
    32
  0
VERTEX
  8
0
  5
39B1
 10
630.458
 20
38.7102
 30
-8.60000e-15
  70
    32
  0
VERTEX
  8
0
  5
39B2
 10
630.460
 20
38.7082
 30
-8.60000e-15
  70
    32
  0
VERTEX
  8
0
  5
39B3
 10
630.462
 20
38.7063
 30
-8.60000e-15
  70
    32
  0
VERTEX
  8
0
  5
39B4
 10
630.463
 20
38.7044
 30
-8.60000e-15
  70
    32
  0
VERTEX
  8
0
  5
39B5
 10
630.465
 20
38.7026
 30
-8.60000e-15
  70
    32
  0
VERTEX
  8
0
  5
39B6
 10
630.467
 20
38.7008
 30
-8.60000e-15
  70
    32
  0
VERTEX
  8
0
  5
39B7
 10
630.468
 20
38.6990
 30
-8.60000e-15
  70
    32
  0
VERTEX
  8
0
  5
39B8
 10
630.470
 20
38.6972
 30
-8.60000e-15
  70
    32
  0
VERTEX
  8
0
  5
39B9
 10
630.471
 20
38.6955
 30
-8.60000e-15
  70
    32
  0
VERTEX
  8
0
  5
39BA
 10
630.473
 20
38.6938
 30
-8.60000e-15
  70
    32
  0
VERTEX
  8
0
  5
39BB
 10
630.474
 20
38.6922
 30
-8.60000e-15
  70
    32
  0
VERTEX
  8
0
  5
39BC
 10
630.476
 20
38.6905
 30
-8.60000e-15
  70
    32
  0
VERTEX
  8
0
  5
39BD
 10
630.477
 20
38.6889
 30
-8.60000e-15
  70
    32
  0
VERTEX
  8
0
  5
39BE
 10
630.478
 20
38.6874
 30
-8.60000e-15
  70
    32
  0
VERTEX
  8
0
  5
39BF
 10
630.480
 20
38.6858
 30
-8.60000e-15
  70
    32
  0
VERTEX
  8
0
  5
39C0
 10
630.481
 20
38.6844
 30
-8.60000e-15
  70
    32
  0
VERTEX
  8
0
  5
39C1
 10
630.482
 20
38.6829
 30
-8.60000e-15
  70
    32
  0
VERTEX
  8
0
  5
39C2
 10
630.484
 20
38.6815
 30
-8.60000e-15
  70
    32
  0
VERTEX
  8
0
  5
39C3
 10
630.485
 20
38.6801
 30
-8.60000e-15
  70
    32
  0
VERTEX
  8
0
  5
39C4
 10
630.486
 20
38.6787
 30
-8.60000e-15
  70
    32
  0
VERTEX
  8
0
  5
39C5
 10
630.487
 20
38.6774
 30
-8.60000e-15
  70
    32
  0
VERTEX
  8
0
  5
39C6
 10
630.488
 20
38.6761
 30
-8.60000e-15
  70
    32
  0
VERTEX
  8
0
  5
39C7
 10
630.490
 20
38.6748
 30
-8.60000e-15
  70
    32
  0
VERTEX
  8
0
  5
39C8
 10
630.491
 20
38.6735
 30
-8.60000e-15
  70
    32
  0
VERTEX
  8
0
  5
39C9
 10
630.492
 20
38.6723
 30
-8.60000e-15
  70
    32
  0
VERTEX
  8
0
  5
39CA
 10
630.493
 20
38.6712
 30
-8.60000e-15
  70
    32
  0
VERTEX
  8
0
  5
39CB
 10
630.494
 20
38.6700
 30
-8.60000e-15
  70
    32
  0
VERTEX
  8
0
  5
39CC
 10
630.495
 20
38.6689
 30
-8.60000e-15
  70
    32
  0
VERTEX
  8
0
  5
39CD
 10
630.496
 20
38.6678
 30
-8.60000e-15
  70
    32
  0
VERTEX
  8
0
  5
39CE
 10
630.497
 20
38.6668
 30
-8.60000e-15
  70
    32
  0
VERTEX
  8
0
  5
39CF
 10
630.498
 20
38.6658
 30
-8.60000e-15
  70
    32
  0
VERTEX
  8
0
  5
39D0
 10
630.498
 20
38.6648
 30
-8.60000e-15
  70
    32
  0
VERTEX
  8
0
  5
39D1
 10
630.499
 20
38.6639
 30
-8.60000e-15
  70
    32
  0
VERTEX
  8
0
  5
39D2
 10
630.500
 20
38.6629
 30
-8.60000e-15
  70
    32
  0
VERTEX
  8
0
  5
39D3
 10
630.501
 20
38.6621
 30
-8.60000e-15
  70
    32
  0
VERTEX
  8
0
  5
39D4
 10
630.502
 20
38.6612
 30
-8.60000e-15
  70
    32
  0
VERTEX
  8
0
  5
39D5
 10
630.502
 20
38.6604
 30
-8.60000e-15
  70
    32
  0
VERTEX
  8
0
  5
39D6
 10
630.503
 20
38.6596
 30
-8.60000e-15
  70
    32
  0
VERTEX
  8
0
  5
39D7
 10
630.504
 20
38.6588
 30
-8.60000e-15
  70
    32
  0
VERTEX
  8
0
  5
39D8
 10
630.504
 20
38.6581
 30
-8.60000e-15
  70
    32
  0
VERTEX
  8
0
  5
39D9
 10
630.505
 20
38.6574
 30
-8.60000e-15
  70
    32
  0
VERTEX
  8
0
  5
39DA
 10
630.506
 20
38.6568
 30
-8.60000e-15
  70
    32
  0
VERTEX
  8
0
  5
39DB
 10
630.506
 20
38.6561
 30
-8.60000e-15
  70
    32
  0
VERTEX
  8
0
  5
39DC
 10
630.507
 20
38.6556
 30
-8.60000e-15
  70
    32
  0
VERTEX
  8
0
  5
39DD
 10
630.507
 20
38.6550
 30
-8.60000e-15
  70
    32
  0
VERTEX
  8
0
  5
39DE
 10
630.508
 20
38.6545
 30
-8.60000e-15
  70
    32
  0
VERTEX
  8
0
  5
39DF
 10
630.508
 20
38.6540
 30
-8.60000e-15
  70
    32
  0
VERTEX
  8
0
  5
39E0
 10
630.508
 20
38.6535
 30
-8.60000e-15
  70
    32
  0
VERTEX
  8
0
  5
39E1
 10
630.509
 20
38.6531
 30
-8.60000e-15
  70
    32
  0
VERTEX
  8
0
  5
39E2
 10
630.509
 20
38.6527
 30
-8.60000e-15
  70
    32
  0
VERTEX
  8
0
  5
39E3
 10
630.510
 20
38.6523
 30
-8.60000e-15
  70
    32
  0
VERTEX
  8
0
  5
39E4
 10
630.510
 20
38.6520
 30
-8.60000e-15
  70
    32
  0
VERTEX
  8
0
  5
39E5
 10
630.510
 20
38.6516
 30
-8.60000e-15
  70
    32
  0
VERTEX
  8
0
  5
39E6
 10
630.510
 20
38.6514
 30
-8.60000e-15
  70
    32
  0
VERTEX
  8
0
  5
39E7
 10
630.511
 20
38.6511
 30
-8.60000e-15
  70
    32
  0
VERTEX
  8
0
  5
39E8
 10
630.511
 20
38.6509
 30
-8.60000e-15
  70
    32
  0
VERTEX
  8
0
  5
39E9
 10
630.511
 20
38.6507
 30
-8.60000e-15
  70
    32
  0
VERTEX
  8
0
  5
39EA
 10
630.511
 20
38.6506
 30
-8.60000e-15
  70
    32
  0
VERTEX
  8
0
  5
39EB
 10
630.511
 20
38.6505
 30
-8.60000e-15
  70
    32
  0
VERTEX
  8
0
  5
39EC
 10
630.511
 20
38.6504
 30
-8.60000e-15
  70
    32
  0
VERTEX
  8
0
  5
39ED
 10
630.511
 20
38.6504
 30
-8.60000e-15
  70
    32
  0
VERTEX
  8
0
  5
39EE
 10
630.511
 20
38.6503
 30
-8.60000e-15
  70
    32
  0
SEQEND
  8
0
  5
39EF
  0
LINE
  5
31D6
  8
0
 10
632.5112652587622506
 20
36.6503471930875904
 30
-0.0000000000000081
 11
770.5112652587622506
 21
36.6503471930876472
 31
-0.0000000000000081
210
0.0
220
1.0
230
-0.0000000000000002
  0
LINE
  5
31D7
  8
0
 10
601.5112652587622506
 20
56.6503471930875406
 30
-0.0000000000000126
 11
801.5112652587622506
 21
56.6503471930875975
 31
-0.0000000000000126
210
0.0
220
1.0
230
-0.0000000000000002
  0
LINE
  5
31D8
  8
0
 10
601.5112652587622506
 20
39.6503471930875406
 30
-0.0000000000000088
 11
801.5112652587622506
 21
39.6503471930875904
 31
-0.0000000000000088
210
0.0
220
1.0
230
-0.0000000000000002
  0
ARC
  5
31D9
  8
0
 10
-654.0612652587609546
 20
77.2314448619921876
 30
0.0
 40
3.000000000001136
210
0.0
220
-0.0000000000000002
230
-1.0
 50
180.0000000000061959
 51
201.9247852205388085
  0
ARC
  5
31DA
  8
0
 10
-748.9612652587634329
 20
77.2314448619922018
 30
0.0
 40
3.0000000000011391
210
0.0
220
-0.0000000000000002
230
-1.0
 50
338.0752147794609073
 51
359.9999999999936904
  0
LINE
  5
31DB
  8
0
 10
745.9612652587621824
 20
86.6503471930875548
 30
-0.0000000000000192
 11
745.9612652587621824
 21
77.231444861991875
 31
-0.0000000000000171
210
0.0
220
1.0
230
-0.0000000000000002
  0
LINE
  5
31DC
  8
0
 10
657.0612652587620914
 20
86.6503471930875548
 30
-0.0000000000000192
 11
657.0612652587620914
 21
77.2314448619918608
 31
-0.0000000000000171
210
0.0
220
1.0
230
-0.0000000000000002
  0
LINE
  5
31DD
  8
0
 10
746.1782408027974043
 20
76.1112775184660393
 30
-0.0000000000000169
 11
751.9935782074801409
 21
61.6632342770183968
 31
-0.0000000000000137
210
0.0
220
1.0
230
-0.0000000000000002
  0
LINE
  5
31DE
  8
0
 10
656.8442897147270969
 20
76.1112775184660393
 30
-0.0000000000000169
 11
651.0289523100443603
 21
61.6632342770183826
 31
-0.0000000000000137
210
0.0
220
1.0
230
-0.0000000000000002
  0
LINE
  5
31DF
  8
0
 10
632.5112652587622506
 20
36.6503471930875904
 30
-0.0000000000000081
 11
630.5112652587622506
 21
38.6503471930875904
 31
-0.0000000000000086
210
0.0
220
1.0
230
-0.0000000000000002
  0
LINE
  5
31E0
  8
0
 10
770.5112652587622506
 20
36.6503471930876401
 30
-0.0000000000000081
 11
772.5112652587622506
 21
38.6503471930876614
 31
-0.0000000000000086
210
0.0
220
1.0
230
-0.0000000000000002
  0
ARC
  5
31E1
  8
0
 10
-643.6075537608049899
 20
64.6503471930875406
 30
0.0
 40
7.9999999999999689
210
0.0
220
-0.0000000000000002
230
-1.0
 50
201.9247852205432991
 51
270.0
  0
ARC
  5
31E2
  8
0
 10
-759.4149767567195113
 20
64.6503471930875975
 30
0.0
 40
7.9999999999999849
210
0.0
220
-0.0000000000000002
230
-1.0
 50
270.0
 51
338.0752147794564166
  0
LINE
  5
31E3
  8
0
 10
801.5112652587622506
 20
56.650347193087633
 30
-0.0000000000000126
 11
801.5112652587622506
 21
39.6503471930876188
 31
-0.0000000000000088
210
0.0
220
1.0
230
-0.0000000000000002
  0
LINE
  5
31E4
  8
0
 10
601.5112652587622506
 20
56.6503471930875335
 30
-0.0000000000000126
 11
601.5112652587622506
 21
39.6503471930875335
 31
-0.0000000000000088
210
0.0
220
1.0
230
-0.0000000000000002
  0
LINE
  5
31E5
  8
0
 10
657.0112652587622506
 20
86.6503471930873985
 30
-0.0000000000000192
 11
746.0112652587622506
 21
86.6503471930873985
 31
-0.0000000000000192
210
0.0
220
1.0
230
-0.0000000000000002
  0
LINE
  5
31E6
  8
0
 10
749.2766699291020132
 20
171.650347193087498
 30
-0.0000000000000381
 11
653.745860588422488
 21
171.650347193087498
 31
-0.0000000000000381
210
0.0
220
1.0
230
-0.0000000000000002
  0
LINE
  5
31E7
  8
0
 10
746.0112652587622506
 20
106.3437475285191027
 30
-0.0000000000000236
 11
746.0112652587622506
 21
86.6503471930873275
 31
-0.0000000000000192
210
0.0
220
1.0
230
-0.0000000000000002
  0
LINE
  5
31E8
  8
0
 10
657.0112652587622506
 20
106.3437475285191027
 30
-0.0000000000000236
 11
657.0112652587622506
 21
86.6503471930873275
 31
-0.0000000000000192
210
0.0
220
1.0
230
-0.0000000000000002
  0
ARC
  5
31E9
  8
0
 10
-754.0112652587602042
 20
106.3437475285197991
 30
0.0
 40
7.9999999999979527
210
0.0
220
-0.0000000000000002
230
-1.0
 50
359.9999999999943157
 51
32.3280641221649887
  0
ARC
  5
31EA
  8
0
 10
-649.0112652587644106
 20
106.3437475285198985
 30
0.0
 40
7.9999999999978231
210
0.0
220
-0.0000000000000002
230
-1.0
 50
147.6719358778348123
 51
180.0000000000057128
  0
ARC
  5
31EB
  8
0
 10
-737.1112652587645471
 20
117.0390736105038059
 30
0.0
 40
11.9999999999976108
210
0.0
220
-0.0000000000000002
230
-1.0
 50
179.9999999999965894
 51
212.3280641221656992
  0
ARC
  5
31EC
  8
0
 10
-665.9112652587587036
 20
117.0390736105032943
 30
0.0
 40
11.9999999999963691
210
0.0
220
-0.0000000000000002
230
-1.0
 50
327.6719358778335049
 51
0.0000000000059031
  0
LINE
  5
31ED
  8
0
 10
653.9112652587623415
 20
117.0390736105046017
 30
-0.000000000000026
 11
653.9112652587623415
 21
136.3102141298923868
 31
-0.0000000000000303
210
0.0
220
1.0
230
-0.0000000000000002
  0
LINE
  5
31EE
  8
0
 10
749.111265258762046
 20
117.0390736105045022
 30
-0.000000000000026
 11
749.111265258762046
 21
136.3102141298923868
 31
-0.0000000000000303
210
0.0
220
1.0
230
-0.0000000000000002
  0
ARC
  5
31EF
  8
0
 10
-761.1112652587628418
 20
136.3102141298921879
 30
0.0
 40
12.0000000000006803
210
0.0
220
-0.0000000000000002
230
-1.0
 50
0.0000000000009542
 51
24.93639727525197
  0
ARC
  5
31F0
  8
0
 10
-641.9112652587615457
 20
136.3102141298921879
 30
0.0
 40
12.0000000000007905
210
0.0
220
-0.0000000000000002
230
-1.0
 50
155.0636027247481081
 51
179.9999999999992042
  0
ARC
  5
31F1
  8
0
 10
-727.0666076554573465
 20
152.1395126439381045
 30
0.0
 40
25.5447120480770806
210
0.0
220
-0.0000000000000002
230
-1.0
 50
180.1182947020888889
 51
204.9363972752508118
  0
ARC
  5
31F2
  8
0
 10
-675.9559228620668137
 20
152.1395126439381045
 30
0.0
 40
25.5447120480768497
210
0.0
220
-0.0000000000000002
230
-1.0
 50
335.0636027247491029
 51
359.8817052979110827
  0
LINE
  5
31F3
  8
0
 10
650.4112652587624552
 20
152.0867722504831079
 30
-0.0000000000000338
 11
650.4112652587624552
 21
159.04559573051651
 31
-0.0000000000000353
210
0.0
220
1.0
230
-0.0000000000000002
  0
LINE
  5
31F4
  8
0
 10
752.611265258762046
 20
152.0867722504831079
 30
-0.0000000000000338
 11
752.611265258762046
 21
159.04559573051651
 31
-0.0000000000000353
210
0.0
220
1.0
230
-0.0000000000000002
  0
ARC
  5
31F5
  8
0
 10
-728.0112652587621369
 20
159.04559573051651
 30
0.0
 40
24.5999999999999091
210
0.0
220
-0.0000000000000002
230
-1.0
 50
155.0000000000030127
 51
180.0
  0
ARC
  5
31F6
  8
0
 10
-675.011265258762819
 20
159.04559573051651
 30
0.0
 40
24.6000000000003602
210
0.0
220
-0.0000000000000002
230
-1.0
 50
0.0
 51
24.9999999999967102
  0
LINE
  5
31F7
  8
0
 10
749.2766699291020132
 20
171.650347193087498
 30
-0.0000000000000381
 11
750.3064368198641887
 21
169.4420049693364945
 31
-0.0000000000000376
210
0.0
220
1.0
230
-0.0000000000000002
  0
LINE
  5
31F8
  8
0
 10
653.745860588422488
 20
171.650347193087498
 30
-0.0000000000000381
 11
652.7160936976603125
 21
169.4420049693366082
 31
-0.0000000000000376
210
0.0
220
1.0
230
-0.0000000000000002
  0
LINE
  5
31F9
  8
0
  6
VERDECKT
 62
     1
 10
635.9427227638384466
 20
39.6503471930876188
 30
-0.0000000000000088
 11
635.9427227638384466
 21
56.650347193087633
 31
-0.0000000000000126
210
0.0
220
1.0
230
-0.0000000000000002
  0
LINE
  5
31FA
  8
0
  6
VERDECKT
 62
     1
 10
653.9427227638384466
 20
39.6503471930876188
 30
-0.0000000000000088
 11
653.9427227638384466
 21
56.650347193087633
 31
-0.0000000000000126
210
0.0
220
1.0
230
-0.0000000000000002
  0
LINE
  5
31FB
  8
0
  6
VERDECKT
 62
     1
 10
767.0798077536860546
 20
56.650347193087633
 30
-0.0000000000000126
 11
767.0798077536860546
 21
39.6503471930876188
 31
-0.0000000000000088
210
0.0
220
1.0
230
-0.0000000000000002
  0
LINE
  5
31FC
  8
0
  6
VERDECKT
 62
     1
 10
749.0798077536860546
 20
56.650347193087633
 30
-0.0000000000000126
 11
749.0798077536860546
 21
39.6503471930876188
 31
-0.0000000000000088
210
0.0
220
1.0
230
-0.0000000000000002
  0
LINE
  5
31FD
  8
0
  6
VERDECKT
 62
     1
 10
772.5112652587622506
 20
38.6503471930876827
 30
-0.0000000000000086
 11
772.5112652587622506
 21
56.650347193087633
 31
-0.0000000000000126
210
0.0
220
1.0
230
-0.0000000000000002
  0
LINE
  5
31FE
  8
0
  6
VERDECKT
 62
     1
 10
790.5112652587622506
 20
39.6503471930876188
 30
-0.0000000000000088
 11
790.5112652587622506
 21
56.650347193087633
 31
-0.0000000000000126
210
0.0
220
1.0
230
-0.0000000000000002
  0
LINE
  5
31FF
  8
0
  6
VERDECKT
 62
     1
 10
692.5112652587622506
 20
39.6503471930876188
 30
-0.0000000000000088
 11
692.5112652587622506
 21
56.650347193087633
 31
-0.0000000000000126
210
0.0
220
1.0
230
-0.0000000000000002
  0
LINE
  5
3200
  8
0
  6
VERDECKT
 62
     1
 10
710.5112652587622506
 20
39.6503471930876188
 30
-0.0000000000000088
 11
710.5112652587622506
 21
56.650347193087633
 31
-0.0000000000000126
210
0.0
220
1.0
230
-0.0000000000000002
  0
LINE
  5
3201
  8
0
  6
VERDECKT
 62
     1
 10
630.5112652587622506
 20
56.650347193087633
 30
-0.0000000000000126
 11
630.5112652587622506
 21
38.6503471930875904
 31
-0.0000000000000086
210
0.0
220
1.0
230
-0.0000000000000002
  0
LINE
  5
3202
  8
0
  6
VERDECKT
 62
     1
 10
612.5112652587622506
 20
56.650347193087633
 30
-0.0000000000000126
 11
612.5112652587622506
 21
39.6503471930876188
 31
-0.0000000000000088
210
0.0
220
1.0
230
-0.0000000000000002
  0
LINE
  5
3203
  8
0
  6
VERDECKT
 62
     1
 10
742.7612652587622506
 20
86.6503471930875548
 30
-0.0000000000000192
 11
742.7612652587622506
 21
36.6503471930876827
 31
-0.0000000000000081
210
0.0
220
1.0
230
-0.0000000000000002
  0
LINE
  5
3204
  8
0
  6
VERDECKT
 62
     1
 10
660.2612652587622506
 20
86.6503471930875548
 30
-0.0000000000000192
 11
660.2612652587622506
 21
36.6503471930876614
 31
-0.0000000000000081
210
0.0
220
1.0
230
-0.0000000000000002
  0
LINE
  5
3205
  8
0
  6
VERDECKT
 62
     1
 10
747.8265774698434143
 20
170.9741579743023863
 30
-0.000000000000038
 11
655.1959530476810869
 21
170.9741579743023863
 31
-0.000000000000038
210
0.0
220
1.0
230
-0.0000000000000002
  0
LINE
  5
3206
  8
0
  6
VERDECKT
 62
     1
 10
744.4112652587620005
 20
106.3437475285191027
 30
-0.0000000000000236
 11
744.4112652587620005
 21
86.6503471930873275
 31
-0.0000000000000192
210
0.0
220
1.0
230
-0.0000000000000002
  0
LINE
  5
3207
  8
0
  6
VERDECKT
 62
     1
 10
658.6112652587622733
 20
106.3437475285191027
 30
-0.0000000000000236
 11
658.6112652587622733
 21
86.6503471930873275
 31
-0.0000000000000192
210
0.0
220
1.0
230
-0.0000000000000002
  0
LINE
  5
3208
  8
0
  6
VERDECKT
 62
     1
 10
747.8265774698434143
 20
170.9741579743023863
 30
-0.000000000000038
 11
748.856344360604794
 21
168.7658157505526049
 31
-0.0000000000000375
210
0.0
220
1.0
230
-0.0000000000000002
  0
LINE
  5
3209
  8
0
  6
VERDECKT
 62
     1
 10
655.1959530476810869
 20
170.9741579743023863
 30
-0.000000000000038
 11
654.1661861569194798
 21
168.7658157505526049
 31
-0.0000000000000375
210
0.0
220
1.0
230
-0.0000000000000002
  0
ARC
  5
320A
  8
0
  6
VERDECKT
 62
     1
 10
-728.0112652587630464
 20
159.045595730516709
 30
0.0
 40
22.9999999999988702
210
0.0
220
-0.0000000000000002
230
-1.0
 50
154.9999999999988916
 51
180.0
  0
ARC
  5
320B
  8
0
  6
VERDECKT
 62
     1
 10
-675.0112652587611137
 20
159.045595730516709
 30
0.0
 40
22.9999999999986287
210
0.0
220
-0.0000000000000002
230
-1.0
 50
0.0
 51
25.0000000000011511
  0
LINE
  5
320C
  8
0
  6
VERDECKT
 62
     1
 10
652.0112652587623643
 20
151.9502121541069073
 30
-0.0000000000000337
 11
652.0112652587623643
 21
159.045595730516709
 31
-0.0000000000000353
210
0.0
220
1.0
230
-0.0000000000000002
  0
LINE
  5
320D
  8
0
  6
VERDECKT
 62
     1
 10
751.0112652587620232
 20
151.9502121541067936
 30
-0.0000000000000337
 11
751.0112652587620232
 21
159.045595730516709
 31
-0.0000000000000353
210
0.0
220
1.0
230
-0.0000000000000002
  0
ARC
  5
320E
  8
0
  6
VERDECKT
 62
     1
 10
-727.9145807551683447
 20
151.9502121541065094
 30
0.0
 40
23.0966845035935684
210
0.0
220
-0.0000000000000002
230
-1.0
 50
179.9999999999992042
 51
205.3784340094491938
  0
ARC
  5
320F
  8
0
  6
VERDECKT
 62
     1
 10
-675.1079497623563839
 20
151.9502121541065947
 30
0.0
 40
23.0966845035938988
210
0.0
220
-0.0000000000000002
230
-1.0
 50
334.6215659905511188
 51
0.0000000000006984
  0
ARC
  5
3210
  8
0
  6
VERDECKT
 62
     1
 10
-760.6859115235840818
 20
136.404353733770904
 30
0.0
 40
13.1749825984024795
210
0.0
220
-0.0000000000000002
230
-1.0
 50
359.5905992402288121
 51
25.3784340094472611
  0
ARC
  5
3211
  8
0
  6
VERDECKT
 62
     1
 10
-642.3366189939404194
 20
136.4043537337709893
 30
0.0
 40
13.1749825984024795
210
0.0
220
-0.0000000000000002
230
-1.0
 50
154.6215659905527104
 51
180.4094007597711879
  0
LINE
  5
3212
  8
0
  6
VERDECKT
 62
     1
 10
655.5112652587623643
 20
117.0390736105046017
 30
-0.000000000000026
 11
655.5112652587623643
 21
136.3102141298925005
 31
-0.0000000000000303
210
0.0
220
1.0
230
-0.0000000000000002
  0
LINE
  5
3213
  8
0
  6
VERDECKT
 62
     1
 10
747.5112652587621369
 20
117.0390736105045022
 30
-0.000000000000026
 11
747.5112652587621369
 21
136.3102141298923868
 31
-0.0000000000000303
210
0.0
220
1.0
230
-0.0000000000000002
  0
ARC
  5
3214
  8
0
  6
VERDECKT
 62
     1
 10
-737.1112652587615912
 20
117.0390736105049001
 30
0.0
 40
10.4000000000005404
210
0.0
220
-0.0000000000000002
230
-1.0
 50
180.0000000000019895
 51
212.3280641221622886
  0
ARC
  5
3215
  8
0
  6
VERDECKT
 62
     1
 10
-665.9112652587631374
 20
117.0390736105049996
 30
0.0
 40
10.4000000000007695
210
0.0
220
-0.0000000000000002
230
-1.0
 50
327.671935877838223
 51
359.9999999999978968
  0
ARC
  5
3216
  8
0
  6
VERDECKT
 62
     1
 10
-754.0112652587613411
 20
106.3437475285194012
 30
0.0
 40
9.5999999999991132
210
0.0
220
-0.0000000000000002
230
-1.0
 50
359.9999999999973852
 51
32.3280641221630631
  0
ARC
  5
3217
  8
0
  6
VERDECKT
 62
     1
 10
-649.0112652587631601
 20
106.3437475285194012
 30
0.0
 40
9.5999999999989907
210
0.0
220
-0.0000000000000002
230
-1.0
 50
147.6719358778366882
 51
180.0000000000023022
  0
LINE
  5
3218
  8
0
  6
VERDECKT
 62
     1
 10
655.1959530476810869
 20
170.9741579743023863
 30
-0.000000000000038
 11
653.745860588422488
 21
171.650347193087498
 31
-0.0000000000000381
210
0.0
220
1.0
230
-0.0000000000000002
  0
LINE
  5
3219
  8
0
  6
VERDECKT
 62
     1
 10
747.8265774698434143
 20
170.9741579743023863
 30
-0.000000000000038
 11
749.2766699291020132
 21
171.650347193087498
 31
-0.0000000000000381
210
0.0
220
1.0
230
-0.0000000000000002
  0
ENDBLK
  5
321B
  8
0
  0
ENDSEC
  0
SECTION
  2
ENTITIES
  0
TEXT
  5
8F
  8
VOLL
 10
78.076754716981128
 20
31.025947764705851
 30
0.0
 40
1.8
  1

  7
GREEKS
  0
INSERT
  5
FA4
  8
ADSK_ASSOC_ENTITY_BACKUPS
  2
*S0
 10
0.0
 20
0.0
 30
0.0
  0
INSERT
  5
31CE
  8
STEMPEL
  2
A$C17068CC4
 10
275.7577370687528742
 20
-82.4572842688592686
 30
-38.9558151267318209
  0
INSERT
  5
321C
  8
STEMPEL
  2
A$C90E41D85
 10
275.7991684924236893
 20
165.4074136128812995
 30
-38.9558151267320127
  0
VIEWPORT
  5
702
 67
     1
  8
0
 10
99.9595808982848837
 20
142.0247198271484024
 30
0.0
 40
533.8638859178814755
 41
299.049422726727812
 68
     1
 69
     1
1001
ACAD
1000
MVIEW
1002
{
1070
    16
1010
0.0
1020
0.0
1030
0.0
1010
0.0
1020
0.0
1030
1.0
1040
0.0
1040
299.049422726727812
1040
99.9595808982848837
1040
142.0247198271484024
1040
50.0
1040
0.0
1040
0.0
1070
     0
1070
  1500
1070
     1
1070
     1
1070
     0
1070
     0
1070
     0
1070
     0
1040
0.0
1040
0.0
1040
0.0
1040
10.0
1040
10.0
1040
10.0
1040
10.0
1070
     0
1002
{
1002
}
1002
}
1001
GENIUS_GENOBJ-N-SDF_13
1002
{
1000
OWNER
1000
GEN
1002
}
1001
GENIUS_GENODEF_13
1002
{
1000
HIER
1070
     0
1002
}
1002
{
1000
MANEDIT
1070
     0
1002
}
1002
{
1000
NOSEL
1070
     0
1002
}
1002
{
1000
BEHIND
1070
     0
1002
}
1002
{
1000
OTHER
1070
     0
1002
}
1002
{
1000
REACTOR
1002
}
1001
GENIUS_GENSCREG_15
1000
PF
1040
1.0
1000
DF
1040
1.0
1000
MIN
1011
-261.59273575814899
1021
0.0
1031
0.0
1021
-33.3479474759205914
1031
0.0
1000
MAX
1011
476.7347710913876995
1021
0.0
1031
0.0
1021
291.4989451064805053
1031
0.0
1000
FLAGS
1070
     4
  0
ENDSEC
  0
EOF
