  0
SECTION
  2
HEADER
  9
$ACADVER
  1
AC1009
  9
$INSBASE
 10
0.0
 20
0.0
 30
0.0
  9
$EXTMIN
 10
240.0280115234579057
 20
-254.1251672134002035
 30
-20.3546847764054206
  9
$EXTMAX
 10
405.0280115234580194
 20
41.5431750096580004
 30
-20.3546847764053815
  9
$LIMMIN
 10
0.0
 20
0.0
  9
$LIMMAX
 10
210.0
 20
297.0
  9
$ORTHOMODE
 70
     1
  9
$REGENMODE
 70
     1
  9
$FILLMODE
 70
     1
  9
$QTEXTMODE
 70
     0
  9
$MIRRTEXT
 70
     1
  9
$DRAGMODE
 70
     2
  9
$LTSCALE
 40
10.0
  9
$OSMODE
 70
  2495
  9
$ATTMODE
 70
     1
  9
$TEXTSIZE
 40
3.5
  9
$TRACEWID
 40
0.5
  9
$TEXTSTYLE
  7
STANDARD
  9
$CLAYER
  8
STEMPEL
  9
$CELTYPE
  6
BYLAYER
  9
$CECOLOR
 62
   256
  9
$DIMSCALE
 40
1.0
  9
$DIMASZ
 40
3.5
  9
$DIMEXO
 40
1.0
  9
$DIMDLI
 40
7.0
  9
$DIMRND
 40
0.0
  9
$DIMDLE
 40
0.0
  9
$DIMEXE
 40
1.0
  9
$DIMTP
 40
0.0
  9
$DIMTM
 40
0.0
  9
$DIMTXT
 40
3.5
  9
$DIMCEN
 40
1.5
  9
$DIMTSZ
 40
0.0
  9
$DIMTOL
 70
     0
  9
$DIMLIM
 70
     0
  9
$DIMTIH
 70
     0
  9
$DIMTOH
 70
     0
  9
$DIMSE1
 70
     0
  9
$DIMSE2
 70
     0
  9
$DIMTAD
 70
     1
  9
$DIMZIN
 70
     8
  9
$DIMBLK
  1

  9
$DIMASO
 70
     1
  9
$DIMSHO
 70
     0
  9
$DIMPOST
  1

  9
$DIMAPOST
  1

  9
$DIMALT
 70
     0
  9
$DIMALTD
 70
     2
  9
$DIMALTF
 40
25.3999999999999986
  9
$DIMLFAC
 40
2.0
  9
$DIMTOFL
 70
     1
  9
$DIMTVP
 40
0.0
  9
$DIMTIX
 70
     0
  9
$DIMSOXD
 70
     0
  9
$DIMSAH
 70
     0
  9
$DIMBLK1
  1

  9
$DIMBLK2
  1

  9
$DIMSTYLE
  2
STANDARD
  9
$DIMCLRD
 70
     0
  9
$DIMCLRE
 70
     0
  9
$DIMCLRT
 70
     1
  9
$DIMTFAC
 40
0.5
  9
$DIMGAP
 40
1.5
  9
$LUNITS
 70
     2
  9
$LUPREC
 70
     2
  9
$SKETCHINC
 40
1.0
  9
$FILLETRAD
 40
5.5
  9
$AUNITS
 70
     0
  9
$AUPREC
 70
     0
  9
$MENU
  1
ACAD
  9
$ELEVATION
 40
0.0
  9
$PELEVATION
 40
0.0
  9
$THICKNESS
 40
0.0
  9
$LIMCHECK
 70
     0
  9
$BLIPMODE
 70
     0
  9
$CHAMFERA
 40
2.0
  9
$CHAMFERB
 40
2.0
  9
$SKPOLY
 70
     0
  9
$TDCREATE
 40
2455397.8646990740671754
  9
$TDUPDATE
 40
2459627.4416435179300606
  9
$TDINDWG
 40
0.2582216667
  9
$TDUSRTIMER
 40
0.2582216667
  9
$USRTIMER
 70
     1
  9
$ANGBASE
 50
0.0
  9
$ANGDIR
 70
     0
  9
$PDMODE
 70
     0
  9
$PDSIZE
 40
0.0
  9
$PLINEWID
 40
0.0
  9
$COORDS
 70
     1
  9
$SPLFRAME
 70
     0
  9
$SPLINETYPE
 70
     6
  9
$SPLINESEGS
 70
     8
  9
$ATTDIA
 70
     1
  9
$ATTREQ
 70
     1
  9
$HANDLING
 70
     1
  9
$HANDSEED
  5
218C
  9
$SURFTAB1
 70
     6
  9
$SURFTAB2
 70
     6
  9
$SURFTYPE
 70
     6
  9
$SURFU
 70
     6
  9
$SURFV
 70
     6
  9
$UCSNAME
  2

  9
$UCSORG
 10
0.0
 20
0.0
 30
0.0
  9
$UCSXDIR
 10
1.0
 20
0.0
 30
0.0
  9
$UCSYDIR
 10
0.0
 20
1.0
 30
0.0
  9
$PUCSNAME
  2

  9
$PUCSORG
 10
0.0
 20
0.0
 30
0.0
  9
$PUCSXDIR
 10
1.0
 20
0.0
 30
0.0
  9
$PUCSYDIR
 10
0.0
 20
1.0
 30
0.0
  9
$USERI1
 70
     0
  9
$USERI2
 70
     0
  9
$USERI3
 70
     0
  9
$USERI4
 70
     0
  9
$USERI5
 70
     0
  9
$USERR1
 40
0.0
  9
$USERR2
 40
0.0
  9
$USERR3
 40
0.0
  9
$USERR4
 40
0.0
  9
$USERR5
 40
0.0
  9
$WORLDVIEW
 70
     1
  9
$SHADEDGE
 70
     3
  9
$SHADEDIF
 70
    70
  9
$TILEMODE
 70
     1
  9
$MAXACTVP
 70
    16
  9
$PLIMCHECK
 70
     0
  9
$PEXTMIN
 10
1.0000000000000000E+20
 20
1.0000000000000000E+20
 30
1.0000000000000000E+20
  9
$PEXTMAX
 10
-1.0000000000000000E+20
 20
-1.0000000000000000E+20
 30
-1.0000000000000000E+20
  9
$PLIMMIN
 10
-0.0674642631973264
 20
-0.0511601294987543
  9
$PLIMMAX
 10
209.9325357368026914
 20
296.9488398705012742
  9
$UNITMODE
 70
     0
  9
$VISRETAIN
 70
     0
  9
$PLINEGEN
 70
     0
  9
$PSLTSCALE
 70
     0
  0
ENDSEC
  0
SECTION
  2
TABLES
  0
TABLE
  2
VPORT
 70
     1
  0
VPORT
  2
*ACTIVE
 70
     0
 10
0.0
 20
0.0
 11
1.0
 21
1.0
 12
1.1681309344838831
 22
-42.9363920778255306
 13
0.0
 23
0.0
 14
1.0
 24
1.0
 15
10.0
 25
10.0
 16
-0.0000000000001705
 26
0.0
 36
669.2520170130919723
 17
321.3598805889740788
 27
-63.3546040240455284
 37
-10.1773423882026801
 40
297.7827761364530943
 41
1.7852028639618129
 42
50.0
 43
0.0
 44
0.0
 50
0.0
 51
0.0
 71
     0
 72
  1500
 73
     1
 74
     0
 75
     0
 76
     0
 77
     0
 78
     0
  0
ENDTAB
  0
TABLE
  2
LTYPE
 70
     6
  0
LTYPE
  2
CONTINUOUS
 70
     0
  3
Solid line
 72
    65
 73
     0
 40
0.0
  0
LTYPE
  2
PHANTOM2
 70
     0
  3
Phantom (.5x) ___ _ _ ___ _ _ ___ _ _ ___ _ _
 72
    65
 73
     6
 40
1.25
 49
0.625
 49
-0.125
 49
0.125
 49
-0.125
 49
0.125
 49
-0.125
  0
LTYPE
  2
VERDECKT
 70
     0
  3
Verdeckt __ __ __ __ __ __ __ __ __ __ __ __ __
 72
    65
 73
     2
 40
0.375
 49
0.25
 49
-0.125
  0
ENDTAB
  0
TABLE
  2
LAYER
 70
    13
  0
LAYER
  2
0
 70
     0
 62
     7
  6
CONTINUOUS
  0
LAYER
  2
VOLL
 70
     0
 62
     1
  6
CONTINUOUS
  0
LAYER
  2
STEMPEL
 70
     0
 62
     3
  6
CONTINUOUS
  0
LAYER
  2
DEFPOINTS
 70
     0
 62
     7
  6
CONTINUOUS
  0
LAYER
  2
ADSK_ASSOC_ENTITY_BACKUPS
 70
     1
 62
    -7
  6
CONTINUOUS
  0
ENDTAB
  0
TABLE
  2
STYLE
 70
     4
  0
STYLE
  2
STANDARD
 70
     0
 40
0.0
 41
0.8
 50
0.0
 71
     0
 42
3.5
  3
simplex.shx
  4

  0
STYLE
  2
GREEKS
 70
     0
 40
0.0
 41
0.8
 50
0.0
 71
     0
 42
2.5
  3
SIMPLEX.shx
  4

  0
ENDTAB
  0
TABLE
  2
VIEW
 70
     1
  0
ENDTAB
  0
TABLE
  2
UCS
 70
     0
  0
ENDTAB
  0
TABLE
  2
APPID
 70
    24
  0
APPID
  2
ACAD
 70
     0
  0
APPID
  2
ACAD_NAV_VCDISPLAY
 70
     0
  0
APPID
  2
ACAD_MLEADERVER
 70
     0
  0
APPID
  2
ACAD_EXEMPT_FROM_CAD_STANDARDS
 70
     0
  0
APPID
  2
ACAD_PSEXT
 70
     0
  0
APPID
  2
ACAECLAYERSTANDARD
 70
     0
  0
APPID
  2
ACAUTHENVIRON
 70
     0
  0
APPID
  2
ACCMTRANSPARENCY
 70
     0
  0
APPID
  2
ACAD_STEPID
 70
     0
  0
APPID
  2
ACSYNERGY
 70
     0
  0
APPID
  2
SYNERGY_BODY_TBR_ID
 70
     0
  0
APPID
  2
ACAD_VIEW_EDGE_ID
 70
     0
  0
APPID
  2
ACSYNERGYSKETCH
 70
     0
  0
APPID
  2
ACAD_MODELDOC_XFORM
 70
     0
  0
APPID
  2
ACAD_DSTYLE_DIMJAG
 70
     0
  0
APPID
  2
ACAD_DSTYLE_DIMTALN
 70
     0
  0
APPID
  2
ACADANNOMONITORALERTICONDI
 70
     0
  0
APPID
  2
ACAD_DIMASSOC_CALC_DIMLFAC
 70
     0
  0
APPID
  2
ACAD_DIMASSOC_DIMLFAC
 70
     0
  0
APPID
  2
ACAD_DIMASSOC_OVERRIDDEN_D
 70
     0
  0
APPID
  2
ACAD_DSTYLE_DIMRADIAL_EXTENSION
 70
     0
  0
APPID
  2
GRADIENTCOLOR1ACI
 70
     0
  0
APPID
  2
GRADIENTCOLOR2ACI
 70
     0
  0
APPID
  2
AcDbAttr
 70
     0
  0
ENDTAB
  0
TABLE
  2
DIMSTYLE
 70
     2
  0
DIMSTYLE
  2
STANDARD
 70
     0
  3

  4

  5

  6

  7

 40
1.0
 41
0.18
 42
0.0625
 43
0.38
 44
0.18
 45
0.0
 46
0.0
 47
0.0
 48
0.0
140
0.18
141
0.09
142
0.0
143
25.3999999999999986
144
1.0
145
0.0
146
1.0
147
0.09
 71
     0
 72
     0
 73
     1
 74
     1
 75
     0
 76
     0
 77
     0
 78
     0
170
     0
171
     2
172
     0
173
     0
174
     0
175
     0
176
     0
177
     0
178
     0
  0
ENDTAB
  0
ENDSEC
  0
SECTION
  2
BLOCKS
  0
BLOCK
  8
0
  2
$MODEL_SPACE
 70
     0
 10
0.0
 20
0.0
 30
0.0
  3
$MODEL_SPACE
  1

  0
ENDBLK
  5
36
  8
0
  0
BLOCK
 67
     1
  8
0
  2
$PAPER_SPACE
 70
     0
 10
0.0
 20
0.0
 30
0.0
  3
$PAPER_SPACE
  1

  0
ENDBLK
  5
34
 67
     1
  8
0
  0
BLOCK
  8
0
  2
*S2
 70
     1
 10
0.0
 20
0.0
 30
0.0
  3
*S2
  1

  0
ENDBLK
  5
B3A
  8
0
  0
BLOCK
  8
0
  2
A$C52C00B85
 70
     0
 10
0.0
 20
0.0
 30
0.0
  3
A$C52C00B85
  1

  0
CIRCLE
  5
1CC6
  8
0
 10
34.8691369365924473
 20
-92.4362661998708148
 30
0.0000000000000071
 40
9.0
  0
CIRCLE
  5
1CC7
  8
0
 10
159.8691369365926107
 20
-92.4362661998708148
 30
0.0000000000000355
 40
9.0
  0
CIRCLE
  5
1CC8
  8
0
 10
97.3691369365925681
 20
-154.9362661998708859
 30
0.0000000000000213
 40
9.0
  0
CIRCLE
  5
1CC9
  8
0
 10
97.3691369365925681
 20
-29.9362661998707011
 30
0.0000000000000213
 40
9.0
  0
CIRCLE
  5
1CCA
  8
0
 10
97.3691369365925681
 20
-92.4362661998708148
 30
0.0000000000000213
 40
82.5000000000000284
  0
CIRCLE
  5
1CCB
  8
0
 10
97.3691369365927528
 20
-92.4362661998708148
 30
0.0000000000000284
 40
29.6066989995640597
  0
CIRCLE
  5
1CCC
  8
0
 10
97.3691369365927528
 20
-92.4362661998708148
 30
0.0000000000000284
 40
31.5003458496272586
  0
CIRCLE
  5
1CCD
  8
0
 10
97.3691369365927528
 20
-92.4362661998708148
 30
0.0000000000000284
 40
28.0003458496272586
  0
CIRCLE
  5
1CCE
  8
0
 10
97.3691369365927528
 20
-92.4362661998708148
 30
0.0000000000000284
 40
28.2523641418766793
  0
CIRCLE
  5
1CCF
  8
0
 10
97.3691369365927528
 20
-92.4362661998708148
 30
0.0000000000000284
 40
24.9700404391160085
  0
CIRCLE
  5
1CD0
  8
0
  6
VERDECKT
 62
     1
 10
97.3691369365925681
 20
-92.4362661998708148
 30
0.0000000000000284
 40
30.1500000000000092
  0
ARC
  5
1CD1
  8
0
  6
VERDECKT
 62
     1
 10
97.3691369365925681
 20
-92.4362661998707722
 30
0.0000000000000213
 40
54.0000000000000284
 50
92.9176735344625087
 51
177.0823264655375908
  0
ARC
  5
1CD2
  8
0
  6
VERDECKT
 62
     1
 10
97.3691369365924544
 20
-92.4362661998709854
 30
0.0000000000000213
 40
54.0000000000001918
 50
2.9176735344626801
 51
87.0823264655373634
  0
ARC
  5
1CD3
  8
0
  6
VERDECKT
 62
     1
 10
97.3691369365925681
 20
-92.4362661998708575
 30
0.0000000000000213
 40
54.0000000000000426
 50
272.9176735344624944
 51
357.0823264655376192
  0
ARC
  5
1CD4
  8
0
  6
VERDECKT
 62
     1
 10
97.3691369365925681
 20
-92.4362661998708148
 30
0.0000000000000213
 40
54.0000000000000213
 50
182.9176735344624092
 51
267.0823264655375056
  0
CIRCLE
  5
1CD5
  8
0
  6
VERDECKT
 62
     1
 10
97.3691369365925681
 20
-92.4362661998708148
 30
0.0000000000000213
 40
51.0000000000000284
  0
CIRCLE
  5
1CD6
  8
0
  6
VERDECKT
 62
     1
 10
97.3691369365925681
 20
-92.4362661998708148
 30
0.0000000000000284
 40
27.2500000000000284
  0
CIRCLE
  5
1CD7
  8
0
  6
VERDECKT
 62
     1
 10
97.3691369365927528
 20
-92.4362661998708148
 30
0.0000000000000284
 40
27.2500000000000107
  0
CIRCLE
  5
1CD8
  8
0
  6
VERDECKT
 62
     1
 10
97.3691369365927528
 20
-92.4362661998708148
 30
0.0000000000000284
 40
26.5003458496272586
  0
CIRCLE
  5
1CD9
  8
0
  6
VERDECKT
 62
     1
 10
97.3691369365927528
 20
-92.4362661998708148
 30
0.0000000000000284
 40
28.8948358403397485
  0
CIRCLE
  5
1CDA
  8
0
  6
VERDECKT
 62
     1
 10
97.3691369365927528
 20
-92.4362661998708148
 30
0.0000000000000284
 40
29.5003458496272586
  0
CIRCLE
  5
1CDB
  8
0
  6
VERDECKT
 62
     1
 10
97.3691369365927528
 20
-92.4362661998708148
 30
0.0000000000000284
 40
30.0003458496272302
  0
CIRCLE
  5
1CDC
  8
0
  6
VERDECKT
 62
     1
 10
97.3691369365927528
 20
-92.4362661998708148
 30
0.0000000000000284
 40
30.0028592998787715
  0
ENDBLK
  5
1CDE
  8
0
  0
BLOCK
  8
0
  2
A$C29B6B06D
 70
     0
 10
0.0
 20
0.0
 30
0.0
  3
A$C29B6B06D
  1

  0
LINE
  5
1CE2
  8
0
 10
67.2191369365925766
 20
81.6503471930876259
 30
-0.0000000000000181
 11
127.5191369365925027
 21
81.6503471930876259
 31
-0.0000000000000181
210
0.0
220
1.0
230
-0.0000000000000002
  0
POLYLINE
  8
0
  5
1D84
  66
     1
 10
0.000000
 20
0.000000
 30
0.000000
  70
     8
  0
VERTEX
  8
0
  5
1D85
 10
43.4391
 20
39.6503
 30
-8.80000e-15
  70
    32
  0
VERTEX
  8
0
  5
1D86
 10
43.4424
 20
39.6465
 30
-8.80000e-15
  70
    32
  0
VERTEX
  8
0
  5
1D87
 10
43.4457
 20
39.6428
 30
-8.80000e-15
  70
    32
  0
VERTEX
  8
0
  5
1D88
 10
43.4490
 20
39.6390
 30
-8.80000e-15
  70
    32
  0
VERTEX
  8
0
  5
1D89
 10
43.4522
 20
39.6352
 30
-8.80000e-15
  70
    32
  0
VERTEX
  8
0
  5
1D8A
 10
43.4555
 20
39.6315
 30
-8.80000e-15
  70
    32
  0
VERTEX
  8
0
  5
1D8B
 10
43.4587
 20
39.6277
 30
-8.80000e-15
  70
    32
  0
VERTEX
  8
0
  5
1D8C
 10
43.4619
 20
39.6240
 30
-8.80000e-15
  70
    32
  0
VERTEX
  8
0
  5
1D8D
 10
43.4651
 20
39.6203
 30
-8.80000e-15
  70
    32
  0
VERTEX
  8
0
  5
1D8E
 10
43.4683
 20
39.6166
 30
-8.80000e-15
  70
    32
  0
VERTEX
  8
0
  5
1D8F
 10
43.4715
 20
39.6129
 30
-8.80000e-15
  70
    32
  0
VERTEX
  8
0
  5
1D90
 10
43.4747
 20
39.6092
 30
-8.80000e-15
  70
    32
  0
VERTEX
  8
0
  5
1D91
 10
43.4778
 20
39.6055
 30
-8.80000e-15
  70
    32
  0
VERTEX
  8
0
  5
1D92
 10
43.4810
 20
39.6019
 30
-8.80000e-15
  70
    32
  0
VERTEX
  8
0
  5
1D93
 10
43.4841
 20
39.5982
 30
-8.80000e-15
  70
    32
  0
VERTEX
  8
0
  5
1D94
 10
43.4873
 20
39.5946
 30
-8.80000e-15
  70
    32
  0
VERTEX
  8
0
  5
1D95
 10
43.4904
 20
39.5910
 30
-8.80000e-15
  70
    32
  0
VERTEX
  8
0
  5
1D96
 10
43.4935
 20
39.5874
 30
-8.80000e-15
  70
    32
  0
VERTEX
  8
0
  5
1D97
 10
43.4966
 20
39.5838
 30
-8.80000e-15
  70
    32
  0
VERTEX
  8
0
  5
1D98
 10
43.4997
 20
39.5802
 30
-8.80000e-15
  70
    32
  0
VERTEX
  8
0
  5
1D99
 10
43.5027
 20
39.5767
 30
-8.80000e-15
  70
    32
  0
VERTEX
  8
0
  5
1D9A
 10
43.5058
 20
39.5731
 30
-8.80000e-15
  70
    32
  0
VERTEX
  8
0
  5
1D9B
 10
43.5088
 20
39.5696
 30
-8.80000e-15
  70
    32
  0
VERTEX
  8
0
  5
1D9C
 10
43.5119
 20
39.5661
 30
-8.80000e-15
  70
    32
  0
VERTEX
  8
0
  5
1D9D
 10
43.5149
 20
39.5626
 30
-8.79999e-15
  70
    32
  0
VERTEX
  8
0
  5
1D9E
 10
43.5179
 20
39.5591
 30
-8.79994e-15
  70
    32
  0
VERTEX
  8
0
  5
1D9F
 10
43.5209
 20
39.5556
 30
-8.79985e-15
  70
    32
  0
VERTEX
  8
0
  5
1DA0
 10
43.5239
 20
39.5521
 30
-8.79971e-15
  70
    32
  0
VERTEX
  8
0
  5
1DA1
 10
43.5269
 20
39.5487
 30
-8.79954e-15
  70
    32
  0
VERTEX
  8
0
  5
1DA2
 10
43.5299
 20
39.5452
 30
-8.79932e-15
  70
    32
  0
VERTEX
  8
0
  5
1DA3
 10
43.5328
 20
39.5418
 30
-8.79906e-15
  70
    32
  0
VERTEX
  8
0
  5
1DA4
 10
43.5357
 20
39.5384
 30
-8.79876e-15
  70
    32
  0
VERTEX
  8
0
  5
1DA5
 10
43.5387
 20
39.5350
 30
-8.79842e-15
  70
    32
  0
VERTEX
  8
0
  5
1DA6
 10
43.5416
 20
39.5316
 30
-8.79804e-15
  70
    32
  0
VERTEX
  8
0
  5
1DA7
 10
43.5445
 20
39.5283
 30
-8.79763e-15
  70
    32
  0
VERTEX
  8
0
  5
1DA8
 10
43.5474
 20
39.5249
 30
-8.79718e-15
  70
    32
  0
VERTEX
  8
0
  5
1DA9
 10
43.5503
 20
39.5216
 30
-8.79670e-15
  70
    32
  0
VERTEX
  8
0
  5
1DAA
 10
43.5532
 20
39.5182
 30
-8.79618e-15
  70
    32
  0
VERTEX
  8
0
  5
1DAB
 10
43.5560
 20
39.5149
 30
-8.79562e-15
  70
    32
  0
VERTEX
  8
0
  5
1DAC
 10
43.5589
 20
39.5116
 30
-8.79503e-15
  70
    32
  0
VERTEX
  8
0
  5
1DAD
 10
43.5617
 20
39.5083
 30
-8.79441e-15
  70
    32
  0
VERTEX
  8
0
  5
1DAE
 10
43.5645
 20
39.5050
 30
-8.79376e-15
  70
    32
  0
VERTEX
  8
0
  5
1DAF
 10
43.5673
 20
39.5018
 30
-8.79308e-15
  70
    32
  0
VERTEX
  8
0
  5
1DB0
 10
43.5701
 20
39.4985
 30
-8.79236e-15
  70
    32
  0
VERTEX
  8
0
  5
1DB1
 10
43.5729
 20
39.4953
 30
-8.79162e-15
  70
    32
  0
VERTEX
  8
0
  5
1DB2
 10
43.5757
 20
39.4921
 30
-8.79085e-15
  70
    32
  0
VERTEX
  8
0
  5
1DB3
 10
43.5784
 20
39.4889
 30
-8.79005e-15
  70
    32
  0
VERTEX
  8
0
  5
1DB4
 10
43.5812
 20
39.4857
 30
-8.78922e-15
  70
    32
  0
VERTEX
  8
0
  5
1DB5
 10
43.5839
 20
39.4825
 30
-8.78836e-15
  70
    32
  0
VERTEX
  8
0
  5
1DB6
 10
43.5867
 20
39.4793
 30
-8.78748e-15
  70
    32
  0
VERTEX
  8
0
  5
1DB7
 10
43.5894
 20
39.4762
 30
-8.78658e-15
  70
    32
  0
VERTEX
  8
0
  5
1DB8
 10
43.5921
 20
39.4731
 30
-8.78565e-15
  70
    32
  0
VERTEX
  8
0
  5
1DB9
 10
43.5948
 20
39.4699
 30
-8.78470e-15
  70
    32
  0
VERTEX
  8
0
  5
1DBA
 10
43.5974
 20
39.4668
 30
-8.78372e-15
  70
    32
  0
VERTEX
  8
0
  5
1DBB
 10
43.6001
 20
39.4637
 30
-8.78272e-15
  70
    32
  0
VERTEX
  8
0
  5
1DBC
 10
43.6028
 20
39.4606
 30
-8.78171e-15
  70
    32
  0
VERTEX
  8
0
  5
1DBD
 10
43.6054
 20
39.4576
 30
-8.78067e-15
  70
    32
  0
VERTEX
  8
0
  5
1DBE
 10
43.6080
 20
39.4545
 30
-8.77961e-15
  70
    32
  0
VERTEX
  8
0
  5
1DBF
 10
43.6106
 20
39.4515
 30
-8.77853e-15
  70
    32
  0
VERTEX
  8
0
  5
1DC0
 10
43.6132
 20
39.4485
 30
-8.77744e-15
  70
    32
  0
VERTEX
  8
0
  5
1DC1
 10
43.6158
 20
39.4455
 30
-8.77633e-15
  70
    32
  0
VERTEX
  8
0
  5
1DC2
 10
43.6184
 20
39.4425
 30
-8.77520e-15
  70
    32
  0
VERTEX
  8
0
  5
1DC3
 10
43.6210
 20
39.4395
 30
-8.77405e-15
  70
    32
  0
VERTEX
  8
0
  5
1DC4
 10
43.6235
 20
39.4365
 30
-8.77290e-15
  70
    32
  0
VERTEX
  8
0
  5
1DC5
 10
43.6261
 20
39.4336
 30
-8.77172e-15
  70
    32
  0
VERTEX
  8
0
  5
1DC6
 10
43.6286
 20
39.4306
 30
-8.77054e-15
  70
    32
  0
VERTEX
  8
0
  5
1DC7
 10
43.6311
 20
39.4277
 30
-8.76934e-15
  70
    32
  0
VERTEX
  8
0
  5
1DC8
 10
43.6336
 20
39.4248
 30
-8.76813e-15
  70
    32
  0
VERTEX
  8
0
  5
1DC9
 10
43.6361
 20
39.4219
 30
-8.76690e-15
  70
    32
  0
VERTEX
  8
0
  5
1DCA
 10
43.6386
 20
39.4190
 30
-8.76567e-15
  70
    32
  0
VERTEX
  8
0
  5
1DCB
 10
43.6410
 20
39.4162
 30
-8.76443e-15
  70
    32
  0
VERTEX
  8
0
  5
1DCC
 10
43.6435
 20
39.4133
 30
-8.76318e-15
  70
    32
  0
VERTEX
  8
0
  5
1DCD
 10
43.6459
 20
39.4105
 30
-8.76192e-15
  70
    32
  0
VERTEX
  8
0
  5
1DCE
 10
43.6484
 20
39.4076
 30
-8.76066e-15
  70
    32
  0
VERTEX
  8
0
  5
1DCF
 10
43.6508
 20
39.4048
 30
-8.75939e-15
  70
    32
  0
VERTEX
  8
0
  5
1DD0
 10
43.6532
 20
39.4020
 30
-8.75811e-15
  70
    32
  0
VERTEX
  8
0
  5
1DD1
 10
43.6556
 20
39.3993
 30
-8.75683e-15
  70
    32
  0
VERTEX
  8
0
  5
1DD2
 10
43.6580
 20
39.3965
 30
-8.75554e-15
  70
    32
  0
VERTEX
  8
0
  5
1DD3
 10
43.6603
 20
39.3937
 30
-8.75425e-15
  70
    32
  0
VERTEX
  8
0
  5
1DD4
 10
43.6627
 20
39.3910
 30
-8.75296e-15
  70
    32
  0
VERTEX
  8
0
  5
1DD5
 10
43.6650
 20
39.3883
 30
-8.75166e-15
  70
    32
  0
VERTEX
  8
0
  5
1DD6
 10
43.6673
 20
39.3856
 30
-8.75037e-15
  70
    32
  0
VERTEX
  8
0
  5
1DD7
 10
43.6696
 20
39.3829
 30
-8.74907e-15
  70
    32
  0
VERTEX
  8
0
  5
1DD8
 10
43.6719
 20
39.3802
 30
-8.74778e-15
  70
    32
  0
VERTEX
  8
0
  5
1DD9
 10
43.6742
 20
39.3776
 30
-8.74649e-15
  70
    32
  0
VERTEX
  8
0
  5
1DDA
 10
43.6765
 20
39.3749
 30
-8.74519e-15
  70
    32
  0
VERTEX
  8
0
  5
1DDB
 10
43.6788
 20
39.3723
 30
-8.74391e-15
  70
    32
  0
VERTEX
  8
0
  5
1DDC
 10
43.6810
 20
39.3697
 30
-8.74262e-15
  70
    32
  0
VERTEX
  8
0
  5
1DDD
 10
43.6833
 20
39.3671
 30
-8.74134e-15
  70
    32
  0
VERTEX
  8
0
  5
1DDE
 10
43.6855
 20
39.3645
 30
-8.74007e-15
  70
    32
  0
VERTEX
  8
0
  5
1DDF
 10
43.6877
 20
39.3619
 30
-8.73880e-15
  70
    32
  0
VERTEX
  8
0
  5
1DE0
 10
43.6899
 20
39.3593
 30
-8.73753e-15
  70
    32
  0
VERTEX
  8
0
  5
1DE1
 10
43.6921
 20
39.3568
 30
-8.73628e-15
  70
    32
  0
VERTEX
  8
0
  5
1DE2
 10
43.6943
 20
39.3543
 30
-8.73503e-15
  70
    32
  0
VERTEX
  8
0
  5
1DE3
 10
43.6964
 20
39.3518
 30
-8.73380e-15
  70
    32
  0
VERTEX
  8
0
  5
1DE4
 10
43.6986
 20
39.3493
 30
-8.73257e-15
  70
    32
  0
VERTEX
  8
0
  5
1DE5
 10
43.7007
 20
39.3468
 30
-8.73135e-15
  70
    32
  0
VERTEX
  8
0
  5
1DE6
 10
43.7028
 20
39.3443
 30
-8.73015e-15
  70
    32
  0
VERTEX
  8
0
  5
1DE7
 10
43.7049
 20
39.3418
 30
-8.72895e-15
  70
    32
  0
VERTEX
  8
0
  5
1DE8
 10
43.7070
 20
39.3394
 30
-8.72777e-15
  70
    32
  0
VERTEX
  8
0
  5
1DE9
 10
43.7091
 20
39.3370
 30
-8.72660e-15
  70
    32
  0
VERTEX
  8
0
  5
1DEA
 10
43.7112
 20
39.3346
 30
-8.72545e-15
  70
    32
  0
VERTEX
  8
0
  5
1DEB
 10
43.7132
 20
39.3322
 30
-8.72431e-15
  70
    32
  0
VERTEX
  8
0
  5
1DEC
 10
43.7153
 20
39.3298
 30
-8.72319e-15
  70
    32
  0
VERTEX
  8
0
  5
1DED
 10
43.7173
 20
39.3274
 30
-8.72209e-15
  70
    32
  0
VERTEX
  8
0
  5
1DEE
 10
43.7193
 20
39.3251
 30
-8.72100e-15
  70
    32
  0
VERTEX
  8
0
  5
1DEF
 10
43.7213
 20
39.3228
 30
-8.71993e-15
  70
    32
  0
VERTEX
  8
0
  5
1DF0
 10
43.7233
 20
39.3204
 30
-8.71888e-15
  70
    32
  0
VERTEX
  8
0
  5
1DF1
 10
43.7253
 20
39.3181
 30
-8.71785e-15
  70
    32
  0
VERTEX
  8
0
  5
1DF2
 10
43.7272
 20
39.3159
 30
-8.71684e-15
  70
    32
  0
VERTEX
  8
0
  5
1DF3
 10
43.7292
 20
39.3136
 30
-8.71586e-15
  70
    32
  0
VERTEX
  8
0
  5
1DF4
 10
43.7311
 20
39.3113
 30
-8.71489e-15
  70
    32
  0
VERTEX
  8
0
  5
1DF5
 10
43.7331
 20
39.3091
 30
-8.71395e-15
  70
    32
  0
VERTEX
  8
0
  5
1DF6
 10
43.7350
 20
39.3069
 30
-8.71303e-15
  70
    32
  0
VERTEX
  8
0
  5
1DF7
 10
43.7369
 20
39.3047
 30
-8.71214e-15
  70
    32
  0
VERTEX
  8
0
  5
1DF8
 10
43.7387
 20
39.3025
 30
-8.71127e-15
  70
    32
  0
VERTEX
  8
0
  5
1DF9
 10
43.7406
 20
39.3003
 30
-8.71042e-15
  70
    32
  0
VERTEX
  8
0
  5
1DFA
 10
43.7425
 20
39.2981
 30
-8.70961e-15
  70
    32
  0
VERTEX
  8
0
  5
1DFB
 10
43.7443
 20
39.2960
 30
-8.70882e-15
  70
    32
  0
VERTEX
  8
0
  5
1DFC
 10
43.7461
 20
39.2938
 30
-8.70806e-15
  70
    32
  0
VERTEX
  8
0
  5
1DFD
 10
43.7480
 20
39.2917
 30
-8.70733e-15
  70
    32
  0
VERTEX
  8
0
  5
1DFE
 10
43.7498
 20
39.2896
 30
-8.70663e-15
  70
    32
  0
VERTEX
  8
0
  5
1DFF
 10
43.7516
 20
39.2875
 30
-8.70596e-15
  70
    32
  0
VERTEX
  8
0
  5
1E00
 10
43.7533
 20
39.2855
 30
-8.70532e-15
  70
    32
  0
VERTEX
  8
0
  5
1E01
 10
43.7551
 20
39.2834
 30
-8.70471e-15
  70
    32
  0
VERTEX
  8
0
  5
1E02
 10
43.7568
 20
39.2814
 30
-8.70414e-15
  70
    32
  0
VERTEX
  8
0
  5
1E03
 10
43.7586
 20
39.2793
 30
-8.70360e-15
  70
    32
  0
VERTEX
  8
0
  5
1E04
 10
43.7603
 20
39.2773
 30
-8.70309e-15
  70
    32
  0
VERTEX
  8
0
  5
1E05
 10
43.7620
 20
39.2753
 30
-8.70262e-15
  70
    32
  0
VERTEX
  8
0
  5
1E06
 10
43.7637
 20
39.2734
 30
-8.70219e-15
  70
    32
  0
VERTEX
  8
0
  5
1E07
 10
43.7654
 20
39.2714
 30
-8.70179e-15
  70
    32
  0
VERTEX
  8
0
  5
1E08
 10
43.7671
 20
39.2695
 30
-8.70143e-15
  70
    32
  0
VERTEX
  8
0
  5
1E09
 10
43.7687
 20
39.2675
 30
-8.70111e-15
  70
    32
  0
VERTEX
  8
0
  5
1E0A
 10
43.7704
 20
39.2656
 30
-8.70083e-15
  70
    32
  0
VERTEX
  8
0
  5
1E0B
 10
43.7720
 20
39.2637
 30
-8.70058e-15
  70
    32
  0
VERTEX
  8
0
  5
1E0C
 10
43.7736
 20
39.2618
 30
-8.70038e-15
  70
    32
  0
VERTEX
  8
0
  5
1E0D
 10
43.7752
 20
39.2600
 30
-8.70022e-15
  70
    32
  0
VERTEX
  8
0
  5
1E0E
 10
43.7768
 20
39.2581
 30
-8.70011e-15
  70
    32
  0
VERTEX
  8
0
  5
1E0F
 10
43.7784
 20
39.2563
 30
-8.70003e-15
  70
    32
  0
VERTEX
  8
0
  5
1E10
 10
43.7799
 20
39.2545
 30
-8.70000e-15
  70
    32
  0
VERTEX
  8
0
  5
1E11
 10
43.7815
 20
39.2527
 30
-8.70000e-15
  70
    32
  0
VERTEX
  8
0
  5
1E12
 10
43.7830
 20
39.2509
 30
-8.70000e-15
  70
    32
  0
VERTEX
  8
0
  5
1E13
 10
43.7845
 20
39.2491
 30
-8.70000e-15
  70
    32
  0
VERTEX
  8
0
  5
1E14
 10
43.7860
 20
39.2474
 30
-8.70000e-15
  70
    32
  0
VERTEX
  8
0
  5
1E15
 10
43.7875
 20
39.2456
 30
-8.70000e-15
  70
    32
  0
VERTEX
  8
0
  5
1E16
 10
43.7890
 20
39.2439
 30
-8.70000e-15
  70
    32
  0
VERTEX
  8
0
  5
1E17
 10
43.7904
 20
39.2422
 30
-8.70000e-15
  70
    32
  0
VERTEX
  8
0
  5
1E18
 10
43.7919
 20
39.2405
 30
-8.70000e-15
  70
    32
  0
VERTEX
  8
0
  5
1E19
 10
43.7933
 20
39.2388
 30
-8.70000e-15
  70
    32
  0
VERTEX
  8
0
  5
1E1A
 10
43.7948
 20
39.2372
 30
-8.70000e-15
  70
    32
  0
VERTEX
  8
0
  5
1E1B
 10
43.7962
 20
39.2355
 30
-8.70000e-15
  70
    32
  0
VERTEX
  8
0
  5
1E1C
 10
43.7976
 20
39.2339
 30
-8.70000e-15
  70
    32
  0
VERTEX
  8
0
  5
1E1D
 10
43.7989
 20
39.2323
 30
-8.70000e-15
  70
    32
  0
VERTEX
  8
0
  5
1E1E
 10
43.8003
 20
39.2307
 30
-8.70000e-15
  70
    32
  0
VERTEX
  8
0
  5
1E1F
 10
43.8017
 20
39.2291
 30
-8.70000e-15
  70
    32
  0
VERTEX
  8
0
  5
1E20
 10
43.8030
 20
39.2276
 30
-8.70000e-15
  70
    32
  0
VERTEX
  8
0
  5
1E21
 10
43.8043
 20
39.2260
 30
-8.70000e-15
  70
    32
  0
VERTEX
  8
0
  5
1E22
 10
43.8056
 20
39.2245
 30
-8.70000e-15
  70
    32
  0
VERTEX
  8
0
  5
1E23
 10
43.8069
 20
39.2230
 30
-8.70000e-15
  70
    32
  0
VERTEX
  8
0
  5
1E24
 10
43.8082
 20
39.2215
 30
-8.70000e-15
  70
    32
  0
VERTEX
  8
0
  5
1E25
 10
43.8095
 20
39.2200
 30
-8.70000e-15
  70
    32
  0
VERTEX
  8
0
  5
1E26
 10
43.8108
 20
39.2185
 30
-8.70000e-15
  70
    32
  0
VERTEX
  8
0
  5
1E27
 10
43.8120
 20
39.2171
 30
-8.70000e-15
  70
    32
  0
VERTEX
  8
0
  5
1E28
 10
43.8132
 20
39.2156
 30
-8.70000e-15
  70
    32
  0
VERTEX
  8
0
  5
1E29
 10
43.8144
 20
39.2142
 30
-8.70000e-15
  70
    32
  0
VERTEX
  8
0
  5
1E2A
 10
43.8157
 20
39.2128
 30
-8.70000e-15
  70
    32
  0
VERTEX
  8
0
  5
1E2B
 10
43.8168
 20
39.2114
 30
-8.70000e-15
  70
    32
  0
VERTEX
  8
0
  5
1E2C
 10
43.8180
 20
39.2100
 30
-8.70000e-15
  70
    32
  0
VERTEX
  8
0
  5
1E2D
 10
43.8192
 20
39.2087
 30
-8.70000e-15
  70
    32
  0
VERTEX
  8
0
  5
1E2E
 10
43.8203
 20
39.2073
 30
-8.70000e-15
  70
    32
  0
VERTEX
  8
0
  5
1E2F
 10
43.8215
 20
39.2060
 30
-8.70000e-15
  70
    32
  0
VERTEX
  8
0
  5
1E30
 10
43.8226
 20
39.2047
 30
-8.70000e-15
  70
    32
  0
VERTEX
  8
0
  5
1E31
 10
43.8237
 20
39.2034
 30
-8.70000e-15
  70
    32
  0
VERTEX
  8
0
  5
1E32
 10
43.8248
 20
39.2021
 30
-8.70000e-15
  70
    32
  0
VERTEX
  8
0
  5
1E33
 10
43.8259
 20
39.2009
 30
-8.70000e-15
  70
    32
  0
VERTEX
  8
0
  5
1E34
 10
43.8269
 20
39.1996
 30
-8.70000e-15
  70
    32
  0
VERTEX
  8
0
  5
1E35
 10
43.8280
 20
39.1984
 30
-8.70000e-15
  70
    32
  0
VERTEX
  8
0
  5
1E36
 10
43.8290
 20
39.1972
 30
-8.70000e-15
  70
    32
  0
VERTEX
  8
0
  5
1E37
 10
43.8301
 20
39.1960
 30
-8.70000e-15
  70
    32
  0
VERTEX
  8
0
  5
1E38
 10
43.8311
 20
39.1948
 30
-8.70000e-15
  70
    32
  0
VERTEX
  8
0
  5
1E39
 10
43.8321
 20
39.1936
 30
-8.70000e-15
  70
    32
  0
VERTEX
  8
0
  5
1E3A
 10
43.8331
 20
39.1925
 30
-8.70000e-15
  70
    32
  0
VERTEX
  8
0
  5
1E3B
 10
43.8340
 20
39.1913
 30
-8.70000e-15
  70
    32
  0
VERTEX
  8
0
  5
1E3C
 10
43.8350
 20
39.1902
 30
-8.70000e-15
  70
    32
  0
VERTEX
  8
0
  5
1E3D
 10
43.8360
 20
39.1891
 30
-8.70000e-15
  70
    32
  0
VERTEX
  8
0
  5
1E3E
 10
43.8369
 20
39.1880
 30
-8.70000e-15
  70
    32
  0
VERTEX
  8
0
  5
1E3F
 10
43.8378
 20
39.1869
 30
-8.70000e-15
  70
    32
  0
VERTEX
  8
0
  5
1E40
 10
43.8387
 20
39.1859
 30
-8.70000e-15
  70
    32
  0
VERTEX
  8
0
  5
1E41
 10
43.8396
 20
39.1848
 30
-8.70000e-15
  70
    32
  0
VERTEX
  8
0
  5
1E42
 10
43.8405
 20
39.1838
 30
-8.70000e-15
  70
    32
  0
VERTEX
  8
0
  5
1E43
 10
43.8414
 20
39.1828
 30
-8.70000e-15
  70
    32
  0
VERTEX
  8
0
  5
1E44
 10
43.8422
 20
39.1818
 30
-8.70000e-15
  70
    32
  0
VERTEX
  8
0
  5
1E45
 10
43.8430
 20
39.1808
 30
-8.70000e-15
  70
    32
  0
VERTEX
  8
0
  5
1E46
 10
43.8439
 20
39.1799
 30
-8.70000e-15
  70
    32
  0
VERTEX
  8
0
  5
1E47
 10
43.8447
 20
39.1789
 30
-8.70000e-15
  70
    32
  0
VERTEX
  8
0
  5
1E48
 10
43.8455
 20
39.1780
 30
-8.70000e-15
  70
    32
  0
VERTEX
  8
0
  5
1E49
 10
43.8463
 20
39.1771
 30
-8.70000e-15
  70
    32
  0
VERTEX
  8
0
  5
1E4A
 10
43.8470
 20
39.1762
 30
-8.70000e-15
  70
    32
  0
VERTEX
  8
0
  5
1E4B
 10
43.8478
 20
39.1753
 30
-8.70000e-15
  70
    32
  0
VERTEX
  8
0
  5
1E4C
 10
43.8485
 20
39.1744
 30
-8.70000e-15
  70
    32
  0
VERTEX
  8
0
  5
1E4D
 10
43.8493
 20
39.1736
 30
-8.70000e-15
  70
    32
  0
VERTEX
  8
0
  5
1E4E
 10
43.8500
 20
39.1727
 30
-8.70000e-15
  70
    32
  0
VERTEX
  8
0
  5
1E4F
 10
43.8507
 20
39.1719
 30
-8.70000e-15
  70
    32
  0
VERTEX
  8
0
  5
1E50
 10
43.8514
 20
39.1711
 30
-8.70000e-15
  70
    32
  0
VERTEX
  8
0
  5
1E51
 10
43.8521
 20
39.1703
 30
-8.70000e-15
  70
    32
  0
VERTEX
  8
0
  5
1E52
 10
43.8527
 20
39.1695
 30
-8.70000e-15
  70
    32
  0
VERTEX
  8
0
  5
1E53
 10
43.8534
 20
39.1687
 30
-8.70000e-15
  70
    32
  0
VERTEX
  8
0
  5
1E54
 10
43.8540
 20
39.1680
 30
-8.70000e-15
  70
    32
  0
VERTEX
  8
0
  5
1E55
 10
43.8547
 20
39.1673
 30
-8.70000e-15
  70
    32
  0
VERTEX
  8
0
  5
1E56
 10
43.8553
 20
39.1666
 30
-8.70000e-15
  70
    32
  0
VERTEX
  8
0
  5
1E57
 10
43.8559
 20
39.1659
 30
-8.70000e-15
  70
    32
  0
VERTEX
  8
0
  5
1E58
 10
43.8564
 20
39.1652
 30
-8.70000e-15
  70
    32
  0
VERTEX
  8
0
  5
1E59
 10
43.8570
 20
39.1645
 30
-8.70000e-15
  70
    32
  0
VERTEX
  8
0
  5
1E5A
 10
43.8576
 20
39.1639
 30
-8.70000e-15
  70
    32
  0
VERTEX
  8
0
  5
1E5B
 10
43.8581
 20
39.1632
 30
-8.70000e-15
  70
    32
  0
VERTEX
  8
0
  5
1E5C
 10
43.8587
 20
39.1626
 30
-8.70000e-15
  70
    32
  0
VERTEX
  8
0
  5
1E5D
 10
43.8592
 20
39.1620
 30
-8.70000e-15
  70
    32
  0
VERTEX
  8
0
  5
1E5E
 10
43.8597
 20
39.1614
 30
-8.70000e-15
  70
    32
  0
VERTEX
  8
0
  5
1E5F
 10
43.8602
 20
39.1608
 30
-8.70000e-15
  70
    32
  0
VERTEX
  8
0
  5
1E60
 10
43.8607
 20
39.1603
 30
-8.70000e-15
  70
    32
  0
VERTEX
  8
0
  5
1E61
 10
43.8611
 20
39.1597
 30
-8.70000e-15
  70
    32
  0
VERTEX
  8
0
  5
1E62
 10
43.8616
 20
39.1592
 30
-8.70000e-15
  70
    32
  0
VERTEX
  8
0
  5
1E63
 10
43.8620
 20
39.1587
 30
-8.70000e-15
  70
    32
  0
VERTEX
  8
0
  5
1E64
 10
43.8624
 20
39.1582
 30
-8.70000e-15
  70
    32
  0
VERTEX
  8
0
  5
1E65
 10
43.8629
 20
39.1577
 30
-8.70000e-15
  70
    32
  0
VERTEX
  8
0
  5
1E66
 10
43.8633
 20
39.1572
 30
-8.70000e-15
  70
    32
  0
VERTEX
  8
0
  5
1E67
 10
43.8636
 20
39.1568
 30
-8.70000e-15
  70
    32
  0
VERTEX
  8
0
  5
1E68
 10
43.8640
 20
39.1563
 30
-8.70000e-15
  70
    32
  0
VERTEX
  8
0
  5
1E69
 10
43.8644
 20
39.1559
 30
-8.70000e-15
  70
    32
  0
VERTEX
  8
0
  5
1E6A
 10
43.8647
 20
39.1555
 30
-8.70000e-15
  70
    32
  0
VERTEX
  8
0
  5
1E6B
 10
43.8651
 20
39.1551
 30
-8.70000e-15
  70
    32
  0
VERTEX
  8
0
  5
1E6C
 10
43.8654
 20
39.1547
 30
-8.70000e-15
  70
    32
  0
VERTEX
  8
0
  5
1E6D
 10
43.8657
 20
39.1544
 30
-8.70000e-15
  70
    32
  0
VERTEX
  8
0
  5
1E6E
 10
43.8660
 20
39.1540
 30
-8.70000e-15
  70
    32
  0
VERTEX
  8
0
  5
1E6F
 10
43.8663
 20
39.1537
 30
-8.70000e-15
  70
    32
  0
VERTEX
  8
0
  5
1E70
 10
43.8665
 20
39.1534
 30
-8.70000e-15
  70
    32
  0
VERTEX
  8
0
  5
1E71
 10
43.8668
 20
39.1531
 30
-8.70000e-15
  70
    32
  0
VERTEX
  8
0
  5
1E72
 10
43.8670
 20
39.1528
 30
-8.70000e-15
  70
    32
  0
VERTEX
  8
0
  5
1E73
 10
43.8673
 20
39.1526
 30
-8.70000e-15
  70
    32
  0
VERTEX
  8
0
  5
1E74
 10
43.8675
 20
39.1523
 30
-8.70000e-15
  70
    32
  0
VERTEX
  8
0
  5
1E75
 10
43.8677
 20
39.1521
 30
-8.70000e-15
  70
    32
  0
VERTEX
  8
0
  5
1E76
 10
43.8679
 20
39.1518
 30
-8.70000e-15
  70
    32
  0
VERTEX
  8
0
  5
1E77
 10
43.8680
 20
39.1516
 30
-8.70000e-15
  70
    32
  0
VERTEX
  8
0
  5
1E78
 10
43.8682
 20
39.1514
 30
-8.70000e-15
  70
    32
  0
VERTEX
  8
0
  5
1E79
 10
43.8683
 20
39.1513
 30
-8.70000e-15
  70
    32
  0
VERTEX
  8
0
  5
1E7A
 10
43.8685
 20
39.1511
 30
-8.70000e-15
  70
    32
  0
VERTEX
  8
0
  5
1E7B
 10
43.8686
 20
39.1510
 30
-8.70000e-15
  70
    32
  0
VERTEX
  8
0
  5
1E7C
 10
43.8687
 20
39.1508
 30
-8.70000e-15
  70
    32
  0
VERTEX
  8
0
  5
1E7D
 10
43.8688
 20
39.1507
 30
-8.70000e-15
  70
    32
  0
VERTEX
  8
0
  5
1E7E
 10
43.8689
 20
39.1506
 30
-8.70000e-15
  70
    32
  0
VERTEX
  8
0
  5
1E7F
 10
43.8690
 20
39.1505
 30
-8.70000e-15
  70
    32
  0
VERTEX
  8
0
  5
1E80
 10
43.8690
 20
39.1505
 30
-8.70000e-15
  70
    32
  0
VERTEX
  8
0
  5
1E81
 10
43.8691
 20
39.1504
 30
-8.70000e-15
  70
    32
  0
VERTEX
  8
0
  5
1E82
 10
43.8691
 20
39.1504
 30
-8.70000e-15
  70
    32
  0
VERTEX
  8
0
  5
1E83
 10
43.8691
 20
39.1504
 30
-8.70000e-15
  70
    32
  0
VERTEX
  8
0
  5
1E84
 10
43.8691
 20
39.1503
 30
-8.70000e-15
  70
    32
  0
SEQEND
  8
0
  5
1E85
  0
POLYLINE
  8
0
  5
1E86
  66
     1
 10
0.000000
 20
0.000000
 30
0.000000
  70
     8
  0
VERTEX
  8
0
  5
1E87
 10
150.869
 20
39.1503
 30
-8.70000e-15
  70
    32
  0
VERTEX
  8
0
  5
1E88
 10
150.869
 20
39.1504
 30
-8.70000e-15
  70
    32
  0
VERTEX
  8
0
  5
1E89
 10
150.869
 20
39.1504
 30
-8.70000e-15
  70
    32
  0
VERTEX
  8
0
  5
1E8A
 10
150.869
 20
39.1504
 30
-8.70000e-15
  70
    32
  0
VERTEX
  8
0
  5
1E8B
 10
150.869
 20
39.1505
 30
-8.70000e-15
  70
    32
  0
VERTEX
  8
0
  5
1E8C
 10
150.869
 20
39.1505
 30
-8.70000e-15
  70
    32
  0
VERTEX
  8
0
  5
1E8D
 10
150.869
 20
39.1506
 30
-8.70000e-15
  70
    32
  0
VERTEX
  8
0
  5
1E8E
 10
150.869
 20
39.1507
 30
-8.70000e-15
  70
    32
  0
VERTEX
  8
0
  5
1E8F
 10
150.870
 20
39.1508
 30
-8.70000e-15
  70
    32
  0
VERTEX
  8
0
  5
1E90
 10
150.870
 20
39.1510
 30
-8.70000e-15
  70
    32
  0
VERTEX
  8
0
  5
1E91
 10
150.870
 20
39.1511
 30
-8.70000e-15
  70
    32
  0
VERTEX
  8
0
  5
1E92
 10
150.870
 20
39.1513
 30
-8.70000e-15
  70
    32
  0
VERTEX
  8
0
  5
1E93
 10
150.870
 20
39.1514
 30
-8.70000e-15
  70
    32
  0
VERTEX
  8
0
  5
1E94
 10
150.870
 20
39.1516
 30
-8.70000e-15
  70
    32
  0
VERTEX
  8
0
  5
1E95
 10
150.870
 20
39.1518
 30
-8.70000e-15
  70
    32
  0
VERTEX
  8
0
  5
1E96
 10
150.871
 20
39.1521
 30
-8.70000e-15
  70
    32
  0
VERTEX
  8
0
  5
1E97
 10
150.871
 20
39.1523
 30
-8.70000e-15
  70
    32
  0
VERTEX
  8
0
  5
1E98
 10
150.871
 20
39.1526
 30
-8.70000e-15
  70
    32
  0
VERTEX
  8
0
  5
1E99
 10
150.871
 20
39.1528
 30
-8.70000e-15
  70
    32
  0
VERTEX
  8
0
  5
1E9A
 10
150.871
 20
39.1531
 30
-8.70000e-15
  70
    32
  0
VERTEX
  8
0
  5
1E9B
 10
150.872
 20
39.1534
 30
-8.70000e-15
  70
    32
  0
VERTEX
  8
0
  5
1E9C
 10
150.872
 20
39.1537
 30
-8.70000e-15
  70
    32
  0
VERTEX
  8
0
  5
1E9D
 10
150.872
 20
39.1540
 30
-8.70000e-15
  70
    32
  0
VERTEX
  8
0
  5
1E9E
 10
150.873
 20
39.1544
 30
-8.70000e-15
  70
    32
  0
VERTEX
  8
0
  5
1E9F
 10
150.873
 20
39.1547
 30
-8.70000e-15
  70
    32
  0
VERTEX
  8
0
  5
1EA0
 10
150.873
 20
39.1551
 30
-8.70000e-15
  70
    32
  0
VERTEX
  8
0
  5
1EA1
 10
150.874
 20
39.1555
 30
-8.70000e-15
  70
    32
  0
VERTEX
  8
0
  5
1EA2
 10
150.874
 20
39.1559
 30
-8.70000e-15
  70
    32
  0
VERTEX
  8
0
  5
1EA3
 10
150.874
 20
39.1563
 30
-8.70000e-15
  70
    32
  0
VERTEX
  8
0
  5
1EA4
 10
150.875
 20
39.1568
 30
-8.70000e-15
  70
    32
  0
VERTEX
  8
0
  5
1EA5
 10
150.875
 20
39.1572
 30
-8.70000e-15
  70
    32
  0
VERTEX
  8
0
  5
1EA6
 10
150.875
 20
39.1577
 30
-8.70000e-15
  70
    32
  0
VERTEX
  8
0
  5
1EA7
 10
150.876
 20
39.1582
 30
-8.70000e-15
  70
    32
  0
VERTEX
  8
0
  5
1EA8
 10
150.876
 20
39.1587
 30
-8.70000e-15
  70
    32
  0
VERTEX
  8
0
  5
1EA9
 10
150.877
 20
39.1592
 30
-8.70000e-15
  70
    32
  0
VERTEX
  8
0
  5
1EAA
 10
150.877
 20
39.1597
 30
-8.70000e-15
  70
    32
  0
VERTEX
  8
0
  5
1EAB
 10
150.878
 20
39.1603
 30
-8.70000e-15
  70
    32
  0
VERTEX
  8
0
  5
1EAC
 10
150.878
 20
39.1608
 30
-8.70000e-15
  70
    32
  0
VERTEX
  8
0
  5
1EAD
 10
150.879
 20
39.1614
 30
-8.70000e-15
  70
    32
  0
VERTEX
  8
0
  5
1EAE
 10
150.879
 20
39.1620
 30
-8.70000e-15
  70
    32
  0
VERTEX
  8
0
  5
1EAF
 10
150.880
 20
39.1626
 30
-8.70000e-15
  70
    32
  0
VERTEX
  8
0
  5
1EB0
 10
150.880
 20
39.1632
 30
-8.70000e-15
  70
    32
  0
VERTEX
  8
0
  5
1EB1
 10
150.881
 20
39.1639
 30
-8.70000e-15
  70
    32
  0
VERTEX
  8
0
  5
1EB2
 10
150.881
 20
39.1645
 30
-8.70000e-15
  70
    32
  0
VERTEX
  8
0
  5
1EB3
 10
150.882
 20
39.1652
 30
-8.70000e-15
  70
    32
  0
VERTEX
  8
0
  5
1EB4
 10
150.882
 20
39.1659
 30
-8.70000e-15
  70
    32
  0
VERTEX
  8
0
  5
1EB5
 10
150.883
 20
39.1666
 30
-8.70000e-15
  70
    32
  0
VERTEX
  8
0
  5
1EB6
 10
150.884
 20
39.1673
 30
-8.70000e-15
  70
    32
  0
VERTEX
  8
0
  5
1EB7
 10
150.884
 20
39.1680
 30
-8.70000e-15
  70
    32
  0
VERTEX
  8
0
  5
1EB8
 10
150.885
 20
39.1687
 30
-8.70000e-15
  70
    32
  0
VERTEX
  8
0
  5
1EB9
 10
150.886
 20
39.1695
 30
-8.70000e-15
  70
    32
  0
VERTEX
  8
0
  5
1EBA
 10
150.886
 20
39.1703
 30
-8.70000e-15
  70
    32
  0
VERTEX
  8
0
  5
1EBB
 10
150.887
 20
39.1711
 30
-8.70000e-15
  70
    32
  0
VERTEX
  8
0
  5
1EBC
 10
150.888
 20
39.1719
 30
-8.70000e-15
  70
    32
  0
VERTEX
  8
0
  5
1EBD
 10
150.888
 20
39.1727
 30
-8.70000e-15
  70
    32
  0
VERTEX
  8
0
  5
1EBE
 10
150.889
 20
39.1736
 30
-8.70000e-15
  70
    32
  0
VERTEX
  8
0
  5
1EBF
 10
150.890
 20
39.1744
 30
-8.70000e-15
  70
    32
  0
VERTEX
  8
0
  5
1EC0
 10
150.890
 20
39.1753
 30
-8.70000e-15
  70
    32
  0
VERTEX
  8
0
  5
1EC1
 10
150.891
 20
39.1762
 30
-8.70000e-15
  70
    32
  0
VERTEX
  8
0
  5
1EC2
 10
150.892
 20
39.1771
 30
-8.70000e-15
  70
    32
  0
VERTEX
  8
0
  5
1EC3
 10
150.893
 20
39.1780
 30
-8.70000e-15
  70
    32
  0
VERTEX
  8
0
  5
1EC4
 10
150.894
 20
39.1789
 30
-8.70000e-15
  70
    32
  0
VERTEX
  8
0
  5
1EC5
 10
150.894
 20
39.1799
 30
-8.70000e-15
  70
    32
  0
VERTEX
  8
0
  5
1EC6
 10
150.895
 20
39.1808
 30
-8.70000e-15
  70
    32
  0
VERTEX
  8
0
  5
1EC7
 10
150.896
 20
39.1818
 30
-8.70000e-15
  70
    32
  0
VERTEX
  8
0
  5
1EC8
 10
150.897
 20
39.1828
 30
-8.70000e-15
  70
    32
  0
VERTEX
  8
0
  5
1EC9
 10
150.898
 20
39.1838
 30
-8.70000e-15
  70
    32
  0
VERTEX
  8
0
  5
1ECA
 10
150.899
 20
39.1848
 30
-8.70000e-15
  70
    32
  0
VERTEX
  8
0
  5
1ECB
 10
150.900
 20
39.1859
 30
-8.70000e-15
  70
    32
  0
VERTEX
  8
0
  5
1ECC
 10
150.900
 20
39.1869
 30
-8.70000e-15
  70
    32
  0
VERTEX
  8
0
  5
1ECD
 10
150.901
 20
39.1880
 30
-8.70000e-15
  70
    32
  0
VERTEX
  8
0
  5
1ECE
 10
150.902
 20
39.1891
 30
-8.70000e-15
  70
    32
  0
VERTEX
  8
0
  5
1ECF
 10
150.903
 20
39.1902
 30
-8.70000e-15
  70
    32
  0
VERTEX
  8
0
  5
1ED0
 10
150.904
 20
39.1913
 30
-8.70000e-15
  70
    32
  0
VERTEX
  8
0
  5
1ED1
 10
150.905
 20
39.1925
 30
-8.70000e-15
  70
    32
  0
VERTEX
  8
0
  5
1ED2
 10
150.906
 20
39.1936
 30
-8.70000e-15
  70
    32
  0
VERTEX
  8
0
  5
1ED3
 10
150.907
 20
39.1948
 30
-8.70000e-15
  70
    32
  0
VERTEX
  8
0
  5
1ED4
 10
150.908
 20
39.1960
 30
-8.70000e-15
  70
    32
  0
VERTEX
  8
0
  5
1ED5
 10
150.909
 20
39.1972
 30
-8.70000e-15
  70
    32
  0
VERTEX
  8
0
  5
1ED6
 10
150.910
 20
39.1984
 30
-8.70000e-15
  70
    32
  0
VERTEX
  8
0
  5
1ED7
 10
150.911
 20
39.1996
 30
-8.70000e-15
  70
    32
  0
VERTEX
  8
0
  5
1ED8
 10
150.912
 20
39.2009
 30
-8.70000e-15
  70
    32
  0
VERTEX
  8
0
  5
1ED9
 10
150.913
 20
39.2021
 30
-8.70000e-15
  70
    32
  0
VERTEX
  8
0
  5
1EDA
 10
150.915
 20
39.2034
 30
-8.70000e-15
  70
    32
  0
VERTEX
  8
0
  5
1EDB
 10
150.916
 20
39.2047
 30
-8.70000e-15
  70
    32
  0
VERTEX
  8
0
  5
1EDC
 10
150.917
 20
39.2060
 30
-8.70000e-15
  70
    32
  0
VERTEX
  8
0
  5
1EDD
 10
150.918
 20
39.2073
 30
-8.70000e-15
  70
    32
  0
VERTEX
  8
0
  5
1EDE
 10
150.919
 20
39.2087
 30
-8.70000e-15
  70
    32
  0
VERTEX
  8
0
  5
1EDF
 10
150.920
 20
39.2100
 30
-8.70000e-15
  70
    32
  0
VERTEX
  8
0
  5
1EE0
 10
150.921
 20
39.2114
 30
-8.70000e-15
  70
    32
  0
VERTEX
  8
0
  5
1EE1
 10
150.923
 20
39.2128
 30
-8.70000e-15
  70
    32
  0
VERTEX
  8
0
  5
1EE2
 10
150.924
 20
39.2142
 30
-8.70000e-15
  70
    32
  0
VERTEX
  8
0
  5
1EE3
 10
150.925
 20
39.2156
 30
-8.70000e-15
  70
    32
  0
VERTEX
  8
0
  5
1EE4
 10
150.926
 20
39.2171
 30
-8.70000e-15
  70
    32
  0
VERTEX
  8
0
  5
1EE5
 10
150.928
 20
39.2185
 30
-8.70000e-15
  70
    32
  0
VERTEX
  8
0
  5
1EE6
 10
150.929
 20
39.2200
 30
-8.70000e-15
  70
    32
  0
VERTEX
  8
0
  5
1EE7
 10
150.930
 20
39.2215
 30
-8.70000e-15
  70
    32
  0
VERTEX
  8
0
  5
1EE8
 10
150.931
 20
39.2230
 30
-8.70000e-15
  70
    32
  0
VERTEX
  8
0
  5
1EE9
 10
150.933
 20
39.2245
 30
-8.70000e-15
  70
    32
  0
VERTEX
  8
0
  5
1EEA
 10
150.934
 20
39.2260
 30
-8.70000e-15
  70
    32
  0
VERTEX
  8
0
  5
1EEB
 10
150.935
 20
39.2276
 30
-8.70000e-15
  70
    32
  0
VERTEX
  8
0
  5
1EEC
 10
150.937
 20
39.2291
 30
-8.70000e-15
  70
    32
  0
VERTEX
  8
0
  5
1EED
 10
150.938
 20
39.2307
 30
-8.70000e-15
  70
    32
  0
VERTEX
  8
0
  5
1EEE
 10
150.939
 20
39.2323
 30
-8.70000e-15
  70
    32
  0
VERTEX
  8
0
  5
1EEF
 10
150.941
 20
39.2339
 30
-8.70000e-15
  70
    32
  0
VERTEX
  8
0
  5
1EF0
 10
150.942
 20
39.2355
 30
-8.70000e-15
  70
    32
  0
VERTEX
  8
0
  5
1EF1
 10
150.944
 20
39.2372
 30
-8.70000e-15
  70
    32
  0
VERTEX
  8
0
  5
1EF2
 10
150.945
 20
39.2388
 30
-8.70000e-15
  70
    32
  0
VERTEX
  8
0
  5
1EF3
 10
150.946
 20
39.2405
 30
-8.70000e-15
  70
    32
  0
VERTEX
  8
0
  5
1EF4
 10
150.948
 20
39.2422
 30
-8.70000e-15
  70
    32
  0
VERTEX
  8
0
  5
1EF5
 10
150.949
 20
39.2439
 30
-8.70000e-15
  70
    32
  0
VERTEX
  8
0
  5
1EF6
 10
150.951
 20
39.2456
 30
-8.70000e-15
  70
    32
  0
VERTEX
  8
0
  5
1EF7
 10
150.952
 20
39.2474
 30
-8.70000e-15
  70
    32
  0
VERTEX
  8
0
  5
1EF8
 10
150.954
 20
39.2491
 30
-8.70000e-15
  70
    32
  0
VERTEX
  8
0
  5
1EF9
 10
150.955
 20
39.2509
 30
-8.70000e-15
  70
    32
  0
VERTEX
  8
0
  5
1EFA
 10
150.957
 20
39.2527
 30
-8.70000e-15
  70
    32
  0
VERTEX
  8
0
  5
1EFB
 10
150.958
 20
39.2545
 30
-8.70000e-15
  70
    32
  0
VERTEX
  8
0
  5
1EFC
 10
150.960
 20
39.2563
 30
-8.70003e-15
  70
    32
  0
VERTEX
  8
0
  5
1EFD
 10
150.961
 20
39.2581
 30
-8.70011e-15
  70
    32
  0
VERTEX
  8
0
  5
1EFE
 10
150.963
 20
39.2600
 30
-8.70022e-15
  70
    32
  0
VERTEX
  8
0
  5
1EFF
 10
150.965
 20
39.2618
 30
-8.70038e-15
  70
    32
  0
VERTEX
  8
0
  5
1F00
 10
150.966
 20
39.2637
 30
-8.70058e-15
  70
    32
  0
VERTEX
  8
0
  5
1F01
 10
150.968
 20
39.2656
 30
-8.70083e-15
  70
    32
  0
VERTEX
  8
0
  5
1F02
 10
150.970
 20
39.2675
 30
-8.70111e-15
  70
    32
  0
VERTEX
  8
0
  5
1F03
 10
150.971
 20
39.2695
 30
-8.70143e-15
  70
    32
  0
VERTEX
  8
0
  5
1F04
 10
150.973
 20
39.2714
 30
-8.70179e-15
  70
    32
  0
VERTEX
  8
0
  5
1F05
 10
150.975
 20
39.2734
 30
-8.70219e-15
  70
    32
  0
VERTEX
  8
0
  5
1F06
 10
150.976
 20
39.2753
 30
-8.70262e-15
  70
    32
  0
VERTEX
  8
0
  5
1F07
 10
150.978
 20
39.2773
 30
-8.70309e-15
  70
    32
  0
VERTEX
  8
0
  5
1F08
 10
150.980
 20
39.2793
 30
-8.70360e-15
  70
    32
  0
VERTEX
  8
0
  5
1F09
 10
150.981
 20
39.2814
 30
-8.70414e-15
  70
    32
  0
VERTEX
  8
0
  5
1F0A
 10
150.983
 20
39.2834
 30
-8.70471e-15
  70
    32
  0
VERTEX
  8
0
  5
1F0B
 10
150.985
 20
39.2855
 30
-8.70532e-15
  70
    32
  0
VERTEX
  8
0
  5
1F0C
 10
150.987
 20
39.2875
 30
-8.70596e-15
  70
    32
  0
VERTEX
  8
0
  5
1F0D
 10
150.989
 20
39.2896
 30
-8.70663e-15
  70
    32
  0
VERTEX
  8
0
  5
1F0E
 10
150.990
 20
39.2917
 30
-8.70733e-15
  70
    32
  0
VERTEX
  8
0
  5
1F0F
 10
150.992
 20
39.2938
 30
-8.70806e-15
  70
    32
  0
VERTEX
  8
0
  5
1F10
 10
150.994
 20
39.2960
 30
-8.70882e-15
  70
    32
  0
VERTEX
  8
0
  5
1F11
 10
150.996
 20
39.2981
 30
-8.70961e-15
  70
    32
  0
VERTEX
  8
0
  5
1F12
 10
150.998
 20
39.3003
 30
-8.71042e-15
  70
    32
  0
VERTEX
  8
0
  5
1F13
 10
151.000
 20
39.3025
 30
-8.71127e-15
  70
    32
  0
VERTEX
  8
0
  5
1F14
 10
151.001
 20
39.3047
 30
-8.71214e-15
  70
    32
  0
VERTEX
  8
0
  5
1F15
 10
151.003
 20
39.3069
 30
-8.71303e-15
  70
    32
  0
VERTEX
  8
0
  5
1F16
 10
151.005
 20
39.3091
 30
-8.71395e-15
  70
    32
  0
VERTEX
  8
0
  5
1F17
 10
151.007
 20
39.3113
 30
-8.71489e-15
  70
    32
  0
VERTEX
  8
0
  5
1F18
 10
151.009
 20
39.3136
 30
-8.71586e-15
  70
    32
  0
VERTEX
  8
0
  5
1F19
 10
151.011
 20
39.3159
 30
-8.71684e-15
  70
    32
  0
VERTEX
  8
0
  5
1F1A
 10
151.013
 20
39.3181
 30
-8.71785e-15
  70
    32
  0
VERTEX
  8
0
  5
1F1B
 10
151.015
 20
39.3204
 30
-8.71888e-15
  70
    32
  0
VERTEX
  8
0
  5
1F1C
 10
151.017
 20
39.3228
 30
-8.71993e-15
  70
    32
  0
VERTEX
  8
0
  5
1F1D
 10
151.019
 20
39.3251
 30
-8.72100e-15
  70
    32
  0
VERTEX
  8
0
  5
1F1E
 10
151.021
 20
39.3274
 30
-8.72209e-15
  70
    32
  0
VERTEX
  8
0
  5
1F1F
 10
151.023
 20
39.3298
 30
-8.72319e-15
  70
    32
  0
VERTEX
  8
0
  5
1F20
 10
151.025
 20
39.3322
 30
-8.72431e-15
  70
    32
  0
VERTEX
  8
0
  5
1F21
 10
151.027
 20
39.3346
 30
-8.72545e-15
  70
    32
  0
VERTEX
  8
0
  5
1F22
 10
151.029
 20
39.3370
 30
-8.72660e-15
  70
    32
  0
VERTEX
  8
0
  5
1F23
 10
151.031
 20
39.3394
 30
-8.72777e-15
  70
    32
  0
VERTEX
  8
0
  5
1F24
 10
151.033
 20
39.3418
 30
-8.72895e-15
  70
    32
  0
VERTEX
  8
0
  5
1F25
 10
151.035
 20
39.3443
 30
-8.73015e-15
  70
    32
  0
VERTEX
  8
0
  5
1F26
 10
151.038
 20
39.3468
 30
-8.73135e-15
  70
    32
  0
VERTEX
  8
0
  5
1F27
 10
151.040
 20
39.3493
 30
-8.73257e-15
  70
    32
  0
VERTEX
  8
0
  5
1F28
 10
151.042
 20
39.3518
 30
-8.73380e-15
  70
    32
  0
VERTEX
  8
0
  5
1F29
 10
151.044
 20
39.3543
 30
-8.73503e-15
  70
    32
  0
VERTEX
  8
0
  5
1F2A
 10
151.046
 20
39.3568
 30
-8.73628e-15
  70
    32
  0
VERTEX
  8
0
  5
1F2B
 10
151.048
 20
39.3593
 30
-8.73753e-15
  70
    32
  0
VERTEX
  8
0
  5
1F2C
 10
151.051
 20
39.3619
 30
-8.73880e-15
  70
    32
  0
VERTEX
  8
0
  5
1F2D
 10
151.053
 20
39.3645
 30
-8.74007e-15
  70
    32
  0
VERTEX
  8
0
  5
1F2E
 10
151.055
 20
39.3671
 30
-8.74134e-15
  70
    32
  0
VERTEX
  8
0
  5
1F2F
 10
151.057
 20
39.3697
 30
-8.74262e-15
  70
    32
  0
VERTEX
  8
0
  5
1F30
 10
151.059
 20
39.3723
 30
-8.74391e-15
  70
    32
  0
VERTEX
  8
0
  5
1F31
 10
151.062
 20
39.3749
 30
-8.74519e-15
  70
    32
  0
VERTEX
  8
0
  5
1F32
 10
151.064
 20
39.3776
 30
-8.74649e-15
  70
    32
  0
VERTEX
  8
0
  5
1F33
 10
151.066
 20
39.3802
 30
-8.74778e-15
  70
    32
  0
VERTEX
  8
0
  5
1F34
 10
151.069
 20
39.3829
 30
-8.74907e-15
  70
    32
  0
VERTEX
  8
0
  5
1F35
 10
151.071
 20
39.3856
 30
-8.75037e-15
  70
    32
  0
VERTEX
  8
0
  5
1F36
 10
151.073
 20
39.3883
 30
-8.75166e-15
  70
    32
  0
VERTEX
  8
0
  5
1F37
 10
151.076
 20
39.3910
 30
-8.75296e-15
  70
    32
  0
VERTEX
  8
0
  5
1F38
 10
151.078
 20
39.3937
 30
-8.75425e-15
  70
    32
  0
VERTEX
  8
0
  5
1F39
 10
151.080
 20
39.3965
 30
-8.75554e-15
  70
    32
  0
VERTEX
  8
0
  5
1F3A
 10
151.083
 20
39.3993
 30
-8.75683e-15
  70
    32
  0
VERTEX
  8
0
  5
1F3B
 10
151.085
 20
39.4020
 30
-8.75811e-15
  70
    32
  0
VERTEX
  8
0
  5
1F3C
 10
151.087
 20
39.4048
 30
-8.75939e-15
  70
    32
  0
VERTEX
  8
0
  5
1F3D
 10
151.090
 20
39.4076
 30
-8.76066e-15
  70
    32
  0
VERTEX
  8
0
  5
1F3E
 10
151.092
 20
39.4105
 30
-8.76192e-15
  70
    32
  0
VERTEX
  8
0
  5
1F3F
 10
151.095
 20
39.4133
 30
-8.76318e-15
  70
    32
  0
VERTEX
  8
0
  5
1F40
 10
151.097
 20
39.4162
 30
-8.76443e-15
  70
    32
  0
VERTEX
  8
0
  5
1F41
 10
151.100
 20
39.4190
 30
-8.76567e-15
  70
    32
  0
VERTEX
  8
0
  5
1F42
 10
151.102
 20
39.4219
 30
-8.76690e-15
  70
    32
  0
VERTEX
  8
0
  5
1F43
 10
151.105
 20
39.4248
 30
-8.76813e-15
  70
    32
  0
VERTEX
  8
0
  5
1F44
 10
151.107
 20
39.4277
 30
-8.76934e-15
  70
    32
  0
VERTEX
  8
0
  5
1F45
 10
151.110
 20
39.4306
 30
-8.77054e-15
  70
    32
  0
VERTEX
  8
0
  5
1F46
 10
151.112
 20
39.4336
 30
-8.77172e-15
  70
    32
  0
VERTEX
  8
0
  5
1F47
 10
151.115
 20
39.4365
 30
-8.77290e-15
  70
    32
  0
VERTEX
  8
0
  5
1F48
 10
151.117
 20
39.4395
 30
-8.77405e-15
  70
    32
  0
VERTEX
  8
0
  5
1F49
 10
151.120
 20
39.4425
 30
-8.77520e-15
  70
    32
  0
VERTEX
  8
0
  5
1F4A
 10
151.122
 20
39.4455
 30
-8.77633e-15
  70
    32
  0
VERTEX
  8
0
  5
1F4B
 10
151.125
 20
39.4485
 30
-8.77744e-15
  70
    32
  0
VERTEX
  8
0
  5
1F4C
 10
151.128
 20
39.4515
 30
-8.77853e-15
  70
    32
  0
VERTEX
  8
0
  5
1F4D
 10
151.130
 20
39.4545
 30
-8.77961e-15
  70
    32
  0
VERTEX
  8
0
  5
1F4E
 10
151.133
 20
39.4576
 30
-8.78067e-15
  70
    32
  0
VERTEX
  8
0
  5
1F4F
 10
151.136
 20
39.4606
 30
-8.78171e-15
  70
    32
  0
VERTEX
  8
0
  5
1F50
 10
151.138
 20
39.4637
 30
-8.78272e-15
  70
    32
  0
VERTEX
  8
0
  5
1F51
 10
151.141
 20
39.4668
 30
-8.78372e-15
  70
    32
  0
VERTEX
  8
0
  5
1F52
 10
151.144
 20
39.4699
 30
-8.78470e-15
  70
    32
  0
VERTEX
  8
0
  5
1F53
 10
151.146
 20
39.4731
 30
-8.78565e-15
  70
    32
  0
VERTEX
  8
0
  5
1F54
 10
151.149
 20
39.4762
 30
-8.78658e-15
  70
    32
  0
VERTEX
  8
0
  5
1F55
 10
151.152
 20
39.4793
 30
-8.78748e-15
  70
    32
  0
VERTEX
  8
0
  5
1F56
 10
151.154
 20
39.4825
 30
-8.78836e-15
  70
    32
  0
VERTEX
  8
0
  5
1F57
 10
151.157
 20
39.4857
 30
-8.78922e-15
  70
    32
  0
VERTEX
  8
0
  5
1F58
 10
151.160
 20
39.4889
 30
-8.79005e-15
  70
    32
  0
VERTEX
  8
0
  5
1F59
 10
151.163
 20
39.4921
 30
-8.79085e-15
  70
    32
  0
VERTEX
  8
0
  5
1F5A
 10
151.165
 20
39.4953
 30
-8.79162e-15
  70
    32
  0
VERTEX
  8
0
  5
1F5B
 10
151.168
 20
39.4985
 30
-8.79236e-15
  70
    32
  0
VERTEX
  8
0
  5
1F5C
 10
151.171
 20
39.5018
 30
-8.79308e-15
  70
    32
  0
VERTEX
  8
0
  5
1F5D
 10
151.174
 20
39.5050
 30
-8.79376e-15
  70
    32
  0
VERTEX
  8
0
  5
1F5E
 10
151.177
 20
39.5083
 30
-8.79441e-15
  70
    32
  0
VERTEX
  8
0
  5
1F5F
 10
151.179
 20
39.5116
 30
-8.79503e-15
  70
    32
  0
VERTEX
  8
0
  5
1F60
 10
151.182
 20
39.5149
 30
-8.79562e-15
  70
    32
  0
VERTEX
  8
0
  5
1F61
 10
151.185
 20
39.5182
 30
-8.79618e-15
  70
    32
  0
VERTEX
  8
0
  5
1F62
 10
151.188
 20
39.5216
 30
-8.79670e-15
  70
    32
  0
VERTEX
  8
0
  5
1F63
 10
151.191
 20
39.5249
 30
-8.79718e-15
  70
    32
  0
VERTEX
  8
0
  5
1F64
 10
151.194
 20
39.5283
 30
-8.79763e-15
  70
    32
  0
VERTEX
  8
0
  5
1F65
 10
151.197
 20
39.5316
 30
-8.79804e-15
  70
    32
  0
VERTEX
  8
0
  5
1F66
 10
151.200
 20
39.5350
 30
-8.79842e-15
  70
    32
  0
VERTEX
  8
0
  5
1F67
 10
151.203
 20
39.5384
 30
-8.79876e-15
  70
    32
  0
VERTEX
  8
0
  5
1F68
 10
151.205
 20
39.5418
 30
-8.79906e-15
  70
    32
  0
VERTEX
  8
0
  5
1F69
 10
151.208
 20
39.5452
 30
-8.79932e-15
  70
    32
  0
VERTEX
  8
0
  5
1F6A
 10
151.211
 20
39.5487
 30
-8.79954e-15
  70
    32
  0
VERTEX
  8
0
  5
1F6B
 10
151.214
 20
39.5521
 30
-8.79971e-15
  70
    32
  0
VERTEX
  8
0
  5
1F6C
 10
151.217
 20
39.5556
 30
-8.79985e-15
  70
    32
  0
VERTEX
  8
0
  5
1F6D
 10
151.220
 20
39.5591
 30
-8.79994e-15
  70
    32
  0
VERTEX
  8
0
  5
1F6E
 10
151.223
 20
39.5626
 30
-8.79999e-15
  70
    32
  0
VERTEX
  8
0
  5
1F6F
 10
151.226
 20
39.5661
 30
-8.80000e-15
  70
    32
  0
VERTEX
  8
0
  5
1F70
 10
151.229
 20
39.5696
 30
-8.80000e-15
  70
    32
  0
VERTEX
  8
0
  5
1F71
 10
151.232
 20
39.5731
 30
-8.80000e-15
  70
    32
  0
VERTEX
  8
0
  5
1F72
 10
151.236
 20
39.5767
 30
-8.80000e-15
  70
    32
  0
VERTEX
  8
0
  5
1F73
 10
151.239
 20
39.5802
 30
-8.80000e-15
  70
    32
  0
VERTEX
  8
0
  5
1F74
 10
151.242
 20
39.5838
 30
-8.80000e-15
  70
    32
  0
VERTEX
  8
0
  5
1F75
 10
151.245
 20
39.5874
 30
-8.80000e-15
  70
    32
  0
VERTEX
  8
0
  5
1F76
 10
151.248
 20
39.5910
 30
-8.80000e-15
  70
    32
  0
VERTEX
  8
0
  5
1F77
 10
151.251
 20
39.5946
 30
-8.80000e-15
  70
    32
  0
VERTEX
  8
0
  5
1F78
 10
151.254
 20
39.5982
 30
-8.80000e-15
  70
    32
  0
VERTEX
  8
0
  5
1F79
 10
151.257
 20
39.6019
 30
-8.80000e-15
  70
    32
  0
VERTEX
  8
0
  5
1F7A
 10
151.260
 20
39.6055
 30
-8.80000e-15
  70
    32
  0
VERTEX
  8
0
  5
1F7B
 10
151.264
 20
39.6092
 30
-8.80000e-15
  70
    32
  0
VERTEX
  8
0
  5
1F7C
 10
151.267
 20
39.6129
 30
-8.80000e-15
  70
    32
  0
VERTEX
  8
0
  5
1F7D
 10
151.270
 20
39.6166
 30
-8.80000e-15
  70
    32
  0
VERTEX
  8
0
  5
1F7E
 10
151.273
 20
39.6203
 30
-8.80000e-15
  70
    32
  0
VERTEX
  8
0
  5
1F7F
 10
151.276
 20
39.6240
 30
-8.80000e-15
  70
    32
  0
VERTEX
  8
0
  5
1F80
 10
151.280
 20
39.6277
 30
-8.80000e-15
  70
    32
  0
VERTEX
  8
0
  5
1F81
 10
151.283
 20
39.6315
 30
-8.80000e-15
  70
    32
  0
VERTEX
  8
0
  5
1F82
 10
151.286
 20
39.6352
 30
-8.80000e-15
  70
    32
  0
VERTEX
  8
0
  5
1F83
 10
151.289
 20
39.6390
 30
-8.80000e-15
  70
    32
  0
VERTEX
  8
0
  5
1F84
 10
151.293
 20
39.6428
 30
-8.80000e-15
  70
    32
  0
VERTEX
  8
0
  5
1F85
 10
151.296
 20
39.6465
 30
-8.80000e-15
  70
    32
  0
VERTEX
  8
0
  5
1F86
 10
151.299
 20
39.6503
 30
-8.80000e-15
  70
    32
  0
SEQEND
  8
0
  5
1F87
  0
POLYLINE
  8
0
  5
1F88
  66
     1
 10
0.000000
 20
0.000000
 30
0.000000
  70
     8
  0
VERTEX
  8
0
  5
1F89
 10
97.3691
 20
39.1503
 30
-8.70000e-15
  70
    32
  0
VERTEX
  8
0
  5
1F8A
 10
97.3584
 20
39.1504
 30
-8.70000e-15
  70
    32
  0
VERTEX
  8
0
  5
1F8B
 10
97.3477
 20
39.1504
 30
-8.70000e-15
  70
    32
  0
VERTEX
  8
0
  5
1F8C
 10
97.3370
 20
39.1504
 30
-8.70000e-15
  70
    32
  0
VERTEX
  8
0
  5
1F8D
 10
97.3262
 20
39.1505
 30
-8.70000e-15
  70
    32
  0
VERTEX
  8
0
  5
1F8E
 10
97.3155
 20
39.1505
 30
-8.70000e-15
  70
    32
  0
VERTEX
  8
0
  5
1F8F
 10
97.3047
 20
39.1506
 30
-8.70000e-15
  70
    32
  0
VERTEX
  8
0
  5
1F90
 10
97.2940
 20
39.1507
 30
-8.70000e-15
  70
    32
  0
VERTEX
  8
0
  5
1F91
 10
97.2832
 20
39.1508
 30
-8.70000e-15
  70
    32
  0
VERTEX
  8
0
  5
1F92
 10
97.2724
 20
39.1510
 30
-8.70000e-15
  70
    32
  0
VERTEX
  8
0
  5
1F93
 10
97.2617
 20
39.1511
 30
-8.70000e-15
  70
    32
  0
VERTEX
  8
0
  5
1F94
 10
97.2509
 20
39.1513
 30
-8.70000e-15
  70
    32
  0
VERTEX
  8
0
  5
1F95
 10
97.2401
 20
39.1514
 30
-8.70000e-15
  70
    32
  0
VERTEX
  8
0
  5
1F96
 10
97.2293
 20
39.1516
 30
-8.70000e-15
  70
    32
  0
VERTEX
  8
0
  5
1F97
 10
97.2186
 20
39.1518
 30
-8.70000e-15
  70
    32
  0
VERTEX
  8
0
  5
1F98
 10
97.2078
 20
39.1521
 30
-8.70000e-15
  70
    32
  0
VERTEX
  8
0
  5
1F99
 10
97.1970
 20
39.1523
 30
-8.70000e-15
  70
    32
  0
VERTEX
  8
0
  5
1F9A
 10
97.1862
 20
39.1526
 30
-8.70000e-15
  70
    32
  0
VERTEX
  8
0
  5
1F9B
 10
97.1754
 20
39.1528
 30
-8.70000e-15
  70
    32
  0
VERTEX
  8
0
  5
1F9C
 10
97.1645
 20
39.1531
 30
-8.70000e-15
  70
    32
  0
VERTEX
  8
0
  5
1F9D
 10
97.1537
 20
39.1534
 30
-8.70000e-15
  70
    32
  0
VERTEX
  8
0
  5
1F9E
 10
97.1429
 20
39.1537
 30
-8.70000e-15
  70
    32
  0
VERTEX
  8
0
  5
1F9F
 10
97.1321
 20
39.1540
 30
-8.70000e-15
  70
    32
  0
VERTEX
  8
0
  5
1FA0
 10
97.1213
 20
39.1544
 30
-8.70000e-15
  70
    32
  0
VERTEX
  8
0
  5
1FA1
 10
97.1104
 20
39.1547
 30
-8.70000e-15
  70
    32
  0
VERTEX
  8
0
  5
1FA2
 10
97.0996
 20
39.1551
 30
-8.70000e-15
  70
    32
  0
VERTEX
  8
0
  5
1FA3
 10
97.0888
 20
39.1555
 30
-8.70000e-15
  70
    32
  0
VERTEX
  8
0
  5
1FA4
 10
97.0779
 20
39.1559
 30
-8.70000e-15
  70
    32
  0
VERTEX
  8
0
  5
1FA5
 10
97.0671
 20
39.1563
 30
-8.70000e-15
  70
    32
  0
VERTEX
  8
0
  5
1FA6
 10
97.0562
 20
39.1568
 30
-8.70000e-15
  70
    32
  0
VERTEX
  8
0
  5
1FA7
 10
97.0454
 20
39.1572
 30
-8.70000e-15
  70
    32
  0
VERTEX
  8
0
  5
1FA8
 10
97.0345
 20
39.1577
 30
-8.70000e-15
  70
    32
  0
VERTEX
  8
0
  5
1FA9
 10
97.0237
 20
39.1582
 30
-8.70000e-15
  70
    32
  0
VERTEX
  8
0
  5
1FAA
 10
97.0128
 20
39.1587
 30
-8.70000e-15
  70
    32
  0
VERTEX
  8
0
  5
1FAB
 10
97.0019
 20
39.1592
 30
-8.70000e-15
  70
    32
  0
VERTEX
  8
0
  5
1FAC
 10
96.9911
 20
39.1597
 30
-8.70000e-15
  70
    32
  0
VERTEX
  8
0
  5
1FAD
 10
96.9802
 20
39.1603
 30
-8.70000e-15
  70
    32
  0
VERTEX
  8
0
  5
1FAE
 10
96.9693
 20
39.1608
 30
-8.70000e-15
  70
    32
  0
VERTEX
  8
0
  5
1FAF
 10
96.9584
 20
39.1614
 30
-8.70000e-15
  70
    32
  0
VERTEX
  8
0
  5
1FB0
 10
96.9476
 20
39.1620
 30
-8.70000e-15
  70
    32
  0
VERTEX
  8
0
  5
1FB1
 10
96.9367
 20
39.1626
 30
-8.70000e-15
  70
    32
  0
VERTEX
  8
0
  5
1FB2
 10
96.9258
 20
39.1632
 30
-8.70000e-15
  70
    32
  0
VERTEX
  8
0
  5
1FB3
 10
96.9149
 20
39.1639
 30
-8.70000e-15
  70
    32
  0
VERTEX
  8
0
  5
1FB4
 10
96.9040
 20
39.1645
 30
-8.70000e-15
  70
    32
  0
VERTEX
  8
0
  5
1FB5
 10
96.8931
 20
39.1652
 30
-8.70000e-15
  70
    32
  0
VERTEX
  8
0
  5
1FB6
 10
96.8822
 20
39.1659
 30
-8.70000e-15
  70
    32
  0
VERTEX
  8
0
  5
1FB7
 10
96.8713
 20
39.1666
 30
-8.70000e-15
  70
    32
  0
VERTEX
  8
0
  5
1FB8
 10
96.8604
 20
39.1673
 30
-8.70000e-15
  70
    32
  0
VERTEX
  8
0
  5
1FB9
 10
96.8495
 20
39.1680
 30
-8.70000e-15
  70
    32
  0
VERTEX
  8
0
  5
1FBA
 10
96.8386
 20
39.1687
 30
-8.70000e-15
  70
    32
  0
VERTEX
  8
0
  5
1FBB
 10
96.8277
 20
39.1695
 30
-8.70000e-15
  70
    32
  0
VERTEX
  8
0
  5
1FBC
 10
96.8168
 20
39.1703
 30
-8.70000e-15
  70
    32
  0
VERTEX
  8
0
  5
1FBD
 10
96.8058
 20
39.1711
 30
-8.70000e-15
  70
    32
  0
VERTEX
  8
0
  5
1FBE
 10
96.7949
 20
39.1719
 30
-8.70000e-15
  70
    32
  0
VERTEX
  8
0
  5
1FBF
 10
96.7840
 20
39.1727
 30
-8.70000e-15
  70
    32
  0
VERTEX
  8
0
  5
1FC0
 10
96.7731
 20
39.1736
 30
-8.70000e-15
  70
    32
  0
VERTEX
  8
0
  5
1FC1
 10
96.7622
 20
39.1744
 30
-8.70000e-15
  70
    32
  0
VERTEX
  8
0
  5
1FC2
 10
96.7512
 20
39.1753
 30
-8.70000e-15
  70
    32
  0
VERTEX
  8
0
  5
1FC3
 10
96.7403
 20
39.1762
 30
-8.70000e-15
  70
    32
  0
VERTEX
  8
0
  5
1FC4
 10
96.7294
 20
39.1771
 30
-8.70000e-15
  70
    32
  0
VERTEX
  8
0
  5
1FC5
 10
96.7184
 20
39.1780
 30
-8.70000e-15
  70
    32
  0
VERTEX
  8
0
  5
1FC6
 10
96.7075
 20
39.1789
 30
-8.70000e-15
  70
    32
  0
VERTEX
  8
0
  5
1FC7
 10
96.6966
 20
39.1799
 30
-8.70000e-15
  70
    32
  0
VERTEX
  8
0
  5
1FC8
 10
96.6856
 20
39.1808
 30
-8.70000e-15
  70
    32
  0
VERTEX
  8
0
  5
1FC9
 10
96.6747
 20
39.1818
 30
-8.70000e-15
  70
    32
  0
VERTEX
  8
0
  5
1FCA
 10
96.6637
 20
39.1828
 30
-8.70000e-15
  70
    32
  0
VERTEX
  8
0
  5
1FCB
 10
96.6528
 20
39.1838
 30
-8.70000e-15
  70
    32
  0
VERTEX
  8
0
  5
1FCC
 10
96.6419
 20
39.1848
 30
-8.70000e-15
  70
    32
  0
VERTEX
  8
0
  5
1FCD
 10
96.6309
 20
39.1859
 30
-8.70000e-15
  70
    32
  0
VERTEX
  8
0
  5
1FCE
 10
96.6200
 20
39.1869
 30
-8.70000e-15
  70
    32
  0
VERTEX
  8
0
  5
1FCF
 10
96.6090
 20
39.1880
 30
-8.70000e-15
  70
    32
  0
VERTEX
  8
0
  5
1FD0
 10
96.5981
 20
39.1891
 30
-8.70000e-15
  70
    32
  0
VERTEX
  8
0
  5
1FD1
 10
96.5871
 20
39.1902
 30
-8.70000e-15
  70
    32
  0
VERTEX
  8
0
  5
1FD2
 10
96.5762
 20
39.1913
 30
-8.70000e-15
  70
    32
  0
VERTEX
  8
0
  5
1FD3
 10
96.5652
 20
39.1925
 30
-8.70000e-15
  70
    32
  0
VERTEX
  8
0
  5
1FD4
 10
96.5543
 20
39.1936
 30
-8.70000e-15
  70
    32
  0
VERTEX
  8
0
  5
1FD5
 10
96.5433
 20
39.1948
 30
-8.70000e-15
  70
    32
  0
VERTEX
  8
0
  5
1FD6
 10
96.5323
 20
39.1960
 30
-8.70000e-15
  70
    32
  0
VERTEX
  8
0
  5
1FD7
 10
96.5214
 20
39.1972
 30
-8.70000e-15
  70
    32
  0
VERTEX
  8
0
  5
1FD8
 10
96.5104
 20
39.1984
 30
-8.70000e-15
  70
    32
  0
VERTEX
  8
0
  5
1FD9
 10
96.4995
 20
39.1996
 30
-8.70000e-15
  70
    32
  0
VERTEX
  8
0
  5
1FDA
 10
96.4885
 20
39.2009
 30
-8.70000e-15
  70
    32
  0
VERTEX
  8
0
  5
1FDB
 10
96.4775
 20
39.2021
 30
-8.70000e-15
  70
    32
  0
VERTEX
  8
0
  5
1FDC
 10
96.4666
 20
39.2034
 30
-8.70000e-15
  70
    32
  0
VERTEX
  8
0
  5
1FDD
 10
96.4556
 20
39.2047
 30
-8.70000e-15
  70
    32
  0
VERTEX
  8
0
  5
1FDE
 10
96.4447
 20
39.2060
 30
-8.70000e-15
  70
    32
  0
VERTEX
  8
0
  5
1FDF
 10
96.4337
 20
39.2073
 30
-8.70000e-15
  70
    32
  0
VERTEX
  8
0
  5
1FE0
 10
96.4227
 20
39.2087
 30
-8.70000e-15
  70
    32
  0
VERTEX
  8
0
  5
1FE1
 10
96.4118
 20
39.2100
 30
-8.70000e-15
  70
    32
  0
VERTEX
  8
0
  5
1FE2
 10
96.4008
 20
39.2114
 30
-8.70000e-15
  70
    32
  0
VERTEX
  8
0
  5
1FE3
 10
96.3899
 20
39.2128
 30
-8.70000e-15
  70
    32
  0
VERTEX
  8
0
  5
1FE4
 10
96.3789
 20
39.2142
 30
-8.70000e-15
  70
    32
  0
VERTEX
  8
0
  5
1FE5
 10
96.3679
 20
39.2156
 30
-8.70000e-15
  70
    32
  0
VERTEX
  8
0
  5
1FE6
 10
96.3570
 20
39.2171
 30
-8.70000e-15
  70
    32
  0
VERTEX
  8
0
  5
1FE7
 10
96.3460
 20
39.2185
 30
-8.70000e-15
  70
    32
  0
VERTEX
  8
0
  5
1FE8
 10
96.3351
 20
39.2200
 30
-8.70000e-15
  70
    32
  0
VERTEX
  8
0
  5
1FE9
 10
96.3241
 20
39.2215
 30
-8.70000e-15
  70
    32
  0
VERTEX
  8
0
  5
1FEA
 10
96.3131
 20
39.2230
 30
-8.70000e-15
  70
    32
  0
VERTEX
  8
0
  5
1FEB
 10
96.3022
 20
39.2245
 30
-8.70000e-15
  70
    32
  0
VERTEX
  8
0
  5
1FEC
 10
96.2912
 20
39.2260
 30
-8.70000e-15
  70
    32
  0
VERTEX
  8
0
  5
1FED
 10
96.2802
 20
39.2276
 30
-8.70000e-15
  70
    32
  0
VERTEX
  8
0
  5
1FEE
 10
96.2693
 20
39.2291
 30
-8.70000e-15
  70
    32
  0
VERTEX
  8
0
  5
1FEF
 10
96.2583
 20
39.2307
 30
-8.70000e-15
  70
    32
  0
VERTEX
  8
0
  5
1FF0
 10
96.2474
 20
39.2323
 30
-8.70000e-15
  70
    32
  0
VERTEX
  8
0
  5
1FF1
 10
96.2364
 20
39.2339
 30
-8.70000e-15
  70
    32
  0
VERTEX
  8
0
  5
1FF2
 10
96.2255
 20
39.2355
 30
-8.70000e-15
  70
    32
  0
VERTEX
  8
0
  5
1FF3
 10
96.2145
 20
39.2372
 30
-8.70000e-15
  70
    32
  0
VERTEX
  8
0
  5
1FF4
 10
96.2035
 20
39.2388
 30
-8.70000e-15
  70
    32
  0
VERTEX
  8
0
  5
1FF5
 10
96.1926
 20
39.2405
 30
-8.70000e-15
  70
    32
  0
VERTEX
  8
0
  5
1FF6
 10
96.1816
 20
39.2422
 30
-8.70000e-15
  70
    32
  0
VERTEX
  8
0
  5
1FF7
 10
96.1707
 20
39.2439
 30
-8.70000e-15
  70
    32
  0
VERTEX
  8
0
  5
1FF8
 10
96.1597
 20
39.2456
 30
-8.70000e-15
  70
    32
  0
VERTEX
  8
0
  5
1FF9
 10
96.1488
 20
39.2474
 30
-8.70000e-15
  70
    32
  0
VERTEX
  8
0
  5
1FFA
 10
96.1378
 20
39.2491
 30
-8.70000e-15
  70
    32
  0
VERTEX
  8
0
  5
1FFB
 10
96.1269
 20
39.2509
 30
-8.70000e-15
  70
    32
  0
VERTEX
  8
0
  5
1FFC
 10
96.1160
 20
39.2527
 30
-8.70000e-15
  70
    32
  0
VERTEX
  8
0
  5
1FFD
 10
96.1050
 20
39.2545
 30
-8.70000e-15
  70
    32
  0
VERTEX
  8
0
  5
1FFE
 10
96.0941
 20
39.2563
 30
-8.70003e-15
  70
    32
  0
VERTEX
  8
0
  5
1FFF
 10
96.0831
 20
39.2581
 30
-8.70011e-15
  70
    32
  0
VERTEX
  8
0
  5
2000
 10
96.0722
 20
39.2600
 30
-8.70022e-15
  70
    32
  0
VERTEX
  8
0
  5
2001
 10
96.0612
 20
39.2618
 30
-8.70038e-15
  70
    32
  0
VERTEX
  8
0
  5
2002
 10
96.0503
 20
39.2637
 30
-8.70058e-15
  70
    32
  0
VERTEX
  8
0
  5
2003
 10
96.0394
 20
39.2656
 30
-8.70083e-15
  70
    32
  0
VERTEX
  8
0
  5
2004
 10
96.0284
 20
39.2675
 30
-8.70111e-15
  70
    32
  0
VERTEX
  8
0
  5
2005
 10
96.0175
 20
39.2695
 30
-8.70143e-15
  70
    32
  0
VERTEX
  8
0
  5
2006
 10
96.0066
 20
39.2714
 30
-8.70179e-15
  70
    32
  0
VERTEX
  8
0
  5
2007
 10
95.9957
 20
39.2734
 30
-8.70219e-15
  70
    32
  0
VERTEX
  8
0
  5
2008
 10
95.9847
 20
39.2753
 30
-8.70262e-15
  70
    32
  0
VERTEX
  8
0
  5
2009
 10
95.9738
 20
39.2773
 30
-8.70309e-15
  70
    32
  0
VERTEX
  8
0
  5
200A
 10
95.9629
 20
39.2793
 30
-8.70360e-15
  70
    32
  0
VERTEX
  8
0
  5
200B
 10
95.9520
 20
39.2814
 30
-8.70414e-15
  70
    32
  0
VERTEX
  8
0
  5
200C
 10
95.9410
 20
39.2834
 30
-8.70471e-15
  70
    32
  0
VERTEX
  8
0
  5
200D
 10
95.9301
 20
39.2855
 30
-8.70532e-15
  70
    32
  0
VERTEX
  8
0
  5
200E
 10
95.9192
 20
39.2875
 30
-8.70596e-15
  70
    32
  0
VERTEX
  8
0
  5
200F
 10
95.9083
 20
39.2896
 30
-8.70663e-15
  70
    32
  0
VERTEX
  8
0
  5
2010
 10
95.8974
 20
39.2917
 30
-8.70733e-15
  70
    32
  0
VERTEX
  8
0
  5
2011
 10
95.8865
 20
39.2938
 30
-8.70806e-15
  70
    32
  0
VERTEX
  8
0
  5
2012
 10
95.8756
 20
39.2960
 30
-8.70882e-15
  70
    32
  0
VERTEX
  8
0
  5
2013
 10
95.8647
 20
39.2981
 30
-8.70961e-15
  70
    32
  0
VERTEX
  8
0
  5
2014
 10
95.8538
 20
39.3003
 30
-8.71042e-15
  70
    32
  0
VERTEX
  8
0
  5
2015
 10
95.8429
 20
39.3025
 30
-8.71127e-15
  70
    32
  0
VERTEX
  8
0
  5
2016
 10
95.8320
 20
39.3047
 30
-8.71214e-15
  70
    32
  0
VERTEX
  8
0
  5
2017
 10
95.8211
 20
39.3069
 30
-8.71303e-15
  70
    32
  0
VERTEX
  8
0
  5
2018
 10
95.8102
 20
39.3091
 30
-8.71395e-15
  70
    32
  0
VERTEX
  8
0
  5
2019
 10
95.7993
 20
39.3113
 30
-8.71489e-15
  70
    32
  0
VERTEX
  8
0
  5
201A
 10
95.7885
 20
39.3136
 30
-8.71586e-15
  70
    32
  0
VERTEX
  8
0
  5
201B
 10
95.7776
 20
39.3159
 30
-8.71684e-15
  70
    32
  0
VERTEX
  8
0
  5
201C
 10
95.7667
 20
39.3181
 30
-8.71785e-15
  70
    32
  0
VERTEX
  8
0
  5
201D
 10
95.7558
 20
39.3204
 30
-8.71888e-15
  70
    32
  0
VERTEX
  8
0
  5
201E
 10
95.7450
 20
39.3228
 30
-8.71993e-15
  70
    32
  0
VERTEX
  8
0
  5
201F
 10
95.7341
 20
39.3251
 30
-8.72100e-15
  70
    32
  0
VERTEX
  8
0
  5
2020
 10
95.7232
 20
39.3274
 30
-8.72209e-15
  70
    32
  0
VERTEX
  8
0
  5
2021
 10
95.7124
 20
39.3298
 30
-8.72319e-15
  70
    32
  0
VERTEX
  8
0
  5
2022
 10
95.7015
 20
39.3322
 30
-8.72431e-15
  70
    32
  0
VERTEX
  8
0
  5
2023
 10
95.6907
 20
39.3346
 30
-8.72545e-15
  70
    32
  0
VERTEX
  8
0
  5
2024
 10
95.6798
 20
39.3370
 30
-8.72660e-15
  70
    32
  0
VERTEX
  8
0
  5
2025
 10
95.6690
 20
39.3394
 30
-8.72777e-15
  70
    32
  0
VERTEX
  8
0
  5
2026
 10
95.6581
 20
39.3418
 30
-8.72895e-15
  70
    32
  0
VERTEX
  8
0
  5
2027
 10
95.6473
 20
39.3443
 30
-8.73015e-15
  70
    32
  0
VERTEX
  8
0
  5
2028
 10
95.6365
 20
39.3468
 30
-8.73135e-15
  70
    32
  0
VERTEX
  8
0
  5
2029
 10
95.6256
 20
39.3493
 30
-8.73257e-15
  70
    32
  0
VERTEX
  8
0
  5
202A
 10
95.6148
 20
39.3518
 30
-8.73380e-15
  70
    32
  0
VERTEX
  8
0
  5
202B
 10
95.6040
 20
39.3543
 30
-8.73503e-15
  70
    32
  0
VERTEX
  8
0
  5
202C
 10
95.5932
 20
39.3568
 30
-8.73628e-15
  70
    32
  0
VERTEX
  8
0
  5
202D
 10
95.5823
 20
39.3593
 30
-8.73753e-15
  70
    32
  0
VERTEX
  8
0
  5
202E
 10
95.5715
 20
39.3619
 30
-8.73880e-15
  70
    32
  0
VERTEX
  8
0
  5
202F
 10
95.5607
 20
39.3645
 30
-8.74007e-15
  70
    32
  0
VERTEX
  8
0
  5
2030
 10
95.5499
 20
39.3671
 30
-8.74134e-15
  70
    32
  0
VERTEX
  8
0
  5
2031
 10
95.5391
 20
39.3697
 30
-8.74262e-15
  70
    32
  0
VERTEX
  8
0
  5
2032
 10
95.5283
 20
39.3723
 30
-8.74391e-15
  70
    32
  0
VERTEX
  8
0
  5
2033
 10
95.5175
 20
39.3749
 30
-8.74519e-15
  70
    32
  0
VERTEX
  8
0
  5
2034
 10
95.5067
 20
39.3776
 30
-8.74649e-15
  70
    32
  0
VERTEX
  8
0
  5
2035
 10
95.4959
 20
39.3802
 30
-8.74778e-15
  70
    32
  0
VERTEX
  8
0
  5
2036
 10
95.4852
 20
39.3829
 30
-8.74907e-15
  70
    32
  0
VERTEX
  8
0
  5
2037
 10
95.4744
 20
39.3856
 30
-8.75037e-15
  70
    32
  0
VERTEX
  8
0
  5
2038
 10
95.4636
 20
39.3883
 30
-8.75166e-15
  70
    32
  0
VERTEX
  8
0
  5
2039
 10
95.4529
 20
39.3910
 30
-8.75296e-15
  70
    32
  0
VERTEX
  8
0
  5
203A
 10
95.4421
 20
39.3937
 30
-8.75425e-15
  70
    32
  0
VERTEX
  8
0
  5
203B
 10
95.4313
 20
39.3965
 30
-8.75554e-15
  70
    32
  0
VERTEX
  8
0
  5
203C
 10
95.4206
 20
39.3993
 30
-8.75683e-15
  70
    32
  0
VERTEX
  8
0
  5
203D
 10
95.4098
 20
39.4020
 30
-8.75811e-15
  70
    32
  0
VERTEX
  8
0
  5
203E
 10
95.3991
 20
39.4048
 30
-8.75939e-15
  70
    32
  0
VERTEX
  8
0
  5
203F
 10
95.3884
 20
39.4076
 30
-8.76066e-15
  70
    32
  0
VERTEX
  8
0
  5
2040
 10
95.3776
 20
39.4105
 30
-8.76192e-15
  70
    32
  0
VERTEX
  8
0
  5
2041
 10
95.3669
 20
39.4133
 30
-8.76318e-15
  70
    32
  0
VERTEX
  8
0
  5
2042
 10
95.3562
 20
39.4162
 30
-8.76443e-15
  70
    32
  0
VERTEX
  8
0
  5
2043
 10
95.3454
 20
39.4190
 30
-8.76567e-15
  70
    32
  0
VERTEX
  8
0
  5
2044
 10
95.3347
 20
39.4219
 30
-8.76690e-15
  70
    32
  0
VERTEX
  8
0
  5
2045
 10
95.3240
 20
39.4248
 30
-8.76813e-15
  70
    32
  0
VERTEX
  8
0
  5
2046
 10
95.3133
 20
39.4277
 30
-8.76934e-15
  70
    32
  0
VERTEX
  8
0
  5
2047
 10
95.3026
 20
39.4306
 30
-8.77054e-15
  70
    32
  0
VERTEX
  8
0
  5
2048
 10
95.2919
 20
39.4336
 30
-8.77172e-15
  70
    32
  0
VERTEX
  8
0
  5
2049
 10
95.2812
 20
39.4365
 30
-8.77290e-15
  70
    32
  0
VERTEX
  8
0
  5
204A
 10
95.2705
 20
39.4395
 30
-8.77405e-15
  70
    32
  0
VERTEX
  8
0
  5
204B
 10
95.2599
 20
39.4425
 30
-8.77520e-15
  70
    32
  0
VERTEX
  8
0
  5
204C
 10
95.2492
 20
39.4455
 30
-8.77633e-15
  70
    32
  0
VERTEX
  8
0
  5
204D
 10
95.2385
 20
39.4485
 30
-8.77744e-15
  70
    32
  0
VERTEX
  8
0
  5
204E
 10
95.2279
 20
39.4515
 30
-8.77853e-15
  70
    32
  0
VERTEX
  8
0
  5
204F
 10
95.2172
 20
39.4545
 30
-8.77961e-15
  70
    32
  0
VERTEX
  8
0
  5
2050
 10
95.2066
 20
39.4576
 30
-8.78067e-15
  70
    32
  0
VERTEX
  8
0
  5
2051
 10
95.1959
 20
39.4606
 30
-8.78171e-15
  70
    32
  0
VERTEX
  8
0
  5
2052
 10
95.1853
 20
39.4637
 30
-8.78272e-15
  70
    32
  0
VERTEX
  8
0
  5
2053
 10
95.1746
 20
39.4668
 30
-8.78372e-15
  70
    32
  0
VERTEX
  8
0
  5
2054
 10
95.1640
 20
39.4699
 30
-8.78470e-15
  70
    32
  0
VERTEX
  8
0
  5
2055
 10
95.1534
 20
39.4731
 30
-8.78565e-15
  70
    32
  0
VERTEX
  8
0
  5
2056
 10
95.1428
 20
39.4762
 30
-8.78658e-15
  70
    32
  0
VERTEX
  8
0
  5
2057
 10
95.1322
 20
39.4793
 30
-8.78748e-15
  70
    32
  0
VERTEX
  8
0
  5
2058
 10
95.1216
 20
39.4825
 30
-8.78836e-15
  70
    32
  0
VERTEX
  8
0
  5
2059
 10
95.1110
 20
39.4857
 30
-8.78922e-15
  70
    32
  0
VERTEX
  8
0
  5
205A
 10
95.1004
 20
39.4889
 30
-8.79005e-15
  70
    32
  0
VERTEX
  8
0
  5
205B
 10
95.0898
 20
39.4921
 30
-8.79085e-15
  70
    32
  0
VERTEX
  8
0
  5
205C
 10
95.0792
 20
39.4953
 30
-8.79162e-15
  70
    32
  0
VERTEX
  8
0
  5
205D
 10
95.0686
 20
39.4985
 30
-8.79236e-15
  70
    32
  0
VERTEX
  8
0
  5
205E
 10
95.0581
 20
39.5018
 30
-8.79308e-15
  70
    32
  0
VERTEX
  8
0
  5
205F
 10
95.0475
 20
39.5050
 30
-8.79376e-15
  70
    32
  0
VERTEX
  8
0
  5
2060
 10
95.0370
 20
39.5083
 30
-8.79441e-15
  70
    32
  0
VERTEX
  8
0
  5
2061
 10
95.0264
 20
39.5116
 30
-8.79503e-15
  70
    32
  0
VERTEX
  8
0
  5
2062
 10
95.0159
 20
39.5149
 30
-8.79562e-15
  70
    32
  0
VERTEX
  8
0
  5
2063
 10
95.0053
 20
39.5182
 30
-8.79618e-15
  70
    32
  0
VERTEX
  8
0
  5
2064
 10
94.9948
 20
39.5216
 30
-8.79670e-15
  70
    32
  0
VERTEX
  8
0
  5
2065
 10
94.9843
 20
39.5249
 30
-8.79718e-15
  70
    32
  0
VERTEX
  8
0
  5
2066
 10
94.9738
 20
39.5283
 30
-8.79763e-15
  70
    32
  0
VERTEX
  8
0
  5
2067
 10
94.9633
 20
39.5316
 30
-8.79804e-15
  70
    32
  0
VERTEX
  8
0
  5
2068
 10
94.9528
 20
39.5350
 30
-8.79842e-15
  70
    32
  0
VERTEX
  8
0
  5
2069
 10
94.9423
 20
39.5384
 30
-8.79876e-15
  70
    32
  0
VERTEX
  8
0
  5
206A
 10
94.9318
 20
39.5418
 30
-8.79906e-15
  70
    32
  0
VERTEX
  8
0
  5
206B
 10
94.9213
 20
39.5452
 30
-8.79932e-15
  70
    32
  0
VERTEX
  8
0
  5
206C
 10
94.9108
 20
39.5487
 30
-8.79954e-15
  70
    32
  0
VERTEX
  8
0
  5
206D
 10
94.9004
 20
39.5521
 30
-8.79971e-15
  70
    32
  0
VERTEX
  8
0
  5
206E
 10
94.8899
 20
39.5556
 30
-8.79985e-15
  70
    32
  0
VERTEX
  8
0
  5
206F
 10
94.8794
 20
39.5591
 30
-8.79994e-15
  70
    32
  0
VERTEX
  8
0
  5
2070
 10
94.8690
 20
39.5626
 30
-8.79999e-15
  70
    32
  0
VERTEX
  8
0
  5
2071
 10
94.8586
 20
39.5661
 30
-8.80000e-15
  70
    32
  0
VERTEX
  8
0
  5
2072
 10
94.8481
 20
39.5696
 30
-8.80000e-15
  70
    32
  0
VERTEX
  8
0
  5
2073
 10
94.8377
 20
39.5731
 30
-8.80000e-15
  70
    32
  0
VERTEX
  8
0
  5
2074
 10
94.8273
 20
39.5767
 30
-8.80000e-15
  70
    32
  0
VERTEX
  8
0
  5
2075
 10
94.8169
 20
39.5802
 30
-8.80000e-15
  70
    32
  0
VERTEX
  8
0
  5
2076
 10
94.8065
 20
39.5838
 30
-8.80000e-15
  70
    32
  0
VERTEX
  8
0
  5
2077
 10
94.7961
 20
39.5874
 30
-8.80000e-15
  70
    32
  0
VERTEX
  8
0
  5
2078
 10
94.7857
 20
39.5910
 30
-8.80000e-15
  70
    32
  0
VERTEX
  8
0
  5
2079
 10
94.7753
 20
39.5946
 30
-8.80000e-15
  70
    32
  0
VERTEX
  8
0
  5
207A
 10
94.7649
 20
39.5982
 30
-8.80000e-15
  70
    32
  0
VERTEX
  8
0
  5
207B
 10
94.7546
 20
39.6019
 30
-8.80000e-15
  70
    32
  0
VERTEX
  8
0
  5
207C
 10
94.7442
 20
39.6055
 30
-8.80000e-15
  70
    32
  0
VERTEX
  8
0
  5
207D
 10
94.7339
 20
39.6092
 30
-8.80000e-15
  70
    32
  0
VERTEX
  8
0
  5
207E
 10
94.7235
 20
39.6129
 30
-8.80000e-15
  70
    32
  0
VERTEX
  8
0
  5
207F
 10
94.7132
 20
39.6166
 30
-8.80000e-15
  70
    32
  0
VERTEX
  8
0
  5
2080
 10
94.7028
 20
39.6203
 30
-8.80000e-15
  70
    32
  0
VERTEX
  8
0
  5
2081
 10
94.6925
 20
39.6240
 30
-8.80000e-15
  70
    32
  0
VERTEX
  8
0
  5
2082
 10
94.6822
 20
39.6277
 30
-8.80000e-15
  70
    32
  0
VERTEX
  8
0
  5
2083
 10
94.6719
 20
39.6315
 30
-8.80000e-15
  70
    32
  0
VERTEX
  8
0
  5
2084
 10
94.6616
 20
39.6352
 30
-8.80000e-15
  70
    32
  0
VERTEX
  8
0
  5
2085
 10
94.6513
 20
39.6390
 30
-8.80000e-15
  70
    32
  0
VERTEX
  8
0
  5
2086
 10
94.6410
 20
39.6428
 30
-8.80000e-15
  70
    32
  0
VERTEX
  8
0
  5
2087
 10
94.6308
 20
39.6465
 30
-8.80000e-15
  70
    32
  0
VERTEX
  8
0
  5
2088
 10
94.6205
 20
39.6503
 30
-8.80000e-15
  70
    32
  0
SEQEND
  8
0
  5
2089
  0
POLYLINE
  8
0
  5
208A
  66
     1
 10
0.000000
 20
0.000000
 30
0.000000
  70
     8
  0
VERTEX
  8
0
  5
208B
 10
100.118
 20
39.6503
 30
-8.80000e-15
  70
    32
  0
VERTEX
  8
0
  5
208C
 10
100.108
 20
39.6465
 30
-8.80000e-15
  70
    32
  0
VERTEX
  8
0
  5
208D
 10
100.097
 20
39.6428
 30
-8.80000e-15
  70
    32
  0
VERTEX
  8
0
  5
208E
 10
100.087
 20
39.6390
 30
-8.80000e-15
  70
    32
  0
VERTEX
  8
0
  5
208F
 10
100.077
 20
39.6352
 30
-8.80000e-15
  70
    32
  0
VERTEX
  8
0
  5
2090
 10
100.066
 20
39.6315
 30
-8.80000e-15
  70
    32
  0
VERTEX
  8
0
  5
2091
 10
100.056
 20
39.6277
 30
-8.80000e-15
  70
    32
  0
VERTEX
  8
0
  5
2092
 10
100.046
 20
39.6240
 30
-8.80000e-15
  70
    32
  0
VERTEX
  8
0
  5
2093
 10
100.035
 20
39.6203
 30
-8.80000e-15
  70
    32
  0
VERTEX
  8
0
  5
2094
 10
100.025
 20
39.6166
 30
-8.80000e-15
  70
    32
  0
VERTEX
  8
0
  5
2095
 10
100.015
 20
39.6129
 30
-8.80000e-15
  70
    32
  0
VERTEX
  8
0
  5
2096
 10
100.004
 20
39.6092
 30
-8.80000e-15
  70
    32
  0
VERTEX
  8
0
  5
2097
 10
99.9941
 20
39.6055
 30
-8.80000e-15
  70
    32
  0
VERTEX
  8
0
  5
2098
 10
99.9837
 20
39.6019
 30
-8.80000e-15
  70
    32
  0
VERTEX
  8
0
  5
2099
 10
99.9733
 20
39.5982
 30
-8.80000e-15
  70
    32
  0
VERTEX
  8
0
  5
209A
 10
99.9630
 20
39.5946
 30
-8.80000e-15
  70
    32
  0
VERTEX
  8
0
  5
209B
 10
99.9526
 20
39.5910
 30
-8.80000e-15
  70
    32
  0
VERTEX
  8
0
  5
209C
 10
99.9422
 20
39.5874
 30
-8.80000e-15
  70
    32
  0
VERTEX
  8
0
  5
209D
 10
99.9318
 20
39.5838
 30
-8.80000e-15
  70
    32
  0
VERTEX
  8
0
  5
209E
 10
99.9214
 20
39.5802
 30
-8.80000e-15
  70
    32
  0
VERTEX
  8
0
  5
209F
 10
99.9110
 20
39.5767
 30
-8.80000e-15
  70
    32
  0
VERTEX
  8
0
  5
20A0
 10
99.9006
 20
39.5731
 30
-8.80000e-15
  70
    32
  0
VERTEX
  8
0
  5
20A1
 10
99.8901
 20
39.5696
 30
-8.80000e-15
  70
    32
  0
VERTEX
  8
0
  5
20A2
 10
99.8797
 20
39.5661
 30
-8.80000e-15
  70
    32
  0
VERTEX
  8
0
  5
20A3
 10
99.8693
 20
39.5626
 30
-8.79999e-15
  70
    32
  0
VERTEX
  8
0
  5
20A4
 10
99.8588
 20
39.5591
 30
-8.79994e-15
  70
    32
  0
VERTEX
  8
0
  5
20A5
 10
99.8484
 20
39.5556
 30
-8.79985e-15
  70
    32
  0
VERTEX
  8
0
  5
20A6
 10
99.8379
 20
39.5521
 30
-8.79971e-15
  70
    32
  0
VERTEX
  8
0
  5
20A7
 10
99.8275
 20
39.5487
 30
-8.79954e-15
  70
    32
  0
VERTEX
  8
0
  5
20A8
 10
99.8170
 20
39.5452
 30
-8.79932e-15
  70
    32
  0
VERTEX
  8
0
  5
20A9
 10
99.8065
 20
39.5418
 30
-8.79906e-15
  70
    32
  0
VERTEX
  8
0
  5
20AA
 10
99.7960
 20
39.5384
 30
-8.79876e-15
  70
    32
  0
VERTEX
  8
0
  5
20AB
 10
99.7855
 20
39.5350
 30
-8.79842e-15
  70
    32
  0
VERTEX
  8
0
  5
20AC
 10
99.7750
 20
39.5316
 30
-8.79804e-15
  70
    32
  0
VERTEX
  8
0
  5
20AD
 10
99.7645
 20
39.5283
 30
-8.79763e-15
  70
    32
  0
VERTEX
  8
0
  5
20AE
 10
99.7540
 20
39.5249
 30
-8.79718e-15
  70
    32
  0
VERTEX
  8
0
  5
20AF
 10
99.7435
 20
39.5216
 30
-8.79670e-15
  70
    32
  0
VERTEX
  8
0
  5
20B0
 10
99.7329
 20
39.5182
 30
-8.79618e-15
  70
    32
  0
VERTEX
  8
0
  5
20B1
 10
99.7224
 20
39.5149
 30
-8.79562e-15
  70
    32
  0
VERTEX
  8
0
  5
20B2
 10
99.7119
 20
39.5116
 30
-8.79503e-15
  70
    32
  0
VERTEX
  8
0
  5
20B3
 10
99.7013
 20
39.5083
 30
-8.79441e-15
  70
    32
  0
VERTEX
  8
0
  5
20B4
 10
99.6908
 20
39.5050
 30
-8.79376e-15
  70
    32
  0
VERTEX
  8
0
  5
20B5
 10
99.6802
 20
39.5018
 30
-8.79308e-15
  70
    32
  0
VERTEX
  8
0
  5
20B6
 10
99.6696
 20
39.4985
 30
-8.79236e-15
  70
    32
  0
VERTEX
  8
0
  5
20B7
 10
99.6591
 20
39.4953
 30
-8.79162e-15
  70
    32
  0
VERTEX
  8
0
  5
20B8
 10
99.6485
 20
39.4921
 30
-8.79085e-15
  70
    32
  0
VERTEX
  8
0
  5
20B9
 10
99.6379
 20
39.4889
 30
-8.79005e-15
  70
    32
  0
VERTEX
  8
0
  5
20BA
 10
99.6273
 20
39.4857
 30
-8.78922e-15
  70
    32
  0
VERTEX
  8
0
  5
20BB
 10
99.6167
 20
39.4825
 30
-8.78836e-15
  70
    32
  0
VERTEX
  8
0
  5
20BC
 10
99.6061
 20
39.4793
 30
-8.78748e-15
  70
    32
  0
VERTEX
  8
0
  5
20BD
 10
99.5955
 20
39.4762
 30
-8.78658e-15
  70
    32
  0
VERTEX
  8
0
  5
20BE
 10
99.5849
 20
39.4731
 30
-8.78565e-15
  70
    32
  0
VERTEX
  8
0
  5
20BF
 10
99.5743
 20
39.4699
 30
-8.78470e-15
  70
    32
  0
VERTEX
  8
0
  5
20C0
 10
99.5636
 20
39.4668
 30
-8.78372e-15
  70
    32
  0
VERTEX
  8
0
  5
20C1
 10
99.5530
 20
39.4637
 30
-8.78272e-15
  70
    32
  0
VERTEX
  8
0
  5
20C2
 10
99.5424
 20
39.4606
 30
-8.78171e-15
  70
    32
  0
VERTEX
  8
0
  5
20C3
 10
99.5317
 20
39.4576
 30
-8.78067e-15
  70
    32
  0
VERTEX
  8
0
  5
20C4
 10
99.5211
 20
39.4545
 30
-8.77961e-15
  70
    32
  0
VERTEX
  8
0
  5
20C5
 10
99.5104
 20
39.4515
 30
-8.77853e-15
  70
    32
  0
VERTEX
  8
0
  5
20C6
 10
99.4997
 20
39.4485
 30
-8.77744e-15
  70
    32
  0
VERTEX
  8
0
  5
20C7
 10
99.4891
 20
39.4455
 30
-8.77633e-15
  70
    32
  0
VERTEX
  8
0
  5
20C8
 10
99.4784
 20
39.4425
 30
-8.77520e-15
  70
    32
  0
VERTEX
  8
0
  5
20C9
 10
99.4677
 20
39.4395
 30
-8.77405e-15
  70
    32
  0
VERTEX
  8
0
  5
20CA
 10
99.4570
 20
39.4365
 30
-8.77290e-15
  70
    32
  0
VERTEX
  8
0
  5
20CB
 10
99.4464
 20
39.4336
 30
-8.77172e-15
  70
    32
  0
VERTEX
  8
0
  5
20CC
 10
99.4357
 20
39.4306
 30
-8.77054e-15
  70
    32
  0
VERTEX
  8
0
  5
20CD
 10
99.4250
 20
39.4277
 30
-8.76934e-15
  70
    32
  0
VERTEX
  8
0
  5
20CE
 10
99.4143
 20
39.4248
 30
-8.76813e-15
  70
    32
  0
VERTEX
  8
0
  5
20CF
 10
99.4035
 20
39.4219
 30
-8.76690e-15
  70
    32
  0
VERTEX
  8
0
  5
20D0
 10
99.3928
 20
39.4190
 30
-8.76567e-15
  70
    32
  0
VERTEX
  8
0
  5
20D1
 10
99.3821
 20
39.4162
 30
-8.76443e-15
  70
    32
  0
VERTEX
  8
0
  5
20D2
 10
99.3714
 20
39.4133
 30
-8.76318e-15
  70
    32
  0
VERTEX
  8
0
  5
20D3
 10
99.3607
 20
39.4105
 30
-8.76192e-15
  70
    32
  0
VERTEX
  8
0
  5
20D4
 10
99.3499
 20
39.4076
 30
-8.76066e-15
  70
    32
  0
VERTEX
  8
0
  5
20D5
 10
99.3392
 20
39.4048
 30
-8.75939e-15
  70
    32
  0
VERTEX
  8
0
  5
20D6
 10
99.3284
 20
39.4020
 30
-8.75811e-15
  70
    32
  0
VERTEX
  8
0
  5
20D7
 10
99.3177
 20
39.3993
 30
-8.75683e-15
  70
    32
  0
VERTEX
  8
0
  5
20D8
 10
99.3069
 20
39.3965
 30
-8.75554e-15
  70
    32
  0
VERTEX
  8
0
  5
20D9
 10
99.2962
 20
39.3937
 30
-8.75425e-15
  70
    32
  0
VERTEX
  8
0
  5
20DA
 10
99.2854
 20
39.3910
 30
-8.75296e-15
  70
    32
  0
VERTEX
  8
0
  5
20DB
 10
99.2747
 20
39.3883
 30
-8.75166e-15
  70
    32
  0
VERTEX
  8
0
  5
20DC
 10
99.2639
 20
39.3856
 30
-8.75037e-15
  70
    32
  0
VERTEX
  8
0
  5
20DD
 10
99.2531
 20
39.3829
 30
-8.74907e-15
  70
    32
  0
VERTEX
  8
0
  5
20DE
 10
99.2423
 20
39.3802
 30
-8.74778e-15
  70
    32
  0
VERTEX
  8
0
  5
20DF
 10
99.2315
 20
39.3776
 30
-8.74649e-15
  70
    32
  0
VERTEX
  8
0
  5
20E0
 10
99.2208
 20
39.3749
 30
-8.74519e-15
  70
    32
  0
VERTEX
  8
0
  5
20E1
 10
99.2100
 20
39.3723
 30
-8.74391e-15
  70
    32
  0
VERTEX
  8
0
  5
20E2
 10
99.1992
 20
39.3697
 30
-8.74262e-15
  70
    32
  0
VERTEX
  8
0
  5
20E3
 10
99.1884
 20
39.3671
 30
-8.74134e-15
  70
    32
  0
VERTEX
  8
0
  5
20E4
 10
99.1776
 20
39.3645
 30
-8.74007e-15
  70
    32
  0
VERTEX
  8
0
  5
20E5
 10
99.1667
 20
39.3619
 30
-8.73880e-15
  70
    32
  0
VERTEX
  8
0
  5
20E6
 10
99.1559
 20
39.3593
 30
-8.73753e-15
  70
    32
  0
VERTEX
  8
0
  5
20E7
 10
99.1451
 20
39.3568
 30
-8.73628e-15
  70
    32
  0
VERTEX
  8
0
  5
20E8
 10
99.1343
 20
39.3543
 30
-8.73503e-15
  70
    32
  0
VERTEX
  8
0
  5
20E9
 10
99.1235
 20
39.3518
 30
-8.73380e-15
  70
    32
  0
VERTEX
  8
0
  5
20EA
 10
99.1126
 20
39.3493
 30
-8.73257e-15
  70
    32
  0
VERTEX
  8
0
  5
20EB
 10
99.1018
 20
39.3468
 30
-8.73135e-15
  70
    32
  0
VERTEX
  8
0
  5
20EC
 10
99.0910
 20
39.3443
 30
-8.73015e-15
  70
    32
  0
VERTEX
  8
0
  5
20ED
 10
99.0801
 20
39.3418
 30
-8.72895e-15
  70
    32
  0
VERTEX
  8
0
  5
20EE
 10
99.0693
 20
39.3394
 30
-8.72777e-15
  70
    32
  0
VERTEX
  8
0
  5
20EF
 10
99.0584
 20
39.3370
 30
-8.72660e-15
  70
    32
  0
VERTEX
  8
0
  5
20F0
 10
99.0476
 20
39.3346
 30
-8.72545e-15
  70
    32
  0
VERTEX
  8
0
  5
20F1
 10
99.0367
 20
39.3322
 30
-8.72431e-15
  70
    32
  0
VERTEX
  8
0
  5
20F2
 10
99.0259
 20
39.3298
 30
-8.72319e-15
  70
    32
  0
VERTEX
  8
0
  5
20F3
 10
99.0150
 20
39.3274
 30
-8.72209e-15
  70
    32
  0
VERTEX
  8
0
  5
20F4
 10
99.0042
 20
39.3251
 30
-8.72100e-15
  70
    32
  0
VERTEX
  8
0
  5
20F5
 10
98.9933
 20
39.3228
 30
-8.71993e-15
  70
    32
  0
VERTEX
  8
0
  5
20F6
 10
98.9824
 20
39.3204
 30
-8.71888e-15
  70
    32
  0
VERTEX
  8
0
  5
20F7
 10
98.9716
 20
39.3181
 30
-8.71785e-15
  70
    32
  0
VERTEX
  8
0
  5
20F8
 10
98.9607
 20
39.3159
 30
-8.71684e-15
  70
    32
  0
VERTEX
  8
0
  5
20F9
 10
98.9498
 20
39.3136
 30
-8.71586e-15
  70
    32
  0
VERTEX
  8
0
  5
20FA
 10
98.9389
 20
39.3113
 30
-8.71489e-15
  70
    32
  0
VERTEX
  8
0
  5
20FB
 10
98.9280
 20
39.3091
 30
-8.71395e-15
  70
    32
  0
VERTEX
  8
0
  5
20FC
 10
98.9172
 20
39.3069
 30
-8.71303e-15
  70
    32
  0
VERTEX
  8
0
  5
20FD
 10
98.9063
 20
39.3047
 30
-8.71214e-15
  70
    32
  0
VERTEX
  8
0
  5
20FE
 10
98.8954
 20
39.3025
 30
-8.71127e-15
  70
    32
  0
VERTEX
  8
0
  5
20FF
 10
98.8845
 20
39.3003
 30
-8.71042e-15
  70
    32
  0
VERTEX
  8
0
  5
2100
 10
98.8736
 20
39.2981
 30
-8.70961e-15
  70
    32
  0
VERTEX
  8
0
  5
2101
 10
98.8627
 20
39.2960
 30
-8.70882e-15
  70
    32
  0
VERTEX
  8
0
  5
2102
 10
98.8518
 20
39.2938
 30
-8.70806e-15
  70
    32
  0
VERTEX
  8
0
  5
2103
 10
98.8409
 20
39.2917
 30
-8.70733e-15
  70
    32
  0
VERTEX
  8
0
  5
2104
 10
98.8300
 20
39.2896
 30
-8.70663e-15
  70
    32
  0
VERTEX
  8
0
  5
2105
 10
98.8191
 20
39.2875
 30
-8.70596e-15
  70
    32
  0
VERTEX
  8
0
  5
2106
 10
98.8081
 20
39.2855
 30
-8.70532e-15
  70
    32
  0
VERTEX
  8
0
  5
2107
 10
98.7972
 20
39.2834
 30
-8.70471e-15
  70
    32
  0
VERTEX
  8
0
  5
2108
 10
98.7863
 20
39.2814
 30
-8.70414e-15
  70
    32
  0
VERTEX
  8
0
  5
2109
 10
98.7754
 20
39.2793
 30
-8.70360e-15
  70
    32
  0
VERTEX
  8
0
  5
210A
 10
98.7645
 20
39.2773
 30
-8.70309e-15
  70
    32
  0
VERTEX
  8
0
  5
210B
 10
98.7535
 20
39.2753
 30
-8.70262e-15
  70
    32
  0
VERTEX
  8
0
  5
210C
 10
98.7426
 20
39.2734
 30
-8.70219e-15
  70
    32
  0
VERTEX
  8
0
  5
210D
 10
98.7317
 20
39.2714
 30
-8.70179e-15
  70
    32
  0
VERTEX
  8
0
  5
210E
 10
98.7208
 20
39.2695
 30
-8.70143e-15
  70
    32
  0
VERTEX
  8
0
  5
210F
 10
98.7098
 20
39.2675
 30
-8.70111e-15
  70
    32
  0
VERTEX
  8
0
  5
2110
 10
98.6989
 20
39.2656
 30
-8.70083e-15
  70
    32
  0
VERTEX
  8
0
  5
2111
 10
98.6880
 20
39.2637
 30
-8.70058e-15
  70
    32
  0
VERTEX
  8
0
  5
2112
 10
98.6770
 20
39.2618
 30
-8.70038e-15
  70
    32
  0
VERTEX
  8
0
  5
2113
 10
98.6661
 20
39.2600
 30
-8.70022e-15
  70
    32
  0
VERTEX
  8
0
  5
2114
 10
98.6552
 20
39.2581
 30
-8.70011e-15
  70
    32
  0
VERTEX
  8
0
  5
2115
 10
98.6442
 20
39.2563
 30
-8.70003e-15
  70
    32
  0
VERTEX
  8
0
  5
2116
 10
98.6333
 20
39.2545
 30
-8.70000e-15
  70
    32
  0
VERTEX
  8
0
  5
2117
 10
98.6223
 20
39.2527
 30
-8.70000e-15
  70
    32
  0
VERTEX
  8
0
  5
2118
 10
98.6114
 20
39.2509
 30
-8.70000e-15
  70
    32
  0
VERTEX
  8
0
  5
2119
 10
98.6004
 20
39.2491
 30
-8.70000e-15
  70
    32
  0
VERTEX
  8
0
  5
211A
 10
98.5895
 20
39.2474
 30
-8.70000e-15
  70
    32
  0
VERTEX
  8
0
  5
211B
 10
98.5785
 20
39.2456
 30
-8.70000e-15
  70
    32
  0
VERTEX
  8
0
  5
211C
 10
98.5676
 20
39.2439
 30
-8.70000e-15
  70
    32
  0
VERTEX
  8
0
  5
211D
 10
98.5566
 20
39.2422
 30
-8.70000e-15
  70
    32
  0
VERTEX
  8
0
  5
211E
 10
98.5457
 20
39.2405
 30
-8.70000e-15
  70
    32
  0
VERTEX
  8
0
  5
211F
 10
98.5347
 20
39.2388
 30
-8.70000e-15
  70
    32
  0
VERTEX
  8
0
  5
2120
 10
98.5238
 20
39.2372
 30
-8.70000e-15
  70
    32
  0
VERTEX
  8
0
  5
2121
 10
98.5128
 20
39.2355
 30
-8.70000e-15
  70
    32
  0
VERTEX
  8
0
  5
2122
 10
98.5019
 20
39.2339
 30
-8.70000e-15
  70
    32
  0
VERTEX
  8
0
  5
2123
 10
98.4909
 20
39.2323
 30
-8.70000e-15
  70
    32
  0
VERTEX
  8
0
  5
2124
 10
98.4799
 20
39.2307
 30
-8.70000e-15
  70
    32
  0
VERTEX
  8
0
  5
2125
 10
98.4690
 20
39.2291
 30
-8.70000e-15
  70
    32
  0
VERTEX
  8
0
  5
2126
 10
98.4580
 20
39.2276
 30
-8.70000e-15
  70
    32
  0
VERTEX
  8
0
  5
2127
 10
98.4471
 20
39.2260
 30
-8.70000e-15
  70
    32
  0
VERTEX
  8
0
  5
2128
 10
98.4361
 20
39.2245
 30
-8.70000e-15
  70
    32
  0
VERTEX
  8
0
  5
2129
 10
98.4251
 20
39.2230
 30
-8.70000e-15
  70
    32
  0
VERTEX
  8
0
  5
212A
 10
98.4142
 20
39.2215
 30
-8.70000e-15
  70
    32
  0
VERTEX
  8
0
  5
212B
 10
98.4032
 20
39.2200
 30
-8.70000e-15
  70
    32
  0
VERTEX
  8
0
  5
212C
 10
98.3923
 20
39.2185
 30
-8.70000e-15
  70
    32
  0
VERTEX
  8
0
  5
212D
 10
98.3813
 20
39.2171
 30
-8.70000e-15
  70
    32
  0
VERTEX
  8
0
  5
212E
 10
98.3703
 20
39.2156
 30
-8.70000e-15
  70
    32
  0
VERTEX
  8
0
  5
212F
 10
98.3594
 20
39.2142
 30
-8.70000e-15
  70
    32
  0
VERTEX
  8
0
  5
2130
 10
98.3484
 20
39.2128
 30
-8.70000e-15
  70
    32
  0
VERTEX
  8
0
  5
2131
 10
98.3375
 20
39.2114
 30
-8.70000e-15
  70
    32
  0
VERTEX
  8
0
  5
2132
 10
98.3265
 20
39.2100
 30
-8.70000e-15
  70
    32
  0
VERTEX
  8
0
  5
2133
 10
98.3155
 20
39.2087
 30
-8.70000e-15
  70
    32
  0
VERTEX
  8
0
  5
2134
 10
98.3046
 20
39.2073
 30
-8.70000e-15
  70
    32
  0
VERTEX
  8
0
  5
2135
 10
98.2936
 20
39.2060
 30
-8.70000e-15
  70
    32
  0
VERTEX
  8
0
  5
2136
 10
98.2826
 20
39.2047
 30
-8.70000e-15
  70
    32
  0
VERTEX
  8
0
  5
2137
 10
98.2717
 20
39.2034
 30
-8.70000e-15
  70
    32
  0
VERTEX
  8
0
  5
2138
 10
98.2607
 20
39.2021
 30
-8.70000e-15
  70
    32
  0
VERTEX
  8
0
  5
2139
 10
98.2498
 20
39.2009
 30
-8.70000e-15
  70
    32
  0
VERTEX
  8
0
  5
213A
 10
98.2388
 20
39.1996
 30
-8.70000e-15
  70
    32
  0
VERTEX
  8
0
  5
213B
 10
98.2278
 20
39.1984
 30
-8.70000e-15
  70
    32
  0
VERTEX
  8
0
  5
213C
 10
98.2169
 20
39.1972
 30
-8.70000e-15
  70
    32
  0
VERTEX
  8
0
  5
213D
 10
98.2059
 20
39.1960
 30
-8.70000e-15
  70
    32
  0
VERTEX
  8
0
  5
213E
 10
98.1950
 20
39.1948
 30
-8.70000e-15
  70
    32
  0
VERTEX
  8
0
  5
213F
 10
98.1840
 20
39.1936
 30
-8.70000e-15
  70
    32
  0
VERTEX
  8
0
  5
2140
 10
98.1731
 20
39.1925
 30
-8.70000e-15
  70
    32
  0
VERTEX
  8
0
  5
2141
 10
98.1621
 20
39.1913
 30
-8.70000e-15
  70
    32
  0
VERTEX
  8
0
  5
2142
 10
98.1512
 20
39.1902
 30
-8.70000e-15
  70
    32
  0
VERTEX
  8
0
  5
2143
 10
98.1402
 20
39.1891
 30
-8.70000e-15
  70
    32
  0
VERTEX
  8
0
  5
2144
 10
98.1293
 20
39.1880
 30
-8.70000e-15
  70
    32
  0
VERTEX
  8
0
  5
2145
 10
98.1183
 20
39.1869
 30
-8.70000e-15
  70
    32
  0
VERTEX
  8
0
  5
2146
 10
98.1074
 20
39.1859
 30
-8.70000e-15
  70
    32
  0
VERTEX
  8
0
  5
2147
 10
98.0964
 20
39.1848
 30
-8.70000e-15
  70
    32
  0
VERTEX
  8
0
  5
2148
 10
98.0855
 20
39.1838
 30
-8.70000e-15
  70
    32
  0
VERTEX
  8
0
  5
2149
 10
98.0745
 20
39.1828
 30
-8.70000e-15
  70
    32
  0
VERTEX
  8
0
  5
214A
 10
98.0636
 20
39.1818
 30
-8.70000e-15
  70
    32
  0
VERTEX
  8
0
  5
214B
 10
98.0527
 20
39.1808
 30
-8.70000e-15
  70
    32
  0
VERTEX
  8
0
  5
214C
 10
98.0417
 20
39.1799
 30
-8.70000e-15
  70
    32
  0
VERTEX
  8
0
  5
214D
 10
98.0308
 20
39.1789
 30
-8.70000e-15
  70
    32
  0
VERTEX
  8
0
  5
214E
 10
98.0198
 20
39.1780
 30
-8.70000e-15
  70
    32
  0
VERTEX
  8
0
  5
214F
 10
98.0089
 20
39.1771
 30
-8.70000e-15
  70
    32
  0
VERTEX
  8
0
  5
2150
 10
97.9980
 20
39.1762
 30
-8.70000e-15
  70
    32
  0
VERTEX
  8
0
  5
2151
 10
97.9870
 20
39.1753
 30
-8.70000e-15
  70
    32
  0
VERTEX
  8
0
  5
2152
 10
97.9761
 20
39.1744
 30
-8.70000e-15
  70
    32
  0
VERTEX
  8
0
  5
2153
 10
97.9652
 20
39.1736
 30
-8.70000e-15
  70
    32
  0
VERTEX
  8
0
  5
2154
 10
97.9543
 20
39.1727
 30
-8.70000e-15
  70
    32
  0
VERTEX
  8
0
  5
2155
 10
97.9433
 20
39.1719
 30
-8.70000e-15
  70
    32
  0
VERTEX
  8
0
  5
2156
 10
97.9324
 20
39.1711
 30
-8.70000e-15
  70
    32
  0
VERTEX
  8
0
  5
2157
 10
97.9215
 20
39.1703
 30
-8.70000e-15
  70
    32
  0
VERTEX
  8
0
  5
2158
 10
97.9106
 20
39.1695
 30
-8.70000e-15
  70
    32
  0
VERTEX
  8
0
  5
2159
 10
97.8997
 20
39.1687
 30
-8.70000e-15
  70
    32
  0
VERTEX
  8
0
  5
215A
 10
97.8888
 20
39.1680
 30
-8.70000e-15
  70
    32
  0
VERTEX
  8
0
  5
215B
 10
97.8779
 20
39.1673
 30
-8.70000e-15
  70
    32
  0
VERTEX
  8
0
  5
215C
 10
97.8670
 20
39.1666
 30
-8.70000e-15
  70
    32
  0
VERTEX
  8
0
  5
215D
 10
97.8561
 20
39.1659
 30
-8.70000e-15
  70
    32
  0
VERTEX
  8
0
  5
215E
 10
97.8452
 20
39.1652
 30
-8.70000e-15
  70
    32
  0
VERTEX
  8
0
  5
215F
 10
97.8343
 20
39.1645
 30
-8.70000e-15
  70
    32
  0
VERTEX
  8
0
  5
2160
 10
97.8234
 20
39.1639
 30
-8.70000e-15
  70
    32
  0
VERTEX
  8
0
  5
2161
 10
97.8125
 20
39.1632
 30
-8.70000e-15
  70
    32
  0
VERTEX
  8
0
  5
2162
 10
97.8016
 20
39.1626
 30
-8.70000e-15
  70
    32
  0
VERTEX
  8
0
  5
2163
 10
97.7907
 20
39.1620
 30
-8.70000e-15
  70
    32
  0
VERTEX
  8
0
  5
2164
 10
97.7798
 20
39.1614
 30
-8.70000e-15
  70
    32
  0
VERTEX
  8
0
  5
2165
 10
97.7689
 20
39.1608
 30
-8.70000e-15
  70
    32
  0
VERTEX
  8
0
  5
2166
 10
97.7581
 20
39.1603
 30
-8.70000e-15
  70
    32
  0
VERTEX
  8
0
  5
2167
 10
97.7472
 20
39.1597
 30
-8.70000e-15
  70
    32
  0
VERTEX
  8
0
  5
2168
 10
97.7363
 20
39.1592
 30
-8.70000e-15
  70
    32
  0
VERTEX
  8
0
  5
2169
 10
97.7255
 20
39.1587
 30
-8.70000e-15
  70
    32
  0
VERTEX
  8
0
  5
216A
 10
97.7146
 20
39.1582
 30
-8.70000e-15
  70
    32
  0
VERTEX
  8
0
  5
216B
 10
97.7037
 20
39.1577
 30
-8.70000e-15
  70
    32
  0
VERTEX
  8
0
  5
216C
 10
97.6929
 20
39.1572
 30
-8.70000e-15
  70
    32
  0
VERTEX
  8
0
  5
216D
 10
97.6820
 20
39.1568
 30
-8.70000e-15
  70
    32
  0
VERTEX
  8
0
  5
216E
 10
97.6712
 20
39.1563
 30
-8.70000e-15
  70
    32
  0
VERTEX
  8
0
  5
216F
 10
97.6603
 20
39.1559
 30
-8.70000e-15
  70
    32
  0
VERTEX
  8
0
  5
2170
 10
97.6495
 20
39.1555
 30
-8.70000e-15
  70
    32
  0
VERTEX
  8
0
  5
2171
 10
97.6387
 20
39.1551
 30
-8.70000e-15
  70
    32
  0
VERTEX
  8
0
  5
2172
 10
97.6278
 20
39.1547
 30
-8.70000e-15
  70
    32
  0
VERTEX
  8
0
  5
2173
 10
97.6170
 20
39.1544
 30
-8.70000e-15
  70
    32
  0
VERTEX
  8
0
  5
2174
 10
97.6062
 20
39.1540
 30
-8.70000e-15
  70
    32
  0
VERTEX
  8
0
  5
2175
 10
97.5954
 20
39.1537
 30
-8.70000e-15
  70
    32
  0
VERTEX
  8
0
  5
2176
 10
97.5845
 20
39.1534
 30
-8.70000e-15
  70
    32
  0
VERTEX
  8
0
  5
2177
 10
97.5737
 20
39.1531
 30
-8.70000e-15
  70
    32
  0
VERTEX
  8
0
  5
2178
 10
97.5629
 20
39.1528
 30
-8.70000e-15
  70
    32
  0
VERTEX
  8
0
  5
2179
 10
97.5521
 20
39.1526
 30
-8.70000e-15
  70
    32
  0
VERTEX
  8
0
  5
217A
 10
97.5413
 20
39.1523
 30
-8.70000e-15
  70
    32
  0
VERTEX
  8
0
  5
217B
 10
97.5305
 20
39.1521
 30
-8.70000e-15
  70
    32
  0
VERTEX
  8
0
  5
217C
 10
97.5197
 20
39.1518
 30
-8.70000e-15
  70
    32
  0
VERTEX
  8
0
  5
217D
 10
97.5089
 20
39.1516
 30
-8.70000e-15
  70
    32
  0
VERTEX
  8
0
  5
217E
 10
97.4982
 20
39.1514
 30
-8.70000e-15
  70
    32
  0
VERTEX
  8
0
  5
217F
 10
97.4874
 20
39.1513
 30
-8.70000e-15
  70
    32
  0
VERTEX
  8
0
  5
2180
 10
97.4766
 20
39.1511
 30
-8.70000e-15
  70
    32
  0
VERTEX
  8
0
  5
2181
 10
97.4658
 20
39.1510
 30
-8.70000e-15
  70
    32
  0
VERTEX
  8
0
  5
2182
 10
97.4551
 20
39.1508
 30
-8.70000e-15
  70
    32
  0
VERTEX
  8
0
  5
2183
 10
97.4443
 20
39.1507
 30
-8.70000e-15
  70
    32
  0
VERTEX
  8
0
  5
2184
 10
97.4336
 20
39.1506
 30
-8.70000e-15
  70
    32
  0
VERTEX
  8
0
  5
2185
 10
97.4228
 20
39.1505
 30
-8.70000e-15
  70
    32
  0
VERTEX
  8
0
  5
2186
 10
97.4121
 20
39.1505
 30
-8.70000e-15
  70
    32
  0
VERTEX
  8
0
  5
2187
 10
97.4013
 20
39.1504
 30
-8.70000e-15
  70
    32
  0
VERTEX
  8
0
  5
2188
 10
97.3906
 20
39.1504
 30
-8.70000e-15
  70
    32
  0
VERTEX
  8
0
  5
2189
 10
97.3799
 20
39.1504
 30
-8.70000e-15
  70
    32
  0
VERTEX
  8
0
  5
218A
 10
97.3691
 20
39.1503
 30
-8.70000e-15
  70
    32
  0
SEQEND
  8
0
  5
218B
  0
LINE
  5
1CE7
  8
0
 10
46.3691369365925468
 20
36.6503471930876188
 30
-0.0000000000000081
 11
148.369136936592497
 21
36.6503471930876188
 31
-0.0000000000000081
210
0.0
220
1.0
230
-0.0000000000000002
  0
LINE
  5
1CE8
  8
0
 10
14.8691369365925503
 20
54.6503471930875975
 30
-0.0000000000000121
 11
179.869136936592497
 21
54.6503471930875406
 31
-0.0000000000000121
210
0.0
220
1.0
230
-0.0000000000000002
  0
LINE
  5
1CE9
  8
0
 10
14.8691369365925503
 20
39.6503471930875904
 30
-0.0000000000000088
 11
179.869136936592497
 21
39.6503471930875406
 31
-0.0000000000000088
210
0.0
220
1.0
230
-0.0000000000000002
  0
ARC
  5
1CEA
  8
0
 10
-65.2191369365924629
 20
74.0237080150628088
 30
0.0
 40
2.0000000000000711
210
0.0
220
-0.0000000000000002
230
-1.0
 50
180.0000000000003979
 51
201.1485687849524027
  0
ARC
  5
1CEB
  8
0
 10
-129.5191369365929006
 20
74.0237080150628231
 30
0.0
 40
2.0000000000003411
210
0.0
220
-0.0000000000000002
230
-1.0
 50
338.8514312150501269
 51
359.9999999999988063
  0
LINE
  5
1CEC
  8
0
 10
127.5191369365925027
 20
81.6503471930876259
 30
-0.0000000000000181
 11
127.5191369365925027
 21
74.0237080150627804
 31
-0.0000000000000164
210
0.0
220
1.0
230
-0.0000000000000002
  0
LINE
  5
1CED
  8
0
 10
67.2191369365925482
 20
81.6503471930876401
 30
-0.0000000000000181
 11
67.2191369365925482
 21
74.0237080150627946
 31
-0.0000000000000164
210
0.0
220
1.0
230
-0.0000000000000002
  0
LINE
  5
1CEE
  8
0
 10
127.6538408652016017
 20
73.3021329558668242
 30
-0.0000000000000163
 11
133.3854911500278888
 21
58.485622015499743
 31
-0.000000000000013
210
0.0
220
1.0
230
-0.0000000000000002
  0
LINE
  5
1CEF
  8
0
 10
67.0844330079834634
 20
73.3021329558668242
 30
-0.0000000000000163
 11
61.3527827231572189
 21
58.4856220154997715
 31
-0.000000000000013
210
0.0
220
1.0
230
-0.0000000000000002
  0
LINE
  5
1CF0
  8
0
 10
46.3691369365925183
 20
36.6503471930876401
 30
-0.0000000000000081
 11
43.8691369365924828
 21
39.1503471930876685
 31
-0.0000000000000087
210
0.0
220
1.0
230
-0.0000000000000002
  0
LINE
  5
1CF1
  8
0
 10
148.3691369365926107
 20
36.6503471930876614
 30
-0.0000000000000081
 11
150.8691369365926107
 21
39.1503471930876614
 31
-0.0000000000000087
210
0.0
220
1.0
230
-0.0000000000000002
  0
ARC
  5
1CF2
  8
0
 10
-55.7568945089844732
 20
60.6503471930876188
 30
0.0
 40
6.0000000000000258
210
0.0
220
-0.0000000000000002
230
-1.0
 50
201.1485687849518911
 51
270.0000000000001137
  0
ARC
  5
1CF3
  8
0
 10
-138.9813793642005919
 20
60.6503471930875691
 30
0.0
 40
6.0000000000000071
210
0.0
220
-0.0000000000000002
230
-1.0
 50
270.0
 51
338.8514312150477963
  0
LINE
  5
1CF4
  8
0
 10
179.8691369365926107
 20
54.6503471930875691
 30
-0.0000000000000121
 11
179.8691369365926107
 21
39.6503471930875619
 31
-0.0000000000000088
210
0.0
220
1.0
230
-0.0000000000000002
  0
LINE
  5
1CF5
  8
0
 10
14.8691369365925308
 20
54.6503471930875904
 30
-0.0000000000000121
 11
14.8691369365925201
 21
39.6503471930875904
 31
-0.0000000000000088
210
0.0
220
1.0
230
-0.0000000000000002
  0
LINE
  5
1CF6
  8
0
 10
67.7624379370286647
 20
130.6503471930874127
 30
-0.000000000000029
 11
126.9758359361567983
 21
130.6503471930874127
 31
-0.000000000000029
210
0.0
220
1.0
230
-0.0000000000000002
  0
ARC
  5
1CF7
  8
0
 10
-69.8687910869652882
 20
87.18685869907371
 30
0.0
 40
1.0000000000001841
210
0.0
220
-0.0000000000000002
230
-1.0
 50
180.0000000000023022
 51
204.2244494781351989
  0
ARC
  5
1CF8
  8
0
 10
-124.8694827862203027
 20
87.1868586990736958
 30
0.0
 40
1.000000000000324
210
0.0
220
-0.0000000000000002
230
-1.0
 50
335.7755505218692065
 51
359.9999999999976126
  0
LINE
  5
1CF9
  8
0
 10
123.8694827862200043
 20
87.5230203534308231
 30
-0.0000000000000194
 11
123.8694827862200043
 21
87.1868586990736532
 31
-0.0000000000000194
210
0.0
220
1.0
230
-0.0000000000000002
  0
LINE
  5
1CFA
  8
0
 10
70.8687910869654729
 20
87.5230203534308231
 30
-0.0000000000000194
 11
70.8687910869654729
 21
87.1868586990736532
 31
-0.0000000000000194
210
0.0
220
1.0
230
-0.0000000000000002
  0
LINE
  5
1CFB
  8
0
 10
123.9575376770410031
 20
86.7765464791183376
 30
-0.0000000000000193
 11
126.2639727769324054
 21
81.6503471930875548
 31
-0.0000000000000181
210
0.0
220
1.0
230
-0.0000000000000002
  0
LINE
  5
1CFC
  8
0
 10
70.780736196144403
 20
86.7765464791183376
 30
-0.0000000000000193
 11
68.4743010962529866
 21
81.6503471930875833
 31
-0.0000000000000181
210
0.0
220
1.0
230
-0.0000000000000002
  0
ARC
  5
1CFD
  8
0
 10
-85.3687910869657145
 20
122.2678458504265961
 30
0.0
 40
19.5000000000002487
210
0.0
220
-0.0000000000000002
230
-1.0
 50
0.0000000000001272
 51
25.4594285688188684
  0
ARC
  5
1CFE
  8
0
 10
-109.3694827862200043
 20
122.2678458504266956
 30
0.0
 40
19.4999999999999787
210
0.0
220
-0.0000000000000002
230
-1.0
 50
154.5405714311808083
 51
179.9999999999998863
  0
LINE
  5
1CFF
  8
0
 10
128.8694827862198906
 20
122.2678458504266956
 30
-0.0000000000000271
 11
128.8694827862198906
 21
117.772311491039801
 31
-0.0000000000000262
210
0.0
220
1.0
230
-0.0000000000000002
  0
LINE
  5
1D00
  8
0
 10
65.8687910869654729
 20
122.2678458504266956
 30
-0.0000000000000271
 11
65.8687910869654729
 21
117.7723114910399005
 31
-0.0000000000000262
210
0.0
220
1.0
230
-0.0000000000000002
  0
ARC
  5
1D01
  8
0
 10
-90.8687910869672919
 20
117.8123471930882999
 30
0.0
 40
25.0000320571300811
210
0.0
220
-0.0000000000000002
230
-1.0
 50
340.5369005553112061
 51
359.9082450081485831
  0
ARC
  5
1D02
  8
0
 10
-103.8694827862178016
 20
117.8123471930883994
 30
0.0
 40
25.00003205713044
210
0.0
220
-0.0000000000000002
230
-1.0
 50
180.0917549918515874
 51
199.4630994446887939
  0
ARC
  5
1D03
  8
0
 10
-57.8687910869648334
 20
106.1503471930875975
 30
0.0
 40
10.0000000000006306
210
0.0
220
-0.0000000000000002
230
-1.0
 50
160.5369005553122861
 51
180.0
  0
ARC
  5
1D04
  8
0
 10
-136.8694827862206012
 20
106.1503471930875975
 30
0.0
 40
10.0000000000006501
210
0.0
220
-0.0000000000000002
230
-1.0
 50
0.0
 51
19.4630994446875789
  0
LINE
  5
1D05
  8
0
 10
126.8694827862200043
 20
106.1503471930875975
 30
-0.0000000000000236
 11
126.8694827862200043
 21
98.0586741062835756
 31
-0.0000000000000218
210
0.0
220
1.0
230
-0.0000000000000002
  0
LINE
  5
1D06
  8
0
 10
67.8687910869654729
 20
106.1503471930875975
 30
-0.0000000000000236
 11
67.8687910869654729
 21
98.0586741062835756
 31
-0.0000000000000218
210
0.0
220
1.0
230
-0.0000000000000002
  0
ARC
  5
1D07
  8
0
 10
-79.8687910869638387
 20
98.0586741062830924
 30
0.0
 40
11.99999999999838
210
0.0
220
-0.0000000000000002
230
-1.0
 50
328.211669382945388
 51
0.0000000000024427
  0
ARC
  5
1D08
  8
0
 10
-114.8694827862216954
 20
98.0586741062830498
 30
0.0
 40
11.9999999999982592
210
0.0
220
-0.0000000000000002
230
-1.0
 50
179.9999999999974136
 51
211.788330617054811
  0
ARC
  5
1D09
  8
0
 10
-62.8687910869678319
 20
87.5230203534314768
 30
0.0
 40
7.9999999999976392
210
0.0
220
-0.0000000000000002
230
-1.0
 50
148.2116693829445921
 51
180.0000000000044054
  0
ARC
  5
1D0A
  8
0
 10
-131.8694827862177021
 20
87.5230203534314342
 30
0.0
 40
7.9999999999976694
210
0.0
220
-0.0000000000000002
230
-1.0
 50
359.9999999999956231
 51
31.7883306170551094
  0
LINE
  5
1D0B
  8
0
  6
VERDECKT
 62
     1
 10
25.8691369365924402
 20
39.6503471930875619
 30
-0.0000000000000088
 11
25.8691369365924402
 21
54.6503471930875691
 31
-0.0000000000000121
210
0.0
220
1.0
230
-0.0000000000000002
  0
LINE
  5
1D0C
  8
0
  6
VERDECKT
 62
     1
 10
43.8691369365924402
 20
39.1503471930876188
 30
-0.0000000000000087
 11
43.8691369365924402
 21
54.6503471930876188
 31
-0.0000000000000121
210
0.0
220
1.0
230
-0.0000000000000002
  0
LINE
  5
1D0D
  8
0
  6
VERDECKT
 62
     1
 10
168.8691369365926107
 20
54.6503471930875691
 30
-0.0000000000000121
 11
168.8691369365926107
 21
39.6503471930875619
 31
-0.0000000000000088
210
0.0
220
1.0
230
-0.0000000000000002
  0
LINE
  5
1D0E
  8
0
  6
VERDECKT
 62
     1
 10
150.8691369365926107
 20
54.6503471930876188
 30
-0.0000000000000121
 11
150.8691369365926107
 21
39.1503471930876188
 31
-0.0000000000000087
210
0.0
220
1.0
230
-0.0000000000000002
  0
LINE
  5
1D0F
  8
0
  6
VERDECKT
 62
     1
 10
106.369136936592497
 20
54.6503471930875691
 30
-0.0000000000000121
 11
106.369136936592497
 21
39.6503471930875619
 31
-0.0000000000000088
210
0.0
220
1.0
230
-0.0000000000000002
  0
LINE
  5
1D10
  8
0
  6
VERDECKT
 62
     1
 10
88.3691369365925539
 20
54.6503471930875691
 30
-0.0000000000000121
 11
88.3691369365925539
 21
39.6503471930875619
 31
-0.0000000000000088
210
0.0
220
1.0
230
-0.0000000000000002
  0
LINE
  5
1D11
  8
0
  6
VERDECKT
 62
     1
 10
124.6191369365925965
 20
81.6503471930876259
 30
-0.0000000000000181
 11
124.6191369365925965
 21
36.6503471930876188
 31
-0.0000000000000081
210
0.0
220
1.0
230
-0.0000000000000002
  0
LINE
  5
1D12
  8
0
  6
VERDECKT
 62
     1
 10
70.1191369365925254
 20
81.6503471930876401
 30
-0.0000000000000181
 11
70.1191369365925254
 21
36.650347193087633
 31
-0.0000000000000081
210
0.0
220
1.0
230
-0.0000000000000002
  0
LINE
  5
1D13
  8
0
  6
VERDECKT
 62
     1
 10
69.1167727947160415
 20
130.0055393974980973
 30
-0.0000000000000289
 11
125.6215010784693931
 21
130.0055393974980973
 31
-0.0000000000000289
210
0.0
220
1.0
230
-0.0000000000000002
  0
ARC
  5
1D14
  8
0
  6
VERDECKT
 62
     1
 10
-69.8971678481428
 20
87.249927862776957
 30
0.0
 40
2.4999999999998388
210
0.0
220
-0.0000000000000002
230
-1.0
 50
181.3260085128328001
 51
204.2244494781363926
  0
ARC
  5
1D15
  8
0
  6
VERDECKT
 62
     1
 10
-124.8411060250426061
 20
87.249927862776957
 30
0.0
 40
2.4999999999998379
210
0.0
220
-0.0000000000000002
230
-1.0
 50
335.775550521863579
 51
358.6739914871670862
  0
LINE
  5
1D16
  8
0
  6
VERDECKT
 62
     1
 10
122.561243252095494
 20
86.2241473128887748
 30
-0.0000000000000191
 11
124.619136936592696
 21
81.6503471930875548
 31
-0.0000000000000181
210
0.0
220
1.0
230
-0.0000000000000002
  0
LINE
  5
1D17
  8
0
  6
VERDECKT
 62
     1
 10
72.1770306210899548
 20
86.2241473128887748
 30
-0.0000000000000191
 11
70.1191369365927244
 21
81.6503471930875833
 31
-0.0000000000000181
210
0.0
220
1.0
230
-0.0000000000000002
  0
ARC
  5
1D18
  8
0
  6
VERDECKT
 62
     1
 10
-62.6970604274035992
 20
87.4165912494366211
 30
0.0
 40
9.7020360700731132
210
0.0
220
-0.0000000000000002
230
-1.0
 50
148.211669382947008
 51
181.3260085128335959
  0
ARC
  5
1D19
  8
0
  6
VERDECKT
 62
     1
 10
-132.041213445781807
 20
87.4165912494366069
 30
0.0
 40
9.7020360700730617
210
0.0
220
-0.0000000000000002
230
-1.0
 50
358.6739914871665178
 51
31.7883306170530808
  0
ARC
  5
1D1A
  8
0
  6
VERDECKT
 62
     1
 10
-79.8687910869657287
 20
98.0586741062837746
 30
0.0
 40
10.5000000000002593
210
0.0
220
-0.0000000000000002
230
-1.0
 50
328.2116693829470933
 51
359.9999999999989768
  0
ARC
  5
1D1B
  8
0
  6
VERDECKT
 62
     1
 10
-114.8694827862198053
 20
98.0586741062837604
 30
0.0
 40
10.5000000000001705
210
0.0
220
-0.0000000000000002
230
-1.0
 50
180.0000000000009095
 51
211.7883306170531057
  0
LINE
  5
1D1C
  8
0
  6
VERDECKT
 62
     1
 10
125.3694827862199048
 20
106.1503471930873985
 30
-0.0000000000000236
 11
125.3694827862199048
 21
98.0586741062835756
 31
-0.0000000000000218
210
0.0
220
1.0
230
-0.0000000000000002
  0
LINE
  5
1D1D
  8
0
  6
VERDECKT
 62
     1
 10
69.3687910869654729
 20
106.150347193087498
 30
-0.0000000000000236
 11
69.3687910869654729
 21
98.0586741062835756
 31
-0.0000000000000218
210
0.0
220
1.0
230
-0.0000000000000002
  0
ARC
  5
1D1E
  8
0
  6
VERDECKT
 62
     1
 10
-57.7569553807899894
 20
106.1311673785205016
 30
0.0
 40
11.6118515462650702
210
0.0
220
-0.0000000000000002
230
-1.0
 50
160.6315386000584056
 51
179.905361955253511
  0
ARC
  5
1D1F
  8
0
  6
VERDECKT
 62
     1
 10
-136.9813184923951894
 20
106.1311673785205016
 30
0.0
 40
11.6118515462648606
210
0.0
220
-0.0000000000000002
230
-1.0
 50
0.0946380447463464
 51
19.3684613999417614
  0
ARC
  5
1D20
  8
0
  6
VERDECKT
 62
     1
 10
-91.0962512819893817
 20
117.8511632471324049
 30
0.0
 40
23.7274601950240296
210
0.0
220
-0.0000000000000002
230
-1.0
 50
340.6315386000575245
 51
0.0000000000002672
  0
ARC
  5
1D21
  8
0
  6
VERDECKT
 62
     1
 10
-103.642022591196195
 20
117.8511632471324049
 30
0.0
 40
23.7274601950239017
210
0.0
220
-0.0000000000000002
230
-1.0
 50
179.9999999999996874
 51
199.3684613999423902
  0
LINE
  5
1D22
  8
0
  6
VERDECKT
 62
     1
 10
127.3694827862200043
 20
122.2678458504266956
 30
-0.0000000000000271
 11
127.3694827862200043
 21
117.8511632471326038
 31
-0.0000000000000262
210
0.0
220
1.0
230
-0.0000000000000002
  0
LINE
  5
1D23
  8
0
  6
VERDECKT
 62
     1
 10
67.3687910869654161
 20
122.2678458504266956
 30
-0.0000000000000271
 11
67.3687910869654161
 21
117.8511632471326038
 31
-0.0000000000000262
210
0.0
220
1.0
230
-0.0000000000000002
  0
ARC
  5
1D24
  8
0
  6
VERDECKT
 62
     1
 10
-83.9775003310593462
 20
122.5568037129021945
 30
0.0
 40
16.6112226943453898
210
0.0
220
-0.0000000000000002
230
-1.0
 50
359.0032701766153878
 51
24.4626987454307283
  0
ARC
  5
1D25
  8
0
  6
VERDECKT
 62
     1
 10
-110.7607735421263015
 20
122.556803712902294
 30
0.0
 40
16.6112226943451304
210
0.0
220
-0.0000000000000002
230
-1.0
 50
155.537301254569087
 51
180.9967298233848112
  0
LINE
  5
1D26
  8
0
  6
VERDECKT
 62
     1
 10
125.6215010784693931
 20
130.0055393974980973
 30
-0.0000000000000289
 11
125.8808243106552993
 21
129.4355233727106054
 31
-0.0000000000000287
210
0.0
220
1.0
230
-0.0000000000000002
  0
LINE
  5
1D27
  8
0
  6
VERDECKT
 62
     1
 10
69.1167727947160415
 20
130.0055393974980973
 30
-0.0000000000000289
 11
68.8574495625301211
 21
129.4355233727106054
 31
-0.0000000000000287
210
0.0
220
1.0
230
-0.0000000000000002
  0
LINE
  5
1D28
  8
0
  6
VERDECKT
 62
     1
 10
69.1167727947160415
 20
130.0055393974980973
 30
-0.0000000000000289
 11
67.7624379370286647
 21
130.6503471930874127
 31
-0.000000000000029
210
0.0
220
1.0
230
-0.0000000000000002
  0
LINE
  5
1D29
  8
0
  6
VERDECKT
 62
     1
 10
125.6215010784693931
 20
130.0055393974980973
 30
-0.0000000000000289
 11
126.9758359361567983
 21
130.6503471930874127
 31
-0.000000000000029
210
0.0
220
1.0
230
-0.0000000000000002
  0
ENDBLK
  5
1D2B
  8
0
  0
ENDSEC
  0
SECTION
  2
ENTITIES
  0
TEXT
  5
8F
  8
VOLL
 10
78.076754716981128
 20
31.025947764705851
 30
0.0
 40
1.8
  1

  7
GREEKS
  0
INSERT
  5
B3C
  8
ADSK_ASSOC_ENTITY_BACKUPS
  2
*S2
 10
0.0
 20
0.0
 30
0.0
  0
INSERT
  5
1CDF
  8
STEMPEL
  2
A$C52C00B85
 10
225.158874586865295
 20
-79.1889010135293177
 30
-20.3546847764054206
  0
INSERT
  5
1D2C
  8
STEMPEL
  2
A$C29B6B06D
 10
225.1588745868654939
 20
-89.1071721834294266
 30
-20.3546847764053815
  0
VIEWPORT
  5
928
 67
     1
  8
0
 10
104.9325357368027056
 20
148.4488398705011889
 30
0.0
 40
533.9969448798291296
 41
299.1239570917758783
 68
     1
 69
     1
1001
ACAD
1000
MVIEW
1002
{
1070
    16
1010
0.0
1020
0.0
1030
0.0
1010
0.0
1020
0.0
1030
1.0
1040
0.0
1040
299.1239570917758783
1040
104.9325357368027056
1040
148.4488398705011889
1040
50.0
1040
0.0
1040
0.0
1070
     0
1070
  1500
1070
     1
1070
     1
1070
     0
1070
     0
1070
     0
1070
     0
1040
0.0
1040
0.0
1040
0.0
1040
10.0
1040
10.0
1040
10.0
1040
10.0
1070
     0
1002
{
1002
}
1002
}
  0
ENDSEC
  0
EOF
