  0
SECTION
  2
HEADER
  9
$ACADVER
  1
AC1009
  9
$INSBASE
 10
0.0
 20
0.0
 30
0.0
  9
$EXTMIN
 10
216.5687286371054938
 20
-231.4744017234399109
 30
-11.5453429182853906
  9
$EXTMAX
 10
366.5687286371054938
 20
33.0822272415174723
 30
-11.5453429182853498
  9
$LIMMIN
 10
0.0
 20
0.0
  9
$LIMMAX
 10
210.0
 20
297.0
  9
$ORTHOMODE
 70
     1
  9
$REGENMODE
 70
     1
  9
$FILLMODE
 70
     1
  9
$QTEXTMODE
 70
     0
  9
$MIRRTEXT
 70
     1
  9
$DRAGMODE
 70
     2
  9
$LTSCALE
 40
10.0
  9
$OSMODE
 70
  2495
  9
$ATTMODE
 70
     1
  9
$TEXTSIZE
 40
3.5
  9
$TRACEWID
 40
0.5
  9
$TEXTSTYLE
  7
STANDARD
  9
$CLAYER
  8
STEMPEL
  9
$CELTYPE
  6
BYLAYER
  9
$CECOLOR
 62
   256
  9
$DIMSCALE
 40
1.0
  9
$DIMASZ
 40
3.5
  9
$DIMEXO
 40
1.0
  9
$DIMDLI
 40
7.0
  9
$DIMRND
 40
0.0
  9
$DIMDLE
 40
0.0
  9
$DIMEXE
 40
1.0
  9
$DIMTP
 40
0.0
  9
$DIMTM
 40
0.0
  9
$DIMTXT
 40
3.5
  9
$DIMCEN
 40
1.5
  9
$DIMTSZ
 40
0.0
  9
$DIMTOL
 70
     0
  9
$DIMLIM
 70
     0
  9
$DIMTIH
 70
     0
  9
$DIMTOH
 70
     0
  9
$DIMSE1
 70
     0
  9
$DIMSE2
 70
     0
  9
$DIMTAD
 70
     1
  9
$DIMZIN
 70
     8
  9
$DIMBLK
  1

  9
$DIMASO
 70
     1
  9
$DIMSHO
 70
     0
  9
$DIMPOST
  1

  9
$DIMAPOST
  1

  9
$DIMALT
 70
     0
  9
$DIMALTD
 70
     2
  9
$DIMALTF
 40
25.3999999999999986
  9
$DIMLFAC
 40
2.0
  9
$DIMTOFL
 70
     1
  9
$DIMTVP
 40
0.0
  9
$DIMTIX
 70
     0
  9
$DIMSOXD
 70
     0
  9
$DIMSAH
 70
     0
  9
$DIMBLK1
  1

  9
$DIMBLK2
  1

  9
$DIMSTYLE
  2
STANDARD
  9
$DIMCLRD
 70
     0
  9
$DIMCLRE
 70
     0
  9
$DIMCLRT
 70
     1
  9
$DIMTFAC
 40
0.5
  9
$DIMGAP
 40
1.5
  9
$LUNITS
 70
     2
  9
$LUPREC
 70
     2
  9
$SKETCHINC
 40
1.0
  9
$FILLETRAD
 40
5.5
  9
$AUNITS
 70
     0
  9
$AUPREC
 70
     0
  9
$MENU
  1
ACAD
  9
$ELEVATION
 40
0.0
  9
$PELEVATION
 40
0.0
  9
$THICKNESS
 40
0.0
  9
$LIMCHECK
 70
     0
  9
$BLIPMODE
 70
     0
  9
$CHAMFERA
 40
2.0
  9
$CHAMFERB
 40
2.0
  9
$SKPOLY
 70
     0
  9
$TDCREATE
 40
2455397.8646990740671754
  9
$TDUPDATE
 40
2459627.4344907412305474
  9
$TDINDWG
 40
0.2519137963
  9
$TDUSRTIMER
 40
0.2519137963
  9
$USRTIMER
 70
     1
  9
$ANGBASE
 50
0.0
  9
$ANGDIR
 70
     0
  9
$PDMODE
 70
     0
  9
$PDSIZE
 40
0.0
  9
$PLINEWID
 40
0.0
  9
$COORDS
 70
     1
  9
$SPLFRAME
 70
     0
  9
$SPLINETYPE
 70
     6
  9
$SPLINESEGS
 70
     8
  9
$ATTDIA
 70
     1
  9
$ATTREQ
 70
     1
  9
$HANDLING
 70
     1
  9
$HANDSEED
  5
1A80
  9
$SURFTAB1
 70
     6
  9
$SURFTAB2
 70
     6
  9
$SURFTYPE
 70
     6
  9
$SURFU
 70
     6
  9
$SURFV
 70
     6
  9
$UCSNAME
  2

  9
$UCSORG
 10
0.0
 20
0.0
 30
0.0
  9
$UCSXDIR
 10
1.0
 20
0.0
 30
0.0
  9
$UCSYDIR
 10
0.0
 20
1.0
 30
0.0
  9
$PUCSNAME
  2

  9
$PUCSORG
 10
0.0
 20
0.0
 30
0.0
  9
$PUCSXDIR
 10
1.0
 20
0.0
 30
0.0
  9
$PUCSYDIR
 10
0.0
 20
1.0
 30
0.0
  9
$USERI1
 70
     0
  9
$USERI2
 70
     0
  9
$USERI3
 70
     0
  9
$USERI4
 70
     0
  9
$USERI5
 70
     0
  9
$USERR1
 40
0.0
  9
$USERR2
 40
0.0
  9
$USERR3
 40
0.0
  9
$USERR4
 40
0.0
  9
$USERR5
 40
0.0
  9
$WORLDVIEW
 70
     1
  9
$SHADEDGE
 70
     3
  9
$SHADEDIF
 70
    70
  9
$TILEMODE
 70
     1
  9
$MAXACTVP
 70
    16
  9
$PLIMCHECK
 70
     0
  9
$PEXTMIN
 10
1.0000000000000000E+20
 20
1.0000000000000000E+20
 30
1.0000000000000000E+20
  9
$PEXTMAX
 10
-1.0000000000000000E+20
 20
-1.0000000000000000E+20
 30
-1.0000000000000000E+20
  9
$PLIMMIN
 10
-0.0674642631973264
 20
-0.0511601294987543
  9
$PLIMMAX
 10
209.9325357368026914
 20
296.9488398705012742
  9
$UNITMODE
 70
     0
  9
$VISRETAIN
 70
     0
  9
$PLINEGEN
 70
     0
  9
$PSLTSCALE
 70
     0
  0
ENDSEC
  0
SECTION
  2
TABLES
  0
TABLE
  2
VPORT
 70
     1
  0
VPORT
  2
*ACTIVE
 70
     0
 10
0.0
 20
0.0
 11
1.0
 21
1.0
 12
-0.2042040731741395
 22
-33.9176449054026818
 13
0.0
 23
0.0
 14
1.0
 24
1.0
 15
10.0
 25
10.0
 16
-0.0000000000001137
 26
0.0
 36
616.467611906412003
 17
291.7729327102795764
 27
-65.2784423355585233
 37
-5.7726714591426953
 40
266.4485714843730193
 41
1.7852028639618129
 42
50.0
 43
0.0
 44
0.0
 50
0.0
 51
0.0
 71
     0
 72
  1500
 73
     1
 74
     0
 75
     0
 76
     0
 77
     0
 78
     0
  0
ENDTAB
  0
TABLE
  2
LTYPE
 70
     6
  0
LTYPE
  2
CONTINUOUS
 70
     0
  3
Solid line
 72
    65
 73
     0
 40
0.0
  0
LTYPE
  2
PHANTOM2
 70
     0
  3
Phantom (.5x) ___ _ _ ___ _ _ ___ _ _ ___ _ _
 72
    65
 73
     6
 40
1.25
 49
0.625
 49
-0.125
 49
0.125
 49
-0.125
 49
0.125
 49
-0.125
  0
LTYPE
  2
VERDECKT
 70
     0
  3
Verdeckt __ __ __ __ __ __ __ __ __ __ __ __ __
 72
    65
 73
     2
 40
0.375
 49
0.25
 49
-0.125
  0
ENDTAB
  0
TABLE
  2
LAYER
 70
    13
  0
LAYER
  2
0
 70
     0
 62
     7
  6
CONTINUOUS
  0
LAYER
  2
VOLL
 70
     0
 62
     1
  6
CONTINUOUS
  0
LAYER
  2
STEMPEL
 70
     0
 62
     3
  6
CONTINUOUS
  0
LAYER
  2
DEFPOINTS
 70
     0
 62
     7
  6
CONTINUOUS
  0
LAYER
  2
ADSK_ASSOC_ENTITY_BACKUPS
 70
     1
 62
    -7
  6
CONTINUOUS
  0
ENDTAB
  0
TABLE
  2
STYLE
 70
     4
  0
STYLE
  2
STANDARD
 70
     0
 40
0.0
 41
0.8
 50
0.0
 71
     0
 42
3.5
  3
simplex.shx
  4

  0
STYLE
  2
GREEKS
 70
     0
 40
0.0
 41
0.8
 50
0.0
 71
     0
 42
2.5
  3
SIMPLEX.shx
  4

  0
ENDTAB
  0
TABLE
  2
VIEW
 70
     7
  0
ENDTAB
  0
TABLE
  2
UCS
 70
     0
  0
ENDTAB
  0
TABLE
  2
APPID
 70
    24
  0
APPID
  2
ACAD
 70
     0
  0
APPID
  2
ACAD_NAV_VCDISPLAY
 70
     0
  0
APPID
  2
ACAD_MLEADERVER
 70
     0
  0
APPID
  2
ACAD_EXEMPT_FROM_CAD_STANDARDS
 70
     0
  0
APPID
  2
ACAD_PSEXT
 70
     0
  0
APPID
  2
ACAECLAYERSTANDARD
 70
     0
  0
APPID
  2
ACAUTHENVIRON
 70
     0
  0
APPID
  2
ACCMTRANSPARENCY
 70
     0
  0
APPID
  2
ACAD_STEPID
 70
     0
  0
APPID
  2
ACSYNERGY
 70
     0
  0
APPID
  2
SYNERGY_BODY_TBR_ID
 70
     0
  0
APPID
  2
ACAD_VIEW_EDGE_ID
 70
     0
  0
APPID
  2
ACSYNERGYSKETCH
 70
     0
  0
APPID
  2
ACAD_MODELDOC_XFORM
 70
     0
  0
APPID
  2
ACAD_DSTYLE_DIMJAG
 70
     0
  0
APPID
  2
ACAD_DSTYLE_DIMTALN
 70
     0
  0
APPID
  2
ACADANNOMONITORALERTICONDI
 70
     0
  0
APPID
  2
ACAD_DIMASSOC_CALC_DIMLFAC
 70
     0
  0
APPID
  2
ACAD_DIMASSOC_DIMLFAC
 70
     0
  0
APPID
  2
ACAD_DIMASSOC_OVERRIDDEN_D
 70
     0
  0
APPID
  2
ACAD_DSTYLE_DIMRADIAL_EXTENSION
 70
     0
  0
APPID
  2
GRADIENTCOLOR1ACI
 70
     0
  0
APPID
  2
GRADIENTCOLOR2ACI
 70
     0
  0
APPID
  2
AcDbAttr
 70
     0
  0
ENDTAB
  0
TABLE
  2
DIMSTYLE
 70
     2
  0
DIMSTYLE
  2
STANDARD
 70
     0
  3

  4

  5

  6

  7

 40
1.0
 41
0.18
 42
0.0625
 43
0.38
 44
0.18
 45
0.0
 46
0.0
 47
0.0
 48
0.0
140
0.18
141
0.09
142
0.0
143
25.3999999999999986
144
1.0
145
0.0
146
1.0
147
0.09
 71
     0
 72
     0
 73
     1
 74
     1
 75
     0
 76
     0
 77
     0
 78
     0
170
     0
171
     2
172
     0
173
     0
174
     0
175
     0
176
     0
177
     0
178
     0
  0
ENDTAB
  0
ENDSEC
  0
SECTION
  2
BLOCKS
  0
BLOCK
  8
0
  2
$MODEL_SPACE
 70
     0
 10
0.0
 20
0.0
 30
0.0
  3
$MODEL_SPACE
  1

  0
ENDBLK
  5
36
  8
0
  0
BLOCK
 67
     1
  8
0
  2
$PAPER_SPACE
 70
     0
 10
0.0
 20
0.0
 30
0.0
  3
$PAPER_SPACE
  1

  0
ENDBLK
  5
34
 67
     1
  8
0
  0
BLOCK
  8
0
  2
*S2
 70
     1
 10
0.0
 20
0.0
 30
0.0
  3
*S2
  1

  0
ENDBLK
  5
B3A
  8
0
  0
BLOCK
  8
0
  2
A$C3365AD36
 70
     0
 10
0.0
 20
0.0
 30
0.0
  3
A$C3365AD36
  1

  0
CIRCLE
  5
19BE
  8
0
 10
97.3691369365925254
 20
-92.4362661998708148
 30
-0.0000000000000213
 40
28.4830215716113386
  0
CIRCLE
  5
19BF
  8
0
 10
97.3691369365925254
 20
-92.4362661998708148
 30
-0.0000000000000213
 40
75.0
  0
CIRCLE
  5
19C0
  8
0
 10
42.3691369365925325
 20
-92.4362661998708148
 30
-0.0000000000000071
 40
9.0
  0
CIRCLE
  5
19C1
  8
0
 10
152.369136936592497
 20
-92.4362661998708148
 30
-0.0000000000000355
 40
9.0
  0
CIRCLE
  5
19C2
  8
0
 10
97.3691369365925254
 20
-147.4362661998708006
 30
-0.0000000000000213
 40
9.0
  0
CIRCLE
  5
19C3
  8
0
 10
97.3691369365925254
 20
-37.4362661998708219
 30
-0.0000000000000213
 40
9.0
  0
CIRCLE
  5
19C4
  8
0
 10
97.3691369365925254
 20
-92.4362661998708148
 30
-0.0000000000000284
 40
19.4999999999999396
  0
CIRCLE
  5
19C5
  8
0
 10
97.3691369365925254
 20
-92.4362661998707864
 30
-0.0000000000000284
 40
24.1476030003186715
  0
CIRCLE
  5
19C6
  8
0
 10
97.3691369365925254
 20
-92.4362661998707864
 30
-0.0000000000000284
 40
22.7705481821078592
  0
CIRCLE
  5
19C7
  8
0
 10
97.3691369365925254
 20
-92.4362661998707864
 30
-0.0000000000000284
 40
25.4999999999999396
  0
CIRCLE
  5
19C8
  8
0
 10
97.3691369365925254
 20
-92.4362661998707864
 30
-0.0000000000000284
 40
22.4999999842242886
  0
CIRCLE
  5
19C9
  8
0
  6
VERDECKT
 62
     1
 10
97.3691369365925254
 20
-92.4362661998708148
 30
-0.0000000000000213
 40
41.0
  0
CIRCLE
  5
19CA
  8
0
  6
VERDECKT
 62
     1
 10
97.3691369365925254
 20
-92.4362661998708148
 30
-0.0000000000000213
 40
39.0
  0
CIRCLE
  5
19CB
  8
0
  6
VERDECKT
 62
     1
 10
97.3691369365925254
 20
-92.4362661998708148
 30
-0.0000000000000284
 40
24.1499999999999808
  0
CIRCLE
  5
19CC
  8
0
  6
VERDECKT
 62
     1
 10
97.3691369365925254
 20
-92.4362661998708148
 30
-0.0000000000000284
 40
21.549999999999951
  0
CIRCLE
  5
19CD
  8
0
  6
VERDECKT
 62
     1
 10
97.3691369365925254
 20
-92.4362661998708148
 30
-0.0000000000000284
 40
23.1631079461495304
  0
CIRCLE
  5
19CE
  8
0
  6
VERDECKT
 62
     1
 10
97.3691369365925254
 20
-92.4362661998708148
 30
-0.0000000000000284
 40
21.0000000000000604
  0
CIRCLE
  5
19CF
  8
0
  6
VERDECKT
 62
     1
 10
97.3691369365925254
 20
-92.4362661998707864
 30
-0.0000000000000284
 40
23.9999999999999503
  0
CIRCLE
  5
19D0
  8
0
  6
VERDECKT
 62
     1
 10
97.3691369365925254
 20
-92.4362661998707864
 30
-0.0000000000000284
 40
24.0034627049316889
  0
ENDBLK
  5
19D2
  8
0
  0
BLOCK
  8
0
  2
A$C0A202FEF
 70
     0
 10
0.0
 20
0.0
 30
0.0
  3
A$C0A202FEF
  1

  0
LINE
  5
19D6
  8
0
 10
73.2191369365925766
 20
72.6503471930876827
 30
-0.0000000000000161
 11
121.5191369365925027
 21
72.6503471930876827
 31
-0.0000000000000161
210
0.0
220
1.0
230
-0.0000000000000002
  0
LINE
  5
19D7
  8
0
 10
22.3691369365925503
 20
38.6503471930876827
 30
-0.0000000000000086
 11
172.369136936592497
 21
38.6503471930876827
 31
-0.0000000000000086
210
0.0
220
1.0
230
-0.0000000000000002
  0
LINE
  5
19D8
  8
0
 10
58.3691369365925468
 20
36.6503471930876188
 30
-0.0000000000000081
 11
136.369136936592497
 21
36.6503471930876188
 31
-0.0000000000000081
210
0.0
220
1.0
230
-0.0000000000000002
  0
LINE
  5
19D9
  8
0
 10
172.369136936592497
 20
54.6503471930876827
 30
-0.0000000000000121
 11
22.3691369365925503
 21
54.6503471930876827
 31
-0.0000000000000121
210
0.0
220
1.0
230
-0.0000000000000002
  0
LINE
  5
19DA
  8
0
 10
73.2191369365925766
 20
81.650347193087697
 30
-0.0000000000000181
 11
121.5191369365925027
 21
81.650347193087697
 31
-0.0000000000000181
210
0.0
220
1.0
230
-0.0000000000000002
  0
LINE
  5
19DB
  8
0
 10
121.5191369365925027
 20
72.650347193087697
 30
-0.0000000000000161
 11
124.4324660049005047
 21
57.5161702148643883
 31
-0.0000000000000128
210
0.0
220
1.0
230
-0.0000000000000002
  0
LINE
  5
19DC
  8
0
 10
73.2191369365925766
 20
72.6503471930876827
 30
-0.0000000000000161
 11
70.3058078682845462
 21
57.516170214864367
 31
-0.0000000000000128
210
0.0
220
1.0
230
-0.0000000000000002
  0
ARC
  5
19DD
  8
0
 10
-64.4139794099816925
 20
58.650347193087633
 30
0.0
 40
5.9999999999999183
210
0.0
220
-0.0000000000000002
230
-1.0
 50
190.8961521411407034
 51
221.8103148957785891
  0
ARC
  5
19DE
  8
0
 10
-130.3242944632033868
 20
58.650347193087633
 30
0.0
 40
5.999999999999897
210
0.0
220
-0.0000000000000002
230
-1.0
 50
318.189685104221212
 51
349.1038478588594103
  0
LINE
  5
19DF
  8
0
 10
58.3691369365925397
 20
36.6503471930875975
 30
-0.0000000000000081
 11
56.3691369365925397
 21
38.6503471930876614
 31
-0.0000000000000086
210
0.0
220
1.0
230
-0.0000000000000002
  0
LINE
  5
19E0
  8
0
 10
136.3691369365926107
 20
36.6503471930875975
 30
-0.0000000000000081
 11
138.369136936592497
 21
38.6503471930876614
 31
-0.0000000000000086
210
0.0
220
1.0
230
-0.0000000000000002
  0
LINE
  5
19E1
  8
0
 10
172.369136936592497
 20
54.6503471930876827
 30
-0.0000000000000121
 11
172.369136936592497
 21
38.6503471930876827
 31
-0.0000000000000086
210
0.0
220
1.0
230
-0.0000000000000002
  0
LINE
  5
19E2
  8
0
 10
22.3691369365925503
 20
54.6503471930876827
 30
-0.0000000000000121
 11
22.3691369365925503
 21
38.6503471930876827
 31
-0.0000000000000086
210
0.0
220
1.0
230
-0.0000000000000002
  0
LINE
  5
19E3
  8
0
 10
121.5191369365925027
 20
81.650347193087697
 30
-0.0000000000000181
 11
121.5191369365925027
 21
72.6503471930876827
 31
-0.0000000000000161
210
0.0
220
1.0
230
-0.0000000000000002
  0
LINE
  5
19E4
  8
0
 10
73.2191369365925766
 20
81.650347193087697
 30
-0.0000000000000181
 11
73.2191369365925766
 21
72.6503471930876827
 31
-0.0000000000000161
210
0.0
220
1.0
230
-0.0000000000000002
  0
LINE
  5
19E5
  8
0
 10
73.221533936273886
 20
123.6315925715464061
 30
-0.0000000000000275
 11
121.5167399369111934
 21
123.6315925715464061
 31
-0.0000000000000275
210
0.0
220
1.0
230
-0.0000000000000002
  0
LINE
  5
19E6
  8
0
 10
118.8176255053422068
 20
85.8323456745515898
 30
-0.0000000000000191
 11
120.5322448827420061
 21
81.6503471930877822
 31
-0.0000000000000181
210
0.0
220
1.0
230
-0.0000000000000002
  0
LINE
  5
19E7
  8
0
 10
75.9206483678429151
 20
85.832345674551604
 30
-0.0000000000000191
 11
74.2060289904430306
 21
81.6503471930877538
 31
-0.0000000000000181
210
0.0
220
1.0
230
-0.0000000000000002
  0
ARC
  5
19E8
  8
0
 10
-70.369136936591417
 20
88.1084653613643241
 30
0.0
 40
6.0000000000010223
210
0.0
220
-0.0000000000000002
230
-1.0
 50
180.0000000000021885
 51
202.2936291596905107
  0
ARC
  5
19E9
  8
0
 10
-124.3691369365937049
 20
88.1084653613643241
 30
0.0
 40
6.0000000000010543
210
0.0
220
-0.0000000000000002
230
-1.0
 50
337.7063708403093756
 51
359.9999999999977263
  0
ARC
  5
19EA
  8
0
 10
-70.3691369365925397
 20
89.1260388989544055
 30
0.0
 40
5.999999999999976
210
0.0
220
-0.0000000000000002
230
-1.0
 50
144.3409123038607902
 51
180.0
  0
ARC
  5
19EB
  8
0
 10
-124.369136936592497
 20
89.1260388989544055
 30
0.0
 40
5.9999999999999574
210
0.0
220
-0.0000000000000002
230
-1.0
 50
0.0
 51
35.6590876961389327
  0
ARC
  5
19EC
  8
0
 10
-83.369136936591957
 20
98.4534179520430541
 30
0.0
 40
9.9999999999994387
210
0.0
220
-0.0000000000000002
230
-1.0
 50
324.3409123038604207
 51
0.0000000000013867
  0
ARC
  5
19ED
  8
0
 10
-111.3691369365928949
 20
98.4534179520430968
 30
0.0
 40
9.9999999999996732
210
0.0
220
-0.0000000000000002
230
-1.0
 50
179.9999999999988916
 51
215.6590876961392098
  0
LINE
  5
19EE
  8
0
 10
121.369136936592497
 20
102.6315925715467046
 30
-0.0000000000000228
 11
121.369136936592497
 21
98.4534179520432815
 31
-0.0000000000000219
210
0.0
220
1.0
230
-0.0000000000000002
  0
LINE
  5
19EF
  8
0
 10
73.3691369365926107
 20
102.6315925715467046
 30
-0.0000000000000228
 11
73.3691369365926107
 21
98.4534179520432815
 31
-0.0000000000000219
210
0.0
220
1.0
230
-0.0000000000000002
  0
ARC
  5
19F0
  8
0
 10
-63.3691369365930015
 20
102.631592571546804
 30
0.0
 40
9.9999999999995808
210
0.0
220
-0.0000000000000002
230
-1.0
 50
161.8060294016154046
 51
180.0000000000005969
  0
ARC
  5
19F1
  8
0
 10
-131.3691369365920991
 20
102.631592571546804
 30
0.0
 40
9.9999999999995737
210
0.0
220
-0.0000000000000002
230
-1.0
 50
359.9999999999993179
 51
18.193970598384599
  0
ARC
  5
19F2
  8
0
 10
-91.8720861789006875
 20
111.9995618891855003
 30
0.0
 40
20.0029492657940793
210
0.0
220
-0.0000000000000002
230
-1.0
 50
341.806029401615092
 51
359.9972235189424055
  0
ARC
  5
19F3
  8
0
 10
-102.8661876942837949
 20
111.9995618891855003
 30
0.0
 40
20.0029492657946513
210
0.0
220
-0.0000000000000002
230
-1.0
 50
180.0027764810575945
 51
198.1939705983845101
  0
LINE
  5
19F4
  8
0
 10
122.869136936592497
 20
117.0894122511381994
 30
-0.000000000000026
 11
122.869136936592497
 21
111.9985925715466948
 31
-0.0000000000000249
210
0.0
220
1.0
230
-0.0000000000000002
  0
LINE
  5
19F5
  8
0
 10
71.8691369365926107
 20
117.0894122511381994
 30
-0.000000000000026
 11
71.8691369365926107
 21
111.9985925715466948
 31
-0.0000000000000249
210
0.0
220
1.0
230
-0.0000000000000002
  0
ARC
  5
19F6
  8
0
 10
-88.3691369365933781
 20
117.0894122511380999
 30
0.0
 40
16.5000000000007816
210
0.0
220
-0.0000000000000002
230
-1.0
 50
0.0000000000003053
 51
23.3592945446400293
  0
ARC
  5
19F7
  8
0
 10
-106.3691369365917012
 20
117.0894122511380999
 30
0.0
 40
16.5000000000007816
210
0.0
220
-0.0000000000000002
230
-1.0
 50
156.6407054553600062
 51
179.9999999999996874
  0
LINE
  5
19F8
  8
0
 10
118.3691369365925965
 20
89.1260388989544055
 30
-0.0000000000000198
 11
118.3691369365925965
 21
88.1084653613640683
 31
-0.0000000000000196
210
0.0
220
1.0
230
-0.0000000000000002
  0
LINE
  5
19F9
  8
0
 10
76.369136936592497
 20
89.1260388989544055
 30
-0.0000000000000198
 11
76.369136936592497
 21
88.1084653613640683
 31
-0.0000000000000196
210
0.0
220
1.0
230
-0.0000000000000002
  0
LINE
  5
19FA
  8
0
  6
VERDECKT
 62
     1
 10
33.3691369365925468
 20
38.6503471930876827
 30
-0.0000000000000086
 11
33.3691369365925468
 21
54.6503471930876827
 31
-0.0000000000000121
210
0.0
220
1.0
230
-0.0000000000000002
  0
LINE
  5
19FB
  8
0
  6
VERDECKT
 62
     1
 10
51.369136936592561
 20
38.6503471930876827
 30
-0.0000000000000086
 11
51.369136936592561
 21
54.6503471930876827
 31
-0.0000000000000121
210
0.0
220
1.0
230
-0.0000000000000002
  0
LINE
  5
19FC
  8
0
  6
VERDECKT
 62
     1
 10
161.369136936592497
 20
54.6503471930876827
 30
-0.0000000000000121
 11
161.369136936592497
 21
38.6503471930876827
 31
-0.0000000000000086
210
0.0
220
1.0
230
-0.0000000000000002
  0
LINE
  5
19FD
  8
0
  6
VERDECKT
 62
     1
 10
143.369136936592497
 20
54.6503471930876827
 30
-0.0000000000000121
 11
143.369136936592497
 21
38.6503471930876827
 31
-0.0000000000000086
210
0.0
220
1.0
230
-0.0000000000000002
  0
LINE
  5
19FE
  8
0
  6
VERDECKT
 62
     1
 10
88.3691369365925539
 20
38.650347193087697
 30
-0.0000000000000086
 11
88.3691369365925539
 21
54.6503471930877112
 31
-0.0000000000000121
210
0.0
220
1.0
230
-0.0000000000000002
  0
LINE
  5
19FF
  8
0
  6
VERDECKT
 62
     1
 10
106.369136936592497
 20
38.650347193087697
 30
-0.0000000000000086
 11
106.369136936592497
 21
54.6503471930877112
 31
-0.0000000000000121
210
0.0
220
1.0
230
-0.0000000000000002
  0
LINE
  5
1A00
  8
0
  6
VERDECKT
 62
     1
 10
118.9191369365924942
 20
81.650347193087697
 30
-0.0000000000000181
 11
118.9191369365924942
 21
36.6503471930876188
 31
-0.0000000000000081
210
0.0
220
1.0
230
-0.0000000000000002
  0
LINE
  5
1A01
  8
0
  6
VERDECKT
 62
     1
 10
75.8191369365925425
 20
81.650347193087697
 30
-0.0000000000000181
 11
75.8191369365925425
 21
36.6503471930876188
 31
-0.0000000000000081
210
0.0
220
1.0
230
-0.0000000000000002
  0
LINE
  5
1A02
  8
0
  6
VERDECKT
 62
     1
 10
75.8191369365925851
 20
81.6306589502554374
 30
-0.0000000000000181
 11
118.9191369365924942
 21
81.6306589502554374
 31
-0.0000000000000181
210
0.0
220
1.0
230
-0.0000000000000002
  0
LINE
  5
1A03
  8
0
  6
VERDECKT
 62
     1
 10
74.5985887544846946
 20
123.0368489060547006
 30
-0.0000000000000273
 11
120.1396851187003989
 21
123.0368489060547006
 31
-0.0000000000000273
210
0.0
220
1.0
230
-0.0000000000000002
  0
ARC
  5
1A04
  8
0
  6
VERDECKT
 62
     1
 10
-77.9091792276729933
 20
88.4562938591531633
 30
0.0
 40
0.0500000000001612
210
0.0
220
-0.0000000000000002
230
-1.0
 50
2.2885786353466591
 51
25.7862872262777785
  0
ARC
  5
1A05
  8
0
  6
VERDECKT
 62
     1
 10
-116.8290946455121002
 20
88.4562938591531633
 30
0.0
 40
0.0500000000001632
210
0.0
220
-0.0000000000000002
230
-1.0
 50
154.2137127737221931
 51
177.7114213646532903
  0
ARC
  5
1A06
  8
0
  6
VERDECKT
 62
     1
 10
-77.8191369365924714
 20
88.4997954202403889
 30
0.0
 40
0.0500000000001251
210
0.0
220
-0.0000000000000002
230
-1.0
 50
180.0000000000162004
 51
205.7862872262990095
  0
ARC
  5
1A07
  8
0
  6
VERDECKT
 62
     1
 10
-116.9191369365925937
 20
88.4997954202403889
 30
0.0
 40
0.0500000000001248
210
0.0
220
-0.0000000000000002
230
-1.0
 50
334.2137127737009905
 51
359.9999999999836859
  0
LINE
  5
1A08
  8
0
  6
VERDECKT
 62
     1
 10
116.869136936592497
 20
89.1260388989544055
 30
-0.0000000000000198
 11
116.869136936592497
 21
88.4997954202403747
 31
-0.0000000000000197
210
0.0
220
1.0
230
-0.0000000000000002
  0
LINE
  5
1A09
  8
0
  6
VERDECKT
 62
     1
 10
77.8691369365925539
 20
89.1260388989544055
 30
-0.0000000000000198
 11
77.8691369365925539
 21
88.4997954202403747
 31
-0.0000000000000197
210
0.0
220
1.0
230
-0.0000000000000002
  0
LINE
  5
1A0A
  8
0
  6
VERDECKT
 62
     1
 10
75.8191369365925851
 20
81.6306589502554374
 30
-0.0000000000000181
 11
74.2060289904430306
 21
81.6503471930877538
 31
-0.0000000000000181
210
0.0
220
1.0
230
-0.0000000000000002
  0
LINE
  5
1A0B
  8
0
  6
VERDECKT
 62
     1
 10
118.9191369365924942
 20
81.6306589502554374
 30
-0.0000000000000181
 11
120.5322448827420061
 21
81.6503471930877538
 31
-0.0000000000000181
210
0.0
220
1.0
230
-0.0000000000000002
  0
ARC
  5
1A0C
  8
0
  6
VERDECKT
 62
     1
 10
-65.4349359678995768
 20
88.9548206114073139
 30
0.0
 40
12.4342009686928492
210
0.0
220
-0.0000000000000002
230
-1.0
 50
182.2885786353072035
 51
190.9257604475996004
  0
ARC
  5
1A0D
  8
0
  6
VERDECKT
 62
     1
 10
-129.3033379052855025
 20
88.9548206114073139
 30
0.0
 40
12.4342009686928492
210
0.0
220
-0.0000000000000002
230
-1.0
 50
349.0742395524002859
 51
357.7114213646927965
  0
LINE
  5
1A0E
  8
0
  6
VERDECKT
 62
     1
 10
117.6607411964748025
 20
84.6999168529819144
 30
-0.0000000000000188
 11
118.9191369365924942
 21
81.6306589502554374
 31
-0.0000000000000181
210
0.0
220
1.0
230
-0.0000000000000002
  0
LINE
  5
1A0F
  8
0
  6
VERDECKT
 62
     1
 10
77.0775326767103195
 20
84.6999168529819144
 30
-0.0000000000000188
 11
75.8191369365925709
 21
81.6306589502554374
 31
-0.0000000000000181
210
0.0
220
1.0
230
-0.0000000000000002
  0
ARC
  5
1A10
  8
0
  6
VERDECKT
 62
     1
 10
-67.8250136246255124
 20
88.493449664336211
 30
0.0
 40
10.0000000000006999
210
0.0
220
-0.0000000000000002
230
-1.0
 50
190.925760447599913
 51
202.2936291596915908
  0
ARC
  5
1A11
  8
0
  6
VERDECKT
 62
     1
 10
-126.9132602485590979
 20
88.4934496643360831
 30
0.0
 40
10.0000000000002292
210
0.0
220
-0.0000000000000002
230
-1.0
 50
337.706370840308125
 51
349.0742395524001722
  0
LINE
  5
1A12
  8
0
  6
VERDECKT
 62
     1
 10
74.5985887544847088
 20
123.0368489060547006
 30
-0.0000000000000273
 11
73.2215339362738717
 21
123.6315925715464061
 31
-0.0000000000000275
210
0.0
220
1.0
230
-0.0000000000000002
  0
LINE
  5
1A13
  8
0
  6
VERDECKT
 62
     1
 10
120.1396851187003989
 20
123.0368489060547006
 30
-0.0000000000000273
 11
121.5167399369111934
 21
123.6315925715464061
 31
-0.0000000000000275
210
0.0
220
1.0
230
-0.0000000000000002
  0
LINE
  5
1A14
  8
0
  6
VERDECKT
 62
     1
 10
120.1396851187003989
 20
123.0368489060547006
 30
-0.0000000000000273
 11
120.3962951520509961
 21
122.4034344940813952
 31
-0.0000000000000272
210
0.0
220
1.0
230
-0.0000000000000002
  0
LINE
  5
1A15
  8
0
  6
VERDECKT
 62
     1
 10
74.5985887544846804
 20
123.0368489060547006
 30
-0.0000000000000273
 11
74.3419787211340832
 21
122.4034344940813952
 31
-0.0000000000000272
210
0.0
220
1.0
230
-0.0000000000000002
  0
ARC
  5
1A16
  8
0
  6
VERDECKT
 62
     1
 10
-91.8660334645184236
 20
111.9985925715460979
 30
0.0
 40
18.4968965279258803
210
0.0
220
-0.0000000000000002
230
-1.0
 50
341.8030277995255233
 51
0.0000000000017175
  0
ARC
  5
1A17
  8
0
  6
VERDECKT
 62
     1
 10
-102.8722404086656041
 20
111.9985925715462969
 30
0.0
 40
18.496896527926971
210
0.0
220
-0.0000000000000002
230
-1.0
 50
179.9999999999988063
 51
198.1969722004737946
  0
ARC
  5
1A18
  8
0
  6
VERDECKT
 62
     1
 10
-63.372898258059017
 20
102.632194834651699
 30
0.0
 40
11.4962386943092501
210
0.0
220
-0.0000000000000002
230
-1.0
 50
161.8030277995260064
 51
180.0030016020893981
  0
ARC
  5
1A19
  8
0
  6
VERDECKT
 62
     1
 10
-131.365375615124691
 20
102.632194834651898
 30
0.0
 40
11.4962386943079107
210
0.0
220
-0.0000000000000002
230
-1.0
 50
359.9969983979096924
 51
18.1969722004751304
  0
LINE
  5
1A1A
  8
0
  6
VERDECKT
 62
     1
 10
119.869136936592497
 20
102.6315925715467046
 30
-0.0000000000000228
 11
119.869136936592497
 21
98.4534179520431678
 31
-0.0000000000000219
210
0.0
220
1.0
230
-0.0000000000000002
  0
LINE
  5
1A1B
  8
0
  6
VERDECKT
 62
     1
 10
74.8691369365926107
 20
102.6315925715467046
 30
-0.0000000000000228
 11
74.8691369365926107
 21
98.4534179520431678
 31
-0.0000000000000219
210
0.0
220
1.0
230
-0.0000000000000002
  0
ARC
  5
1A1C
  8
0
  6
VERDECKT
 62
     1
 10
-83.3691369365928665
 20
98.4534179520431252
 30
0.0
 40
8.5000000000002522
210
0.0
220
-0.0000000000000002
230
-1.0
 50
324.3409123038633197
 51
0.0000000000002926
  0
ARC
  5
1A1D
  8
0
  6
VERDECKT
 62
     1
 10
-111.3691369365919996
 20
98.4534179520432104
 30
0.0
 40
8.5000000000004832
210
0.0
220
-0.0000000000000002
230
-1.0
 50
180.000000000000199
 51
215.6590876961363961
  0
ARC
  5
1A1E
  8
0
  6
VERDECKT
 62
     1
 10
-70.369136936591218
 20
89.1260388989537944
 30
0.0
 40
7.5000000000013802
210
0.0
220
-0.0000000000000002
230
-1.0
 50
144.3409123038630923
 51
179.9999999999953104
  0
ARC
  5
1A1F
  8
0
  6
VERDECKT
 62
     1
 10
-124.3691369365941028
 20
89.1260388989537375
 30
0.0
 40
7.5000000000016191
210
0.0
220
-0.0000000000000002
230
-1.0
 50
0.0000000000051016
 51
35.6590876961358632
  0
ARC
  5
1A20
  8
0
  6
VERDECKT
 62
     1
 10
-86.708770217006915
 20
117.3933767527209966
 30
0.0
 40
13.34309598534605
210
0.0
220
-0.0000000000000002
230
-1.0
 50
359.0131037157796072
 51
22.05394608679822
  0
ARC
  5
1A21
  8
0
  6
VERDECKT
 62
     1
 10
-108.0295036561782069
 20
117.3933767527209966
 30
0.0
 40
13.34309598534605
210
0.0
220
-0.0000000000000002
230
-1.0
 50
157.9460539132018084
 51
180.9868962842203075
  0
LINE
  5
1A22
  8
0
  6
VERDECKT
 62
     1
 10
121.369136936592497
 20
116.991321387309597
 30
-0.000000000000026
 11
121.369136936592497
 21
111.9985925715466948
 31
-0.0000000000000249
210
0.0
220
1.0
230
-0.0000000000000002
  0
LINE
  5
1A23
  8
0
  6
VERDECKT
 62
     1
 10
73.3691369365926107
 20
116.991321387309597
 30
-0.000000000000026
 11
73.3691369365926107
 21
111.9985925715466948
 31
-0.0000000000000249
210
0.0
220
1.0
230
-0.0000000000000002
  0
ARC
  5
1A24
  8
0
  6
VERDECKT
 62
     1
 10
-63.3691369365332022
 20
116.9913213873091991
 30
0.0
 40
10.0000000000594103
210
0.0
220
-0.0000000000000002
230
-1.0
 50
179.0131037157829894
 51
179.9999999999974136
  0
ARC
  5
1A25
  8
0
  6
VERDECKT
 62
     1
 10
-131.3691369366518984
 20
116.9913213873091991
 30
0.0
 40
10.0000000000593996
210
0.0
220
-0.0000000000000002
230
-1.0
 50
0.0000000000025317
 51
0.986896284216993
  0
ENDBLK
  5
1A27
  8
0
  0
ENDSEC
  0
SECTION
  2
ENTITIES
  0
TEXT
  5
8F
  8
VOLL
 10
78.076754716981128
 20
31.025947764705851
 30
0.0
 40
1.8
  1

  7
GREEKS
  0
INSERT
  5
B3C
  8
ADSK_ASSOC_ENTITY_BACKUPS
  2
*S2
 10
0.0
 20
0.0
 30
0.0
  0
INSERT
  5
19D3
  8
STEMPEL
  2
A$C3365AD36
 10
194.1995917005129115
 20
-64.0381355235690535
 30
-11.5453429182853409
  0
INSERT
  5
1A28
  8
STEMPEL
  2
A$C0A202FEF
 10
194.1995917005129115
 20
-90.5493653300289338
 30
-11.5453429182853498
  0
VIEWPORT
  5
928
 67
     1
  8
0
 10
104.9325357368027056
 20
148.4488398705011889
 30
0.0
 40
533.9969448798291296
 41
299.1239570917758783
 68
     1
 69
     1
1001
ACAD
1000
MVIEW
1002
{
1070
    16
1010
0.0
1020
0.0
1030
0.0
1010
0.0
1020
0.0
1030
1.0
1040
0.0
1040
299.1239570917758783
1040
104.9325357368027056
1040
148.4488398705011889
1040
50.0
1040
0.0
1040
0.0
1070
     0
1070
  1500
1070
     1
1070
     1
1070
     0
1070
     0
1070
     0
1070
     0
1040
0.0
1040
0.0
1040
0.0
1040
10.0
1040
10.0
1040
10.0
1040
10.0
1070
     0
1002
{
1002
}
1002
}
  0
ENDSEC
  0
EOF
