  0
SECTION
  2
HEADER
  9
$ACADVER
  1
AC1009
  9
$INSBASE
 10
509.9391017861535147
 20
-118.0350180316795985
 30
403.1361558984037856
  9
$EXTMIN
 10
629.6519951185631498
 20
-141.9559819530425102
 30
-29.9999999999999503
  9
$EXTMAX
 10
1311.6987391972400019
 20
-0.4677040982103371
 30
61.5150985925036267
  9
$LIMMIN
 10
0.0
 20
0.000000000000008
  9
$LIMMAX
 10
594.0
 20
840.0
  9
$ORTHOMODE
 70
     1
  9
$REGENMODE
 70
     1
  9
$FILLMODE
 70
     1
  9
$QTEXTMODE
 70
     0
  9
$MIRRTEXT
 70
     1
  9
$DRAGMODE
 70
     2
  9
$LTSCALE
 40
20.0
  9
$OSMODE
 70
    39
  9
$ATTMODE
 70
     1
  9
$TEXTSIZE
 40
2.0
  9
$TRACEWID
 40
1.0
  9
$TEXTSTYLE
  7
STANDARD
  9
$CLAYER
  8
HILF
  9
$CELTYPE
  6
BYLAYER
  9
$CECOLOR
 62
   256
  9
$DIMSCALE
 40
2.0
  9
$DIMASZ
 40
3.5
  9
$DIMEXO
 40
1.0
  9
$DIMDLI
 40
7.0
  9
$DIMRND
 40
0.0
  9
$DIMDLE
 40
0.0
  9
$DIMEXE
 40
1.0
  9
$DIMTP
 40
0.0
  9
$DIMTM
 40
0.0
  9
$DIMTXT
 40
3.5
  9
$DIMCEN
 40
1.5
  9
$DIMTSZ
 40
0.0
  9
$DIMTOL
 70
     0
  9
$DIMLIM
 70
     0
  9
$DIMTIH
 70
     0
  9
$DIMTOH
 70
     0
  9
$DIMSE1
 70
     0
  9
$DIMSE2
 70
     0
  9
$DIMTAD
 70
     1
  9
$DIMZIN
 70
     8
  9
$DIMBLK
  1

  9
$DIMASO
 70
     1
  9
$DIMSHO
 70
     0
  9
$DIMPOST
  1

  9
$DIMAPOST
  1

  9
$DIMALT
 70
     0
  9
$DIMALTD
 70
     2
  9
$DIMALTF
 40
25.3999999999999986
  9
$DIMLFAC
 40
1.0
  9
$DIMTOFL
 70
     1
  9
$DIMTVP
 40
0.0
  9
$DIMTIX
 70
     0
  9
$DIMSOXD
 70
     0
  9
$DIMSAH
 70
     0
  9
$DIMBLK1
  1

  9
$DIMBLK2
  1

  9
$DIMSTYLE
  2
STANDARD
  9
$DIMCLRD
 70
     0
  9
$DIMCLRE
 70
     0
  9
$DIMCLRT
 70
     1
  9
$DIMTFAC
 40
0.5142857142857143
  9
$DIMGAP
 40
1.5
  9
$LUNITS
 70
     2
  9
$LUPREC
 70
     2
  9
$SKETCHINC
 40
1.0
  9
$FILLETRAD
 40
6.5
  9
$AUNITS
 70
     0
  9
$AUPREC
 70
     0
  9
$MENU
  1
ACAD
  9
$ELEVATION
 40
0.0
  9
$PELEVATION
 40
0.0
  9
$THICKNESS
 40
0.0
  9
$LIMCHECK
 70
     0
  9
$BLIPMODE
 70
     0
  9
$CHAMFERA
 40
0.0
  9
$CHAMFERB
 40
0.0
  9
$SKPOLY
 70
     0
  9
$TDCREATE
 40
2455397.867048610933125
  9
$TDUPDATE
 40
2459474.3117476850748062
  9
$TDINDWG
 40
0.8620207986
  9
$TDUSRTIMER
 40
0.8620207986
  9
$USRTIMER
 70
     1
  9
$ANGBASE
 50
0.0
  9
$ANGDIR
 70
     0
  9
$PDMODE
 70
     0
  9
$PDSIZE
 40
0.0
  9
$PLINEWID
 40
0.0
  9
$COORDS
 70
     1
  9
$SPLFRAME
 70
     0
  9
$SPLINETYPE
 70
     6
  9
$SPLINESEGS
 70
     8
  9
$ATTDIA
 70
     1
  9
$ATTREQ
 70
     1
  9
$HANDLING
 70
     1
  9
$HANDSEED
  5
6D7D
  9
$SURFTAB1
 70
     6
  9
$SURFTAB2
 70
     6
  9
$SURFTYPE
 70
     6
  9
$SURFU
 70
     6
  9
$SURFV
 70
     6
  9
$UCSNAME
  2

  9
$UCSORG
 10
0.0
 20
0.0
 30
0.0
  9
$UCSXDIR
 10
1.0
 20
0.0
 30
0.0
  9
$UCSYDIR
 10
0.0
 20
1.0
 30
0.0
  9
$PUCSNAME
  2

  9
$PUCSORG
 10
0.0
 20
0.0
 30
0.0
  9
$PUCSXDIR
 10
1.0
 20
0.0
 30
0.0
  9
$PUCSYDIR
 10
0.0
 20
1.0
 30
0.0
  9
$USERI1
 70
     0
  9
$USERI2
 70
     0
  9
$USERI3
 70
     0
  9
$USERI4
 70
     0
  9
$USERI5
 70
     0
  9
$USERR1
 40
0.0
  9
$USERR2
 40
0.0
  9
$USERR3
 40
0.0
  9
$USERR4
 40
0.0
  9
$USERR5
 40
0.0
  9
$WORLDVIEW
 70
     1
  9
$SHADEDGE
 70
     3
  9
$SHADEDIF
 70
    70
  9
$TILEMODE
 70
     1
  9
$MAXACTVP
 70
    16
  9
$PLIMCHECK
 70
     0
  9
$PEXTMIN
 10
1.903037017766394
 20
0.3101023509972265
 30
-405.064178417352025
  9
$PEXTMAX
 10
197.6797121910846045
 20
286.9241531762261843
 30
0.0061820150608582
  9
$PLIMMIN
 10
-5.027082920074462
 20
-5.027099609375
  9
$PLIMMAX
 10
204.9462447166442871
 20
291.898895263671875
  9
$UNITMODE
 70
     0
  9
$VISRETAIN
 70
     0
  9
$PLINEGEN
 70
     0
  9
$PSLTSCALE
 70
     0
  0
ENDSEC
  0
SECTION
  2
TABLES
  0
TABLE
  2
VPORT
 70
     1
  0
VPORT
  2
*ACTIVE
 70
     0
 10
0.0
 20
0.0
 11
1.0
 21
1.0
 12
325.7464742625531926
 22
-33.4122413412778485
 13
0.0
 23
0.0
 14
1.0
 24
1.0
 15
10.0
 25
10.0
 16
-0.0000000000003411
 26
0.0
 36
1612.6353471616930619
 17
970.6753495784004144
 27
-38.158862640235931
 37
15.7575492962518098
 40
171.1080951235340137
 41
1.6286472148541109
 42
50.0
 43
0.0
 44
0.0
 50
0.0
 51
0.0
 71
     0
 72
  1500
 73
     1
 74
     1
 75
     0
 76
     0
 77
     0
 78
     0
  0
ENDTAB
  0
TABLE
  2
LTYPE
 70
    32
  0
LTYPE
  2
CONTINUOUS
 70
     0
  3
Solid line
 72
    65
 73
     0
 40
0.0
  0
LTYPE
  2
HIDDEN
 70
     0
  3
Hidden __ __ __ __ __ __ __ __ __ __ __ __ __ __
 72
    65
 73
     2
 40
0.375
 49
0.25
 49
-0.125
  0
LTYPE
  2
PHANTOM2
 70
     0
  3
Phantom (.5x) ___ _ _ ___ _ _ ___ _ _ ___ _ _
 72
    65
 73
     6
 40
1.25
 49
0.625
 49
-0.125
 49
0.125
 49
-0.125
 49
0.125
 49
-0.125
  0
LTYPE
  2
CENTER
 70
     0
  3
Center ____ _ ____ _ ____ _ ____ _ ____ _ ____
 72
    65
 73
     4
 40
2.0
 49
1.25
 49
-0.25
 49
0.25
 49
-0.25
  0
LTYPE
  2
AMCONSTR
 70
     0
  3
_______________________
 72
    65
 73
     2
 40
9999.0
 49
9999.0
 49
0.0
  0
LTYPE
  2
CENTER2
 70
     0
  3
Center (.5x) ___ _ ___ _ ___ _ ___ _ ___ _ ___
 72
    65
 73
     4
 40
1.125
 49
0.75
 49
-0.125
 49
0.125
 49
-0.125
  0
LTYPE
  2
HIDDEN2
 70
     0
  3
Hidden (.5x) _ _ _ _ _ _ _ _ _ _ _ _ _ _ _ _ _
 72
    65
 73
     2
 40
0.1875
 49
0.125
 49
-0.0625
  0
LTYPE
  2
AMZIGZAG2
 70
     0
  3
/\/-/\/-/\/-/\/-/\/-/\/
 72
    65
 73
     2
 40
0.4401
 49
0.0001
 49
-0.4400000000000001
  0
LTYPE
  2
ACANSTGB
 70
     0
  3
__ . . __ . .
 72
    65
 73
     6
 40
0.35433070866
 49
0.15748031496
 49
-0.03937007874
 49
0.03937007874
 49
-0.03937007874
 49
0.03937007874
 49
-0.03937007874
  0
LTYPE
  2
ACANSTGL
 70
     0
  3
_ _ _ _ _
 72
    65
 73
     2
 40
0.11811023622
 49
0.07874015748
 49
-0.03937007874
  0
LTYPE
  2
AUSGEZOGEN
 70
     0
  3
Ausgezogene Linie
 72
    65
 73
     0
 40
0.0
  0
LTYPE
  2
VERDECKT
 70
     0
  3
_ _ _ _ _ _ _ _ _ _ _ _ _ _ _ _ _ _ _ _ _ _ _
 72
    65
 73
     2
 40
0.375
 49
0.25
 49
-0.125
  0
ENDTAB
  0
TABLE
  2
LAYER
 70
    33
  0
LAYER
  2
0
 70
     0
 62
     7
  6
CONTINUOUS
  0
LAYER
  2
VOLL
 70
     0
 62
     1
  6
CONTINUOUS
  0
LAYER
  2
HILF
 70
     0
 62
     2
  6
CONTINUOUS
  0
LAYER
  2
DEFPOINTS
 70
     0
 62
   255
  6
CONTINUOUS
  0
LAYER
  2
ADSK_ASSOC_ENTITY_BACKUPS
 70
     1
 62
    -7
  6
CONTINUOUS
  0
ENDTAB
  0
TABLE
  2
STYLE
 70
     9
  0
STYLE
  2
STANDARD
 70
     0
 40
0.0
 41
0.8
 50
0.0
 71
     0
 42
2.0
  3
simplex.shx
  4

  0
STYLE
  2
GREEKS
 70
     0
 40
0.0
 41
0.8
 50
0.0
 71
     0
 42
2.5
  3
SIMPLEX.shx
  4

  0
STYLE
  2

 70
     1
 40
0.0
 41
1.0
 50
0.0
 71
     0
 42
2.5
  3
genltshp.shx
  4

  0
STYLE
  2
ACANSGDT
 70
     0
 40
0.0
 41
1.0
 50
0.0
 71
     0
 42
2.5
  3
amgdt.shx
  4

  0
ENDTAB
  0
TABLE
  2
VIEW
 70
     1
  0
ENDTAB
  0
TABLE
  2
UCS
 70
     0
  0
ENDTAB
  0
TABLE
  2
APPID
 70
    45
  0
APPID
  2
ACAD
 70
     0
  0
APPID
  2
ACAD_NAV_VCDISPLAY
 70
     0
  0
APPID
  2
GRADIENTCOLOR1ACI
 70
     0
  0
APPID
  2
GRADIENTCOLOR2ACI
 70
     0
  0
APPID
  2
ACAD_DSTYLE_DIMRADIAL_EXTENSION
 70
     0
  0
APPID
  2
ACADANNOMONITORALERTICONDI
 70
     0
  0
APPID
  2
ACAD_EXEMPT_FROM_CAD_STANDARDS
 70
     0
  0
APPID
  2
ACAD_MLEADERVER
 70
     0
  0
APPID
  2
ACAD_PSEXT
 70
     0
  0
APPID
  2
ACAECLAYERSTANDARD
 70
     0
  0
APPID
  2
ACCMTRANSPARENCY
 70
     0
  0
APPID
  2
ACAD_OBJECT_CHANGE_GUID
 70
     0
  0
APPID
  2
MCAD_NO_VIS
 70
     0
  0
APPID
  2
ACAD_TEMP_GRAPHIC
 70
     0
  0
APPID
  2
ACATTRIBSERVICES
 70
     0
  0
APPID
  2
DESIGNERASSEMBLIES
 70
     0
  0
APPID
  2
ACAD_DSTYLE_DIMJAG
 70
     0
  0
APPID
  2
ACAD_DSTYLE_DIMBREAK
 70
     0
  0
APPID
  2
GENIUS_GENSCREG_15
 70
     0
  0
APPID
  2
GENIUS_GENOBJ-N-SDF_13
 70
     0
  0
APPID
  2
GENIUS_GENODEF_13
 70
     0
  0
APPID
  2
ACAD_STEPID
 70
     0
  0
APPID
  2
ACAD_DSTYLE_DIMARC_LENGTH_
 70
     0
  0
APPID
  2
ACAD_DSTYLE_DIM_LINETYPE
 70
     0
  0
APPID
  2
ACAD_DSTYLE_DIM_EXT1_LINETYPE
 70
     0
  0
APPID
  2
ACAD_DSTYLE_DIM_EXT2_LINETYPE
 70
     0
  0
APPID
  2
RAK
 70
     0
  0
APPID
  2
ACADANNOPO
 70
     0
  0
APPID
  2
ACSYNERGY
 70
     0
  0
APPID
  2
SYNERGY_BODY_TBR_ID
 70
     0
  0
APPID
  2
ACAD_VIEW_EDGE_ID
 70
     0
  0
APPID
  2
ACSYNERGYSKETCH
 70
     0
  0
APPID
  2
ACAD_MODELDOC_XFORM
 70
     0
  0
APPID
  2
GENIUS_GENDTOL_13
 70
     0
  0
APPID
  2
ACAD_DSTYLE_DIMINSPECT
 70
     0
  0
APPID
  2
ACAD_DSTYLE_DIMANGULAR_EXT
 70
     0
  0
APPID
  2
PLOTTRANSPARENCY
 70
     0
  0
APPID
  2
ACAUTHENVIRON
 70
     0
  0
APPID
  2
ACDBDYNAMICBLOCKTRUENAME
 70
     0
  0
APPID
  2
ACDBDYNAMICBLOCKGUID
 70
     0
  0
APPID
  2
PE_URL
 70
     0
  0
APPID
  2
ACADANNOAV
 70
     0
  0
APPID
  2
ACAD_DSTYLE_DIMTALN
 70
     0
  0
APPID
  2
ACADANNOTATIVE
 70
     0
  0
APPID
  2
AcDbAttr
 70
     0
  0
ENDTAB
  0
TABLE
  2
DIMSTYLE
 70
    21
  0
DIMSTYLE
  2
STANDARD
 70
     0
  3

  4

  5

  6

  7

 40
1.0
 41
0.18
 42
0.0625
 43
0.38
 44
0.18
 45
0.0
 46
0.0
 47
0.0
 48
0.0
140
0.18
141
0.09
142
0.0
143
25.3999999999999986
144
1.0
145
0.0
146
1.0
147
0.09
 71
     0
 72
     0
 73
     1
 74
     1
 75
     0
 76
     0
 77
     0
 78
     0
170
     0
171
     2
172
     0
173
     0
174
     0
175
     0
176
     0
177
     0
178
     0
  0
DIMSTYLE
  2
AM_ANSI
 70
     0
  3

  4
mm
  5

  6

  7

 40
1.0
 41
0.12
 42
0.05
 43
0.5
 44
0.1
 45
0.0
 46
0.0
 47
0.1
 48
0.1
140
0.12
141
0.0
142
0.0
143
25.3999999999999986
144
1.0
145
0.0
146
0.71
147
0.06
 71
     0
 72
     0
 73
     1
 74
     1
 75
     0
 76
     0
 77
     0
 78
     7
170
     0
171
     2
172
     0
173
     0
174
     0
175
     0
176
   256
177
   256
178
   255
  0
DIMSTYLE
  2
AM_ANSI$3
 70
     0
  3

  4
mm
  5

  6

  7

 40
1.0
 41
0.12
 42
0.05
 43
0.5
 44
0.1
 45
0.0
 46
0.0
 47
0.1
 48
0.1
140
0.12
141
0.0
142
0.0
143
25.3999999999999986
144
1.0
145
0.0
146
0.71
147
0.06
 71
     0
 72
     0
 73
     1
 74
     1
 75
     0
 76
     0
 77
     0
 78
     7
170
     0
171
     2
172
     0
173
     0
174
     0
175
     0
176
   256
177
   256
178
   255
  0
DIMSTYLE
  2
AM_ANSI$4
 70
     0
  3

  4
mm
  5

  6

  7

 40
1.0
 41
0.12
 42
0.05
 43
0.5
 44
0.1
 45
0.0
 46
0.0
 47
0.1
 48
0.1
140
0.12
141
0.0
142
0.0
143
25.3999999999999986
144
1.0
145
0.0
146
0.71
147
0.06
 71
     0
 72
     0
 73
     1
 74
     1
 75
     0
 76
     0
 77
     0
 78
     7
170
     0
171
     2
172
     0
173
     0
174
     0
175
     0
176
   256
177
   256
178
   255
  0
DIMSTYLE
  2
AM_ANSI$7
 70
     0
  3

  4
mm
  5

  6

  7

 40
1.0
 41
0.12
 42
0.05
 43
0.5
 44
0.1
 45
0.0
 46
0.0
 47
0.1
 48
0.1
140
0.12
141
0.0
142
0.0
143
25.3999999999999986
144
1.0
145
0.0
146
0.71
147
0.06
 71
     0
 72
     0
 73
     1
 74
     1
 75
     0
 76
     0
 77
     0
 78
     7
170
     0
171
     2
172
     0
173
     0
174
     0
175
     0
176
   256
177
   256
178
   255
  0
DIMSTYLE
  2
AM_ANSI$SF
 70
     0
  3

  4
mm
  5

  6

  7

 40
1.0
 41
0.12
 42
0.05
 43
0.5
 44
0.1
 45
0.0
 46
0.0
 47
0.1
 48
0.1
140
0.12
141
0.0
142
0.0
143
25.3999999999999986
144
1.0
145
0.0
146
0.71
147
0.06
 71
     0
 72
     0
 73
     1
 74
     1
 75
     1
 76
     1
 77
     0
 78
     7
170
     0
171
     2
172
     0
173
     0
174
     0
175
     0
176
   256
177
   256
178
   255
  0
DIMSTYLE
  2
AM_ANSI$SH
 70
     0
  3

  4
mm
  5

  6
GENAXEH
  7

 40
1.0
 41
0.12
 42
0.05
 43
0.5
 44
0.1
 45
0.0
 46
0.0
 47
0.1
 48
0.1
140
0.12
141
0.0
142
0.0
143
25.3999999999999986
144
1.0
145
0.0
146
0.71
147
0.06
 71
     0
 72
     0
 73
     1
 74
     1
 75
     1
 76
     1
 77
     0
 78
     7
170
     0
171
     2
172
     0
173
     1
174
     0
175
     0
176
   256
177
   256
178
   255
  0
DIMSTYLE
  2
AM_ANSI$0
 70
     0
  3

  4
"
  5

  6

  7

 40
1.0
 41
3.5
 42
1.0
 43
10.0
 44
1.0
 45
0.0
 46
0.0
 47
0.1
 48
0.1
140
3.5
141
0.0
142
0.0
143
0.0393701
144
1.0
145
0.0
146
0.71
147
1.5
 71
     0
 72
     0
 73
     1
 74
     1
 75
     0
 76
     0
 77
     0
 78
     8
170
     0
171
     2
172
     0
173
     0
174
     0
175
     0
176
   256
177
   256
178
     2
  0
ENDTAB
  0
ENDSEC
  0
SECTION
  2
BLOCKS
  0
BLOCK
  8
0
  2
$MODEL_SPACE
 70
     0
 10
0.0
 20
0.0
 30
0.0
  3
$MODEL_SPACE
  1

  0
ENDBLK
  5
38
  8
0
  0
BLOCK
 67
     1
  8
0
  2
$PAPER_SPACE
 70
     2
 10
0.0
 20
0.0
 30
0.0
  3
$PAPER_SPACE
  1

  0
ENDBLK
  5
36
 67
     1
  8
0
  0
BLOCK
  8
0
  2
GENAXEH
 70
     0
 10
0.0
 20
0.0
 30
0.0
  3
GENAXEH
  1

  0
LINE
  5
1721
  8
0
 10
-1.0
 20
0.0
 30
0.0
 11
1.0
 21
0.0
 31
0.0
  0
ENDBLK
  5
1723
  8
0
  0
BLOCK
  8
0
  2
*S3
 70
     1
 10
0.0
 20
0.0
 30
0.0
  3
*S3
  1

  0
ENDBLK
  5
2101
  8
0
  0
BLOCK
  8
0
  2
*U4
 70
     1
 10
0.0
 20
0.0
 30
0.0
  3
*U4
  1

  0
ENDBLK
  5
3EBB
  8
0
  0
BLOCK
  8
0
  2
A$CAB6F6204
 70
     0
 10
0.0
 20
0.0
 30
0.0
  3
A$CAB6F6204
  1

  0
CIRCLE
  5
6278
  8
0
  6
CONTINUOUS
 62
     3
 10
654.6519951185636046
 20
-25.4677040982105112
 30
0.0
 40
8.9500000000000242
  0
CIRCLE
  5
6279
  8
0
  6
CONTINUOUS
 62
     3
 10
654.6519951185636046
 20
-25.4677040982105609
 30
0.0
 40
25.0
  0
ARC
  5
627A
  8
0
  6
CONTINUOUS
 62
     3
 10
654.6519951185636046
 20
-25.4677040982104899
 30
0.0
 40
5.0000000000000098
 50
261.0357121207069895
 51
278.9642878792922147
  0
ARC
  5
627B
  8
0
  6
CONTINUOUS
 62
     3
 10
654.6519951185636046
 20
-25.4677040982105183
 30
0.0
 40
5.0000000000000169
 50
81.0357121207069184
 51
98.9642878792921294
  0
LINE
  5
627C
  8
0
  6
CONTINUOUS
 62
     3
 10
655.4310891905055314
 20
-21.5443111243847802
 30
0.0
 11
655.4310891905055314
 21
-29.3910970720362315
 31
0.0
  0
ARC
  5
627D
  8
0
  6
CONTINUOUS
 62
     3
 10
654.6519951185636046
 20
-25.4677040982105005
 30
0.0
 40
4.0
 50
281.23149345072801
 51
78.7685065492731411
  0
LINE
  5
627E
  8
0
  6
CONTINUOUS
 62
     3
 10
653.8729010466219052
 20
-29.3910970720362315
 30
0.0
 11
653.8729010466219052
 21
-21.5443111243847802
 31
0.0
  0
ARC
  5
627F
  8
0
  6
CONTINUOUS
 62
     3
 10
654.6519951185636046
 20
-25.4677040982105005
 30
0.0
 40
4.0
 50
101.2314934507279958
 51
258.7685065492731837
  0
POLYLINE
  8
0
  5
63EB
  62
3
  66
     1
 10
0.000000
 20
0.000000
 30
0.000000
  70
     8
  0
VERTEX
  8
0
  5
63EC
 10
655.431
 20
-29.3911
 30
0.000000
  70
    32
  0
VERTEX
  8
0
  5
63ED
 10
655.431
 20
-29.4007
 30
0.000000
  70
    32
  0
VERTEX
  8
0
  5
63EE
 10
655.431
 20
-29.4103
 30
0.000000
  70
    32
  0
VERTEX
  8
0
  5
63EF
 10
655.431
 20
-29.4199
 30
0.000000
  70
    32
  0
VERTEX
  8
0
  5
63F0
 10
655.431
 20
-29.4295
 30
0.000000
  70
    32
  0
VERTEX
  8
0
  5
63F1
 10
655.431
 20
-29.4392
 30
0.000000
  70
    32
  0
VERTEX
  8
0
  5
63F2
 10
655.431
 20
-29.4489
 30
0.000000
  70
    32
  0
VERTEX
  8
0
  5
63F3
 10
655.431
 20
-29.4586
 30
0.000000
  70
    32
  0
VERTEX
  8
0
  5
63F4
 10
655.431
 20
-29.4683
 30
0.000000
  70
    32
  0
VERTEX
  8
0
  5
63F5
 10
655.431
 20
-29.4780
 30
0.000000
  70
    32
  0
VERTEX
  8
0
  5
63F6
 10
655.431
 20
-29.4878
 30
0.000000
  70
    32
  0
VERTEX
  8
0
  5
63F7
 10
655.431
 20
-29.4976
 30
0.000000
  70
    32
  0
VERTEX
  8
0
  5
63F8
 10
655.431
 20
-29.5074
 30
0.000000
  70
    32
  0
VERTEX
  8
0
  5
63F9
 10
655.431
 20
-29.5172
 30
0.000000
  70
    32
  0
VERTEX
  8
0
  5
63FA
 10
655.431
 20
-29.5271
 30
0.000000
  70
    32
  0
VERTEX
  8
0
  5
63FB
 10
655.431
 20
-29.5370
 30
0.000000
  70
    32
  0
VERTEX
  8
0
  5
63FC
 10
655.431
 20
-29.5469
 30
0.000000
  70
    32
  0
VERTEX
  8
0
  5
63FD
 10
655.431
 20
-29.5568
 30
0.000000
  70
    32
  0
VERTEX
  8
0
  5
63FE
 10
655.431
 20
-29.5667
 30
0.000000
  70
    32
  0
VERTEX
  8
0
  5
63FF
 10
655.431
 20
-29.5767
 30
0.000000
  70
    32
  0
VERTEX
  8
0
  5
6400
 10
655.431
 20
-29.5867
 30
0.000000
  70
    32
  0
VERTEX
  8
0
  5
6401
 10
655.431
 20
-29.5967
 30
0.000000
  70
    32
  0
VERTEX
  8
0
  5
6402
 10
655.431
 20
-29.6067
 30
0.000000
  70
    32
  0
VERTEX
  8
0
  5
6403
 10
655.431
 20
-29.6168
 30
0.000000
  70
    32
  0
VERTEX
  8
0
  5
6404
 10
655.431
 20
-29.6269
 30
0.000000
  70
    32
  0
VERTEX
  8
0
  5
6405
 10
655.431
 20
-29.6370
 30
0.000000
  70
    32
  0
VERTEX
  8
0
  5
6406
 10
655.431
 20
-29.6471
 30
0.000000
  70
    32
  0
VERTEX
  8
0
  5
6407
 10
655.431
 20
-29.6573
 30
0.000000
  70
    32
  0
VERTEX
  8
0
  5
6408
 10
655.431
 20
-29.6674
 30
0.000000
  70
    32
  0
VERTEX
  8
0
  5
6409
 10
655.431
 20
-29.6776
 30
0.000000
  70
    32
  0
VERTEX
  8
0
  5
640A
 10
655.431
 20
-29.6878
 30
0.000000
  70
    32
  0
VERTEX
  8
0
  5
640B
 10
655.431
 20
-29.6981
 30
0.000000
  70
    32
  0
VERTEX
  8
0
  5
640C
 10
655.431
 20
-29.7084
 30
0.000000
  70
    32
  0
VERTEX
  8
0
  5
640D
 10
655.431
 20
-29.7186
 30
0.000000
  70
    32
  0
VERTEX
  8
0
  5
640E
 10
655.431
 20
-29.7290
 30
0.000000
  70
    32
  0
VERTEX
  8
0
  5
640F
 10
655.431
 20
-29.7393
 30
0.000000
  70
    32
  0
VERTEX
  8
0
  5
6410
 10
655.431
 20
-29.7497
 30
0.000000
  70
    32
  0
VERTEX
  8
0
  5
6411
 10
655.431
 20
-29.7600
 30
0.000000
  70
    32
  0
VERTEX
  8
0
  5
6412
 10
655.431
 20
-29.7705
 30
0.000000
  70
    32
  0
VERTEX
  8
0
  5
6413
 10
655.431
 20
-29.7809
 30
0.000000
  70
    32
  0
VERTEX
  8
0
  5
6414
 10
655.431
 20
-29.7913
 30
0.000000
  70
    32
  0
VERTEX
  8
0
  5
6415
 10
655.431
 20
-29.8018
 30
0.000000
  70
    32
  0
VERTEX
  8
0
  5
6416
 10
655.431
 20
-29.8123
 30
0.000000
  70
    32
  0
VERTEX
  8
0
  5
6417
 10
655.431
 20
-29.8229
 30
0.000000
  70
    32
  0
VERTEX
  8
0
  5
6418
 10
655.431
 20
-29.8334
 30
0.000000
  70
    32
  0
VERTEX
  8
0
  5
6419
 10
655.431
 20
-29.8440
 30
0.000000
  70
    32
  0
VERTEX
  8
0
  5
641A
 10
655.431
 20
-29.8546
 30
0.000000
  70
    32
  0
VERTEX
  8
0
  5
641B
 10
655.431
 20
-29.8652
 30
0.000000
  70
    32
  0
VERTEX
  8
0
  5
641C
 10
655.431
 20
-29.8759
 30
0.000000
  70
    32
  0
VERTEX
  8
0
  5
641D
 10
655.431
 20
-29.8866
 30
0.000000
  70
    32
  0
VERTEX
  8
0
  5
641E
 10
655.431
 20
-29.8973
 30
0.000000
  70
    32
  0
VERTEX
  8
0
  5
641F
 10
655.431
 20
-29.9080
 30
0.000000
  70
    32
  0
VERTEX
  8
0
  5
6420
 10
655.431
 20
-29.9188
 30
0.000000
  70
    32
  0
VERTEX
  8
0
  5
6421
 10
655.431
 20
-29.9296
 30
0.000000
  70
    32
  0
VERTEX
  8
0
  5
6422
 10
655.431
 20
-29.9404
 30
0.000000
  70
    32
  0
VERTEX
  8
0
  5
6423
 10
655.431
 20
-29.9512
 30
0.000000
  70
    32
  0
VERTEX
  8
0
  5
6424
 10
655.431
 20
-29.9621
 30
0.000000
  70
    32
  0
VERTEX
  8
0
  5
6425
 10
655.431
 20
-29.9729
 30
0.000000
  70
    32
  0
VERTEX
  8
0
  5
6426
 10
655.431
 20
-29.9838
 30
0.000000
  70
    32
  0
VERTEX
  8
0
  5
6427
 10
655.431
 20
-29.9948
 30
0.000000
  70
    32
  0
VERTEX
  8
0
  5
6428
 10
655.431
 20
-30.0057
 30
0.000000
  70
    32
  0
VERTEX
  8
0
  5
6429
 10
655.431
 20
-30.0167
 30
0.000000
  70
    32
  0
VERTEX
  8
0
  5
642A
 10
655.431
 20
-30.0277
 30
0.000000
  70
    32
  0
VERTEX
  8
0
  5
642B
 10
655.431
 20
-30.0388
 30
0.000000
  70
    32
  0
VERTEX
  8
0
  5
642C
 10
655.431
 20
-30.0499
 30
0.000000
  70
    32
  0
VERTEX
  8
0
  5
642D
 10
655.431
 20
-30.0609
 30
0.000000
  70
    32
  0
VERTEX
  8
0
  5
642E
 10
655.431
 20
-30.0721
 30
0.000000
  70
    32
  0
VERTEX
  8
0
  5
642F
 10
655.431
 20
-30.0832
 30
0.000000
  70
    32
  0
VERTEX
  8
0
  5
6430
 10
655.431
 20
-30.0944
 30
0.000000
  70
    32
  0
VERTEX
  8
0
  5
6431
 10
655.431
 20
-30.1056
 30
0.000000
  70
    32
  0
VERTEX
  8
0
  5
6432
 10
655.431
 20
-30.1168
 30
0.000000
  70
    32
  0
VERTEX
  8
0
  5
6433
 10
655.431
 20
-30.1281
 30
0.000000
  70
    32
  0
VERTEX
  8
0
  5
6434
 10
655.431
 20
-30.1394
 30
0.000000
  70
    32
  0
VERTEX
  8
0
  5
6435
 10
655.431
 20
-30.1507
 30
0.000000
  70
    32
  0
VERTEX
  8
0
  5
6436
 10
655.431
 20
-30.1620
 30
0.000000
  70
    32
  0
VERTEX
  8
0
  5
6437
 10
655.431
 20
-30.1734
 30
0.000000
  70
    32
  0
VERTEX
  8
0
  5
6438
 10
655.431
 20
-30.1848
 30
0.000000
  70
    32
  0
VERTEX
  8
0
  5
6439
 10
655.431
 20
-30.1962
 30
0.000000
  70
    32
  0
VERTEX
  8
0
  5
643A
 10
655.431
 20
-30.2076
 30
0.000000
  70
    32
  0
VERTEX
  8
0
  5
643B
 10
655.431
 20
-30.2191
 30
0.000000
  70
    32
  0
VERTEX
  8
0
  5
643C
 10
655.431
 20
-30.2306
 30
0.000000
  70
    32
  0
VERTEX
  8
0
  5
643D
 10
655.431
 20
-30.2422
 30
0.000000
  70
    32
  0
VERTEX
  8
0
  5
643E
 10
655.431
 20
-30.2537
 30
0.000000
  70
    32
  0
VERTEX
  8
0
  5
643F
 10
655.431
 20
-30.2653
 30
0.000000
  70
    32
  0
VERTEX
  8
0
  5
6440
 10
655.431
 20
-30.2769
 30
0.000000
  70
    32
  0
VERTEX
  8
0
  5
6441
 10
655.431
 20
-30.2886
 30
0.000000
  70
    32
  0
VERTEX
  8
0
  5
6442
 10
655.431
 20
-30.3002
 30
0.000000
  70
    32
  0
VERTEX
  8
0
  5
6443
 10
655.431
 20
-30.3119
 30
0.000000
  70
    32
  0
VERTEX
  8
0
  5
6444
 10
655.431
 20
-30.3237
 30
0.000000
  70
    32
  0
VERTEX
  8
0
  5
6445
 10
655.431
 20
-30.3354
 30
0.000000
  70
    32
  0
VERTEX
  8
0
  5
6446
 10
655.431
 20
-30.3472
 30
0.000000
  70
    32
  0
VERTEX
  8
0
  5
6447
 10
655.431
 20
-30.3591
 30
0.000000
  70
    32
  0
VERTEX
  8
0
  5
6448
 10
655.431
 20
-30.3709
 30
0.000000
  70
    32
  0
VERTEX
  8
0
  5
6449
 10
655.431
 20
-30.3828
 30
0.000000
  70
    32
  0
VERTEX
  8
0
  5
644A
 10
655.431
 20
-30.3947
 30
0.000000
  70
    32
  0
VERTEX
  8
0
  5
644B
 10
655.431
 20
-30.4066
 30
0.000000
  70
    32
  0
SEQEND
  8
0
  5
644C
  0
ARC
  5
6281
  8
0
  6
CONTINUOUS
 62
     3
 10
654.6519951185636046
 20
-25.4677040982105005
 30
0.0
 40
5.0
 50
278.9642878792931242
 51
81.0357121207078137
  0
POLYLINE
  8
0
  5
644D
  62
3
  66
     1
 10
0.000000
 20
0.000000
 30
0.000000
  70
     8
  0
VERTEX
  8
0
  5
644E
 10
655.431
 20
-20.5288
 30
0.000000
  70
    32
  0
VERTEX
  8
0
  5
644F
 10
655.431
 20
-20.5407
 30
0.000000
  70
    32
  0
VERTEX
  8
0
  5
6450
 10
655.431
 20
-20.5526
 30
0.000000
  70
    32
  0
VERTEX
  8
0
  5
6451
 10
655.431
 20
-20.5645
 30
0.000000
  70
    32
  0
VERTEX
  8
0
  5
6452
 10
655.431
 20
-20.5764
 30
0.000000
  70
    32
  0
VERTEX
  8
0
  5
6453
 10
655.431
 20
-20.5882
 30
0.000000
  70
    32
  0
VERTEX
  8
0
  5
6454
 10
655.431
 20
-20.6000
 30
0.000000
  70
    32
  0
VERTEX
  8
0
  5
6455
 10
655.431
 20
-20.6117
 30
0.000000
  70
    32
  0
VERTEX
  8
0
  5
6456
 10
655.431
 20
-20.6235
 30
0.000000
  70
    32
  0
VERTEX
  8
0
  5
6457
 10
655.431
 20
-20.6352
 30
0.000000
  70
    32
  0
VERTEX
  8
0
  5
6458
 10
655.431
 20
-20.6468
 30
0.000000
  70
    32
  0
VERTEX
  8
0
  5
6459
 10
655.431
 20
-20.6585
 30
0.000000
  70
    32
  0
VERTEX
  8
0
  5
645A
 10
655.431
 20
-20.6701
 30
0.000000
  70
    32
  0
VERTEX
  8
0
  5
645B
 10
655.431
 20
-20.6817
 30
0.000000
  70
    32
  0
VERTEX
  8
0
  5
645C
 10
655.431
 20
-20.6933
 30
0.000000
  70
    32
  0
VERTEX
  8
0
  5
645D
 10
655.431
 20
-20.7048
 30
0.000000
  70
    32
  0
VERTEX
  8
0
  5
645E
 10
655.431
 20
-20.7163
 30
0.000000
  70
    32
  0
VERTEX
  8
0
  5
645F
 10
655.431
 20
-20.7278
 30
0.000000
  70
    32
  0
VERTEX
  8
0
  5
6460
 10
655.431
 20
-20.7392
 30
0.000000
  70
    32
  0
VERTEX
  8
0
  5
6461
 10
655.431
 20
-20.7506
 30
0.000000
  70
    32
  0
VERTEX
  8
0
  5
6462
 10
655.431
 20
-20.7620
 30
0.000000
  70
    32
  0
VERTEX
  8
0
  5
6463
 10
655.431
 20
-20.7734
 30
0.000000
  70
    32
  0
VERTEX
  8
0
  5
6464
 10
655.431
 20
-20.7847
 30
0.000000
  70
    32
  0
VERTEX
  8
0
  5
6465
 10
655.431
 20
-20.7960
 30
0.000000
  70
    32
  0
VERTEX
  8
0
  5
6466
 10
655.431
 20
-20.8073
 30
0.000000
  70
    32
  0
VERTEX
  8
0
  5
6467
 10
655.431
 20
-20.8186
 30
0.000000
  70
    32
  0
VERTEX
  8
0
  5
6468
 10
655.431
 20
-20.8298
 30
0.000000
  70
    32
  0
VERTEX
  8
0
  5
6469
 10
655.431
 20
-20.8410
 30
0.000000
  70
    32
  0
VERTEX
  8
0
  5
646A
 10
655.431
 20
-20.8522
 30
0.000000
  70
    32
  0
VERTEX
  8
0
  5
646B
 10
655.431
 20
-20.8633
 30
0.000000
  70
    32
  0
VERTEX
  8
0
  5
646C
 10
655.431
 20
-20.8745
 30
0.000000
  70
    32
  0
VERTEX
  8
0
  5
646D
 10
655.431
 20
-20.8856
 30
0.000000
  70
    32
  0
VERTEX
  8
0
  5
646E
 10
655.431
 20
-20.8966
 30
0.000000
  70
    32
  0
VERTEX
  8
0
  5
646F
 10
655.431
 20
-20.9077
 30
0.000000
  70
    32
  0
VERTEX
  8
0
  5
6470
 10
655.431
 20
-20.9187
 30
0.000000
  70
    32
  0
VERTEX
  8
0
  5
6471
 10
655.431
 20
-20.9297
 30
0.000000
  70
    32
  0
VERTEX
  8
0
  5
6472
 10
655.431
 20
-20.9406
 30
0.000000
  70
    32
  0
VERTEX
  8
0
  5
6473
 10
655.431
 20
-20.9516
 30
0.000000
  70
    32
  0
VERTEX
  8
0
  5
6474
 10
655.431
 20
-20.9625
 30
0.000000
  70
    32
  0
VERTEX
  8
0
  5
6475
 10
655.431
 20
-20.9734
 30
0.000000
  70
    32
  0
VERTEX
  8
0
  5
6476
 10
655.431
 20
-20.9842
 30
0.000000
  70
    32
  0
VERTEX
  8
0
  5
6477
 10
655.431
 20
-20.9950
 30
0.000000
  70
    32
  0
VERTEX
  8
0
  5
6478
 10
655.431
 20
-21.0059
 30
0.000000
  70
    32
  0
VERTEX
  8
0
  5
6479
 10
655.431
 20
-21.0166
 30
0.000000
  70
    32
  0
VERTEX
  8
0
  5
647A
 10
655.431
 20
-21.0274
 30
0.000000
  70
    32
  0
VERTEX
  8
0
  5
647B
 10
655.431
 20
-21.0381
 30
0.000000
  70
    32
  0
VERTEX
  8
0
  5
647C
 10
655.431
 20
-21.0488
 30
0.000000
  70
    32
  0
VERTEX
  8
0
  5
647D
 10
655.431
 20
-21.0595
 30
0.000000
  70
    32
  0
VERTEX
  8
0
  5
647E
 10
655.431
 20
-21.0702
 30
0.000000
  70
    32
  0
VERTEX
  8
0
  5
647F
 10
655.431
 20
-21.0808
 30
0.000000
  70
    32
  0
VERTEX
  8
0
  5
6480
 10
655.431
 20
-21.0914
 30
0.000000
  70
    32
  0
VERTEX
  8
0
  5
6481
 10
655.431
 20
-21.1020
 30
0.000000
  70
    32
  0
VERTEX
  8
0
  5
6482
 10
655.431
 20
-21.1125
 30
0.000000
  70
    32
  0
VERTEX
  8
0
  5
6483
 10
655.431
 20
-21.1231
 30
0.000000
  70
    32
  0
VERTEX
  8
0
  5
6484
 10
655.431
 20
-21.1336
 30
0.000000
  70
    32
  0
VERTEX
  8
0
  5
6485
 10
655.431
 20
-21.1441
 30
0.000000
  70
    32
  0
VERTEX
  8
0
  5
6486
 10
655.431
 20
-21.1545
 30
0.000000
  70
    32
  0
VERTEX
  8
0
  5
6487
 10
655.431
 20
-21.1650
 30
0.000000
  70
    32
  0
VERTEX
  8
0
  5
6488
 10
655.431
 20
-21.1754
 30
0.000000
  70
    32
  0
VERTEX
  8
0
  5
6489
 10
655.431
 20
-21.1858
 30
0.000000
  70
    32
  0
VERTEX
  8
0
  5
648A
 10
655.431
 20
-21.1961
 30
0.000000
  70
    32
  0
VERTEX
  8
0
  5
648B
 10
655.431
 20
-21.2065
 30
0.000000
  70
    32
  0
VERTEX
  8
0
  5
648C
 10
655.431
 20
-21.2168
 30
0.000000
  70
    32
  0
VERTEX
  8
0
  5
648D
 10
655.431
 20
-21.2271
 30
0.000000
  70
    32
  0
VERTEX
  8
0
  5
648E
 10
655.431
 20
-21.2373
 30
0.000000
  70
    32
  0
VERTEX
  8
0
  5
648F
 10
655.431
 20
-21.2476
 30
0.000000
  70
    32
  0
VERTEX
  8
0
  5
6490
 10
655.431
 20
-21.2578
 30
0.000000
  70
    32
  0
VERTEX
  8
0
  5
6491
 10
655.431
 20
-21.2680
 30
0.000000
  70
    32
  0
VERTEX
  8
0
  5
6492
 10
655.431
 20
-21.2782
 30
0.000000
  70
    32
  0
VERTEX
  8
0
  5
6493
 10
655.431
 20
-21.2883
 30
0.000000
  70
    32
  0
VERTEX
  8
0
  5
6494
 10
655.431
 20
-21.2984
 30
0.000000
  70
    32
  0
VERTEX
  8
0
  5
6495
 10
655.431
 20
-21.3085
 30
0.000000
  70
    32
  0
VERTEX
  8
0
  5
6496
 10
655.431
 20
-21.3186
 30
0.000000
  70
    32
  0
VERTEX
  8
0
  5
6497
 10
655.431
 20
-21.3287
 30
0.000000
  70
    32
  0
VERTEX
  8
0
  5
6498
 10
655.431
 20
-21.3387
 30
0.000000
  70
    32
  0
VERTEX
  8
0
  5
6499
 10
655.431
 20
-21.3487
 30
0.000000
  70
    32
  0
VERTEX
  8
0
  5
649A
 10
655.431
 20
-21.3587
 30
0.000000
  70
    32
  0
VERTEX
  8
0
  5
649B
 10
655.431
 20
-21.3687
 30
0.000000
  70
    32
  0
VERTEX
  8
0
  5
649C
 10
655.431
 20
-21.3786
 30
0.000000
  70
    32
  0
VERTEX
  8
0
  5
649D
 10
655.431
 20
-21.3885
 30
0.000000
  70
    32
  0
VERTEX
  8
0
  5
649E
 10
655.431
 20
-21.3984
 30
0.000000
  70
    32
  0
VERTEX
  8
0
  5
649F
 10
655.431
 20
-21.4083
 30
0.000000
  70
    32
  0
VERTEX
  8
0
  5
64A0
 10
655.431
 20
-21.4182
 30
0.000000
  70
    32
  0
VERTEX
  8
0
  5
64A1
 10
655.431
 20
-21.4280
 30
0.000000
  70
    32
  0
VERTEX
  8
0
  5
64A2
 10
655.431
 20
-21.4378
 30
0.000000
  70
    32
  0
VERTEX
  8
0
  5
64A3
 10
655.431
 20
-21.4476
 30
0.000000
  70
    32
  0
VERTEX
  8
0
  5
64A4
 10
655.431
 20
-21.4574
 30
0.000000
  70
    32
  0
VERTEX
  8
0
  5
64A5
 10
655.431
 20
-21.4671
 30
0.000000
  70
    32
  0
VERTEX
  8
0
  5
64A6
 10
655.431
 20
-21.4768
 30
0.000000
  70
    32
  0
VERTEX
  8
0
  5
64A7
 10
655.431
 20
-21.4865
 30
0.000000
  70
    32
  0
VERTEX
  8
0
  5
64A8
 10
655.431
 20
-21.4962
 30
0.000000
  70
    32
  0
VERTEX
  8
0
  5
64A9
 10
655.431
 20
-21.5059
 30
0.000000
  70
    32
  0
VERTEX
  8
0
  5
64AA
 10
655.431
 20
-21.5155
 30
0.000000
  70
    32
  0
VERTEX
  8
0
  5
64AB
 10
655.431
 20
-21.5251
 30
0.000000
  70
    32
  0
VERTEX
  8
0
  5
64AC
 10
655.431
 20
-21.5347
 30
0.000000
  70
    32
  0
VERTEX
  8
0
  5
64AD
 10
655.431
 20
-21.5443
 30
0.000000
  70
    32
  0
SEQEND
  8
0
  5
64AE
  0
POLYLINE
  8
0
  5
64AF
  62
3
  66
     1
 10
0.000000
 20
0.000000
 30
0.000000
  70
     8
  0
VERTEX
  8
0
  5
64B0
 10
653.873
 20
-21.5443
 30
0.000000
  70
    32
  0
VERTEX
  8
0
  5
64B1
 10
653.873
 20
-21.5347
 30
0.000000
  70
    32
  0
VERTEX
  8
0
  5
64B2
 10
653.873
 20
-21.5251
 30
0.000000
  70
    32
  0
VERTEX
  8
0
  5
64B3
 10
653.873
 20
-21.5155
 30
0.000000
  70
    32
  0
VERTEX
  8
0
  5
64B4
 10
653.873
 20
-21.5059
 30
0.000000
  70
    32
  0
VERTEX
  8
0
  5
64B5
 10
653.873
 20
-21.4962
 30
0.000000
  70
    32
  0
VERTEX
  8
0
  5
64B6
 10
653.873
 20
-21.4865
 30
0.000000
  70
    32
  0
VERTEX
  8
0
  5
64B7
 10
653.873
 20
-21.4768
 30
0.000000
  70
    32
  0
VERTEX
  8
0
  5
64B8
 10
653.873
 20
-21.4671
 30
0.000000
  70
    32
  0
VERTEX
  8
0
  5
64B9
 10
653.873
 20
-21.4574
 30
0.000000
  70
    32
  0
VERTEX
  8
0
  5
64BA
 10
653.873
 20
-21.4476
 30
0.000000
  70
    32
  0
VERTEX
  8
0
  5
64BB
 10
653.873
 20
-21.4378
 30
0.000000
  70
    32
  0
VERTEX
  8
0
  5
64BC
 10
653.873
 20
-21.4280
 30
0.000000
  70
    32
  0
VERTEX
  8
0
  5
64BD
 10
653.873
 20
-21.4182
 30
0.000000
  70
    32
  0
VERTEX
  8
0
  5
64BE
 10
653.873
 20
-21.4083
 30
0.000000
  70
    32
  0
VERTEX
  8
0
  5
64BF
 10
653.873
 20
-21.3984
 30
0.000000
  70
    32
  0
VERTEX
  8
0
  5
64C0
 10
653.873
 20
-21.3885
 30
0.000000
  70
    32
  0
VERTEX
  8
0
  5
64C1
 10
653.873
 20
-21.3786
 30
0.000000
  70
    32
  0
VERTEX
  8
0
  5
64C2
 10
653.873
 20
-21.3687
 30
0.000000
  70
    32
  0
VERTEX
  8
0
  5
64C3
 10
653.873
 20
-21.3587
 30
0.000000
  70
    32
  0
VERTEX
  8
0
  5
64C4
 10
653.873
 20
-21.3487
 30
0.000000
  70
    32
  0
VERTEX
  8
0
  5
64C5
 10
653.873
 20
-21.3387
 30
0.000000
  70
    32
  0
VERTEX
  8
0
  5
64C6
 10
653.873
 20
-21.3287
 30
0.000000
  70
    32
  0
VERTEX
  8
0
  5
64C7
 10
653.873
 20
-21.3186
 30
0.000000
  70
    32
  0
VERTEX
  8
0
  5
64C8
 10
653.873
 20
-21.3085
 30
0.000000
  70
    32
  0
VERTEX
  8
0
  5
64C9
 10
653.873
 20
-21.2984
 30
0.000000
  70
    32
  0
VERTEX
  8
0
  5
64CA
 10
653.873
 20
-21.2883
 30
0.000000
  70
    32
  0
VERTEX
  8
0
  5
64CB
 10
653.873
 20
-21.2782
 30
0.000000
  70
    32
  0
VERTEX
  8
0
  5
64CC
 10
653.873
 20
-21.2680
 30
0.000000
  70
    32
  0
VERTEX
  8
0
  5
64CD
 10
653.873
 20
-21.2578
 30
0.000000
  70
    32
  0
VERTEX
  8
0
  5
64CE
 10
653.873
 20
-21.2476
 30
0.000000
  70
    32
  0
VERTEX
  8
0
  5
64CF
 10
653.873
 20
-21.2373
 30
0.000000
  70
    32
  0
VERTEX
  8
0
  5
64D0
 10
653.873
 20
-21.2271
 30
0.000000
  70
    32
  0
VERTEX
  8
0
  5
64D1
 10
653.873
 20
-21.2168
 30
0.000000
  70
    32
  0
VERTEX
  8
0
  5
64D2
 10
653.873
 20
-21.2065
 30
0.000000
  70
    32
  0
VERTEX
  8
0
  5
64D3
 10
653.873
 20
-21.1961
 30
0.000000
  70
    32
  0
VERTEX
  8
0
  5
64D4
 10
653.873
 20
-21.1858
 30
0.000000
  70
    32
  0
VERTEX
  8
0
  5
64D5
 10
653.873
 20
-21.1754
 30
0.000000
  70
    32
  0
VERTEX
  8
0
  5
64D6
 10
653.873
 20
-21.1650
 30
0.000000
  70
    32
  0
VERTEX
  8
0
  5
64D7
 10
653.873
 20
-21.1545
 30
0.000000
  70
    32
  0
VERTEX
  8
0
  5
64D8
 10
653.873
 20
-21.1441
 30
0.000000
  70
    32
  0
VERTEX
  8
0
  5
64D9
 10
653.873
 20
-21.1336
 30
0.000000
  70
    32
  0
VERTEX
  8
0
  5
64DA
 10
653.873
 20
-21.1231
 30
0.000000
  70
    32
  0
VERTEX
  8
0
  5
64DB
 10
653.873
 20
-21.1125
 30
0.000000
  70
    32
  0
VERTEX
  8
0
  5
64DC
 10
653.873
 20
-21.1020
 30
0.000000
  70
    32
  0
VERTEX
  8
0
  5
64DD
 10
653.873
 20
-21.0914
 30
0.000000
  70
    32
  0
VERTEX
  8
0
  5
64DE
 10
653.873
 20
-21.0808
 30
0.000000
  70
    32
  0
VERTEX
  8
0
  5
64DF
 10
653.873
 20
-21.0702
 30
0.000000
  70
    32
  0
VERTEX
  8
0
  5
64E0
 10
653.873
 20
-21.0595
 30
0.000000
  70
    32
  0
VERTEX
  8
0
  5
64E1
 10
653.873
 20
-21.0488
 30
0.000000
  70
    32
  0
VERTEX
  8
0
  5
64E2
 10
653.873
 20
-21.0381
 30
0.000000
  70
    32
  0
VERTEX
  8
0
  5
64E3
 10
653.873
 20
-21.0274
 30
0.000000
  70
    32
  0
VERTEX
  8
0
  5
64E4
 10
653.873
 20
-21.0166
 30
0.000000
  70
    32
  0
VERTEX
  8
0
  5
64E5
 10
653.873
 20
-21.0059
 30
0.000000
  70
    32
  0
VERTEX
  8
0
  5
64E6
 10
653.873
 20
-20.9950
 30
0.000000
  70
    32
  0
VERTEX
  8
0
  5
64E7
 10
653.873
 20
-20.9842
 30
0.000000
  70
    32
  0
VERTEX
  8
0
  5
64E8
 10
653.873
 20
-20.9734
 30
0.000000
  70
    32
  0
VERTEX
  8
0
  5
64E9
 10
653.873
 20
-20.9625
 30
0.000000
  70
    32
  0
VERTEX
  8
0
  5
64EA
 10
653.873
 20
-20.9516
 30
0.000000
  70
    32
  0
VERTEX
  8
0
  5
64EB
 10
653.873
 20
-20.9406
 30
0.000000
  70
    32
  0
VERTEX
  8
0
  5
64EC
 10
653.873
 20
-20.9297
 30
0.000000
  70
    32
  0
VERTEX
  8
0
  5
64ED
 10
653.873
 20
-20.9187
 30
0.000000
  70
    32
  0
VERTEX
  8
0
  5
64EE
 10
653.873
 20
-20.9077
 30
0.000000
  70
    32
  0
VERTEX
  8
0
  5
64EF
 10
653.873
 20
-20.8966
 30
0.000000
  70
    32
  0
VERTEX
  8
0
  5
64F0
 10
653.873
 20
-20.8856
 30
0.000000
  70
    32
  0
VERTEX
  8
0
  5
64F1
 10
653.873
 20
-20.8745
 30
0.000000
  70
    32
  0
VERTEX
  8
0
  5
64F2
 10
653.873
 20
-20.8633
 30
0.000000
  70
    32
  0
VERTEX
  8
0
  5
64F3
 10
653.873
 20
-20.8522
 30
0.000000
  70
    32
  0
VERTEX
  8
0
  5
64F4
 10
653.873
 20
-20.8410
 30
0.000000
  70
    32
  0
VERTEX
  8
0
  5
64F5
 10
653.873
 20
-20.8298
 30
0.000000
  70
    32
  0
VERTEX
  8
0
  5
64F6
 10
653.873
 20
-20.8186
 30
0.000000
  70
    32
  0
VERTEX
  8
0
  5
64F7
 10
653.873
 20
-20.8073
 30
0.000000
  70
    32
  0
VERTEX
  8
0
  5
64F8
 10
653.873
 20
-20.7960
 30
0.000000
  70
    32
  0
VERTEX
  8
0
  5
64F9
 10
653.873
 20
-20.7847
 30
0.000000
  70
    32
  0
VERTEX
  8
0
  5
64FA
 10
653.873
 20
-20.7734
 30
0.000000
  70
    32
  0
VERTEX
  8
0
  5
64FB
 10
653.873
 20
-20.7620
 30
0.000000
  70
    32
  0
VERTEX
  8
0
  5
64FC
 10
653.873
 20
-20.7506
 30
0.000000
  70
    32
  0
VERTEX
  8
0
  5
64FD
 10
653.873
 20
-20.7392
 30
0.000000
  70
    32
  0
VERTEX
  8
0
  5
64FE
 10
653.873
 20
-20.7278
 30
0.000000
  70
    32
  0
VERTEX
  8
0
  5
64FF
 10
653.873
 20
-20.7163
 30
0.000000
  70
    32
  0
VERTEX
  8
0
  5
6500
 10
653.873
 20
-20.7048
 30
0.000000
  70
    32
  0
VERTEX
  8
0
  5
6501
 10
653.873
 20
-20.6933
 30
0.000000
  70
    32
  0
VERTEX
  8
0
  5
6502
 10
653.873
 20
-20.6817
 30
0.000000
  70
    32
  0
VERTEX
  8
0
  5
6503
 10
653.873
 20
-20.6701
 30
0.000000
  70
    32
  0
VERTEX
  8
0
  5
6504
 10
653.873
 20
-20.6585
 30
0.000000
  70
    32
  0
VERTEX
  8
0
  5
6505
 10
653.873
 20
-20.6468
 30
0.000000
  70
    32
  0
VERTEX
  8
0
  5
6506
 10
653.873
 20
-20.6352
 30
0.000000
  70
    32
  0
VERTEX
  8
0
  5
6507
 10
653.873
 20
-20.6235
 30
0.000000
  70
    32
  0
VERTEX
  8
0
  5
6508
 10
653.873
 20
-20.6117
 30
0.000000
  70
    32
  0
VERTEX
  8
0
  5
6509
 10
653.873
 20
-20.6000
 30
0.000000
  70
    32
  0
VERTEX
  8
0
  5
650A
 10
653.873
 20
-20.5882
 30
0.000000
  70
    32
  0
VERTEX
  8
0
  5
650B
 10
653.873
 20
-20.5764
 30
0.000000
  70
    32
  0
VERTEX
  8
0
  5
650C
 10
653.873
 20
-20.5645
 30
0.000000
  70
    32
  0
VERTEX
  8
0
  5
650D
 10
653.873
 20
-20.5526
 30
0.000000
  70
    32
  0
VERTEX
  8
0
  5
650E
 10
653.873
 20
-20.5407
 30
0.000000
  70
    32
  0
VERTEX
  8
0
  5
650F
 10
653.873
 20
-20.5288
 30
0.000000
  70
    32
  0
SEQEND
  8
0
  5
6510
  0
ARC
  5
6284
  8
0
  6
CONTINUOUS
 62
     3
 10
654.6519951185636046
 20
-25.4677040982105005
 30
0.0
 40
5.0
 50
98.9642878792931384
 51
261.035712120707899
  0
POLYLINE
  8
0
  5
6511
  62
3
  66
     1
 10
0.000000
 20
0.000000
 30
0.000000
  70
     8
  0
VERTEX
  8
0
  5
6512
 10
653.873
 20
-30.4066
 30
0.000000
  70
    32
  0
VERTEX
  8
0
  5
6513
 10
653.873
 20
-30.3947
 30
0.000000
  70
    32
  0
VERTEX
  8
0
  5
6514
 10
653.873
 20
-30.3828
 30
0.000000
  70
    32
  0
VERTEX
  8
0
  5
6515
 10
653.873
 20
-30.3709
 30
0.000000
  70
    32
  0
VERTEX
  8
0
  5
6516
 10
653.873
 20
-30.3591
 30
0.000000
  70
    32
  0
VERTEX
  8
0
  5
6517
 10
653.873
 20
-30.3472
 30
0.000000
  70
    32
  0
VERTEX
  8
0
  5
6518
 10
653.873
 20
-30.3354
 30
0.000000
  70
    32
  0
VERTEX
  8
0
  5
6519
 10
653.873
 20
-30.3237
 30
0.000000
  70
    32
  0
VERTEX
  8
0
  5
651A
 10
653.873
 20
-30.3119
 30
0.000000
  70
    32
  0
VERTEX
  8
0
  5
651B
 10
653.873
 20
-30.3002
 30
0.000000
  70
    32
  0
VERTEX
  8
0
  5
651C
 10
653.873
 20
-30.2886
 30
0.000000
  70
    32
  0
VERTEX
  8
0
  5
651D
 10
653.873
 20
-30.2769
 30
0.000000
  70
    32
  0
VERTEX
  8
0
  5
651E
 10
653.873
 20
-30.2653
 30
0.000000
  70
    32
  0
VERTEX
  8
0
  5
651F
 10
653.873
 20
-30.2537
 30
0.000000
  70
    32
  0
VERTEX
  8
0
  5
6520
 10
653.873
 20
-30.2422
 30
0.000000
  70
    32
  0
VERTEX
  8
0
  5
6521
 10
653.873
 20
-30.2306
 30
0.000000
  70
    32
  0
VERTEX
  8
0
  5
6522
 10
653.873
 20
-30.2191
 30
0.000000
  70
    32
  0
VERTEX
  8
0
  5
6523
 10
653.873
 20
-30.2076
 30
0.000000
  70
    32
  0
VERTEX
  8
0
  5
6524
 10
653.873
 20
-30.1962
 30
0.000000
  70
    32
  0
VERTEX
  8
0
  5
6525
 10
653.873
 20
-30.1848
 30
0.000000
  70
    32
  0
VERTEX
  8
0
  5
6526
 10
653.873
 20
-30.1734
 30
0.000000
  70
    32
  0
VERTEX
  8
0
  5
6527
 10
653.873
 20
-30.1620
 30
0.000000
  70
    32
  0
VERTEX
  8
0
  5
6528
 10
653.873
 20
-30.1507
 30
0.000000
  70
    32
  0
VERTEX
  8
0
  5
6529
 10
653.873
 20
-30.1394
 30
0.000000
  70
    32
  0
VERTEX
  8
0
  5
652A
 10
653.873
 20
-30.1281
 30
0.000000
  70
    32
  0
VERTEX
  8
0
  5
652B
 10
653.873
 20
-30.1168
 30
0.000000
  70
    32
  0
VERTEX
  8
0
  5
652C
 10
653.873
 20
-30.1056
 30
0.000000
  70
    32
  0
VERTEX
  8
0
  5
652D
 10
653.873
 20
-30.0944
 30
0.000000
  70
    32
  0
VERTEX
  8
0
  5
652E
 10
653.873
 20
-30.0832
 30
0.000000
  70
    32
  0
VERTEX
  8
0
  5
652F
 10
653.873
 20
-30.0721
 30
0.000000
  70
    32
  0
VERTEX
  8
0
  5
6530
 10
653.873
 20
-30.0609
 30
0.000000
  70
    32
  0
VERTEX
  8
0
  5
6531
 10
653.873
 20
-30.0499
 30
0.000000
  70
    32
  0
VERTEX
  8
0
  5
6532
 10
653.873
 20
-30.0388
 30
0.000000
  70
    32
  0
VERTEX
  8
0
  5
6533
 10
653.873
 20
-30.0277
 30
0.000000
  70
    32
  0
VERTEX
  8
0
  5
6534
 10
653.873
 20
-30.0167
 30
0.000000
  70
    32
  0
VERTEX
  8
0
  5
6535
 10
653.873
 20
-30.0057
 30
0.000000
  70
    32
  0
VERTEX
  8
0
  5
6536
 10
653.873
 20
-29.9948
 30
0.000000
  70
    32
  0
VERTEX
  8
0
  5
6537
 10
653.873
 20
-29.9838
 30
0.000000
  70
    32
  0
VERTEX
  8
0
  5
6538
 10
653.873
 20
-29.9729
 30
0.000000
  70
    32
  0
VERTEX
  8
0
  5
6539
 10
653.873
 20
-29.9621
 30
0.000000
  70
    32
  0
VERTEX
  8
0
  5
653A
 10
653.873
 20
-29.9512
 30
0.000000
  70
    32
  0
VERTEX
  8
0
  5
653B
 10
653.873
 20
-29.9404
 30
0.000000
  70
    32
  0
VERTEX
  8
0
  5
653C
 10
653.873
 20
-29.9296
 30
0.000000
  70
    32
  0
VERTEX
  8
0
  5
653D
 10
653.873
 20
-29.9188
 30
0.000000
  70
    32
  0
VERTEX
  8
0
  5
653E
 10
653.873
 20
-29.9080
 30
0.000000
  70
    32
  0
VERTEX
  8
0
  5
653F
 10
653.873
 20
-29.8973
 30
0.000000
  70
    32
  0
VERTEX
  8
0
  5
6540
 10
653.873
 20
-29.8866
 30
0.000000
  70
    32
  0
VERTEX
  8
0
  5
6541
 10
653.873
 20
-29.8759
 30
0.000000
  70
    32
  0
VERTEX
  8
0
  5
6542
 10
653.873
 20
-29.8652
 30
0.000000
  70
    32
  0
VERTEX
  8
0
  5
6543
 10
653.873
 20
-29.8546
 30
0.000000
  70
    32
  0
VERTEX
  8
0
  5
6544
 10
653.873
 20
-29.8440
 30
0.000000
  70
    32
  0
VERTEX
  8
0
  5
6545
 10
653.873
 20
-29.8334
 30
0.000000
  70
    32
  0
VERTEX
  8
0
  5
6546
 10
653.873
 20
-29.8229
 30
0.000000
  70
    32
  0
VERTEX
  8
0
  5
6547
 10
653.873
 20
-29.8123
 30
0.000000
  70
    32
  0
VERTEX
  8
0
  5
6548
 10
653.873
 20
-29.8018
 30
0.000000
  70
    32
  0
VERTEX
  8
0
  5
6549
 10
653.873
 20
-29.7913
 30
0.000000
  70
    32
  0
VERTEX
  8
0
  5
654A
 10
653.873
 20
-29.7809
 30
0.000000
  70
    32
  0
VERTEX
  8
0
  5
654B
 10
653.873
 20
-29.7705
 30
0.000000
  70
    32
  0
VERTEX
  8
0
  5
654C
 10
653.873
 20
-29.7600
 30
0.000000
  70
    32
  0
VERTEX
  8
0
  5
654D
 10
653.873
 20
-29.7497
 30
0.000000
  70
    32
  0
VERTEX
  8
0
  5
654E
 10
653.873
 20
-29.7393
 30
0.000000
  70
    32
  0
VERTEX
  8
0
  5
654F
 10
653.873
 20
-29.7290
 30
0.000000
  70
    32
  0
VERTEX
  8
0
  5
6550
 10
653.873
 20
-29.7186
 30
0.000000
  70
    32
  0
VERTEX
  8
0
  5
6551
 10
653.873
 20
-29.7084
 30
0.000000
  70
    32
  0
VERTEX
  8
0
  5
6552
 10
653.873
 20
-29.6981
 30
0.000000
  70
    32
  0
VERTEX
  8
0
  5
6553
 10
653.873
 20
-29.6878
 30
0.000000
  70
    32
  0
VERTEX
  8
0
  5
6554
 10
653.873
 20
-29.6776
 30
0.000000
  70
    32
  0
VERTEX
  8
0
  5
6555
 10
653.873
 20
-29.6674
 30
0.000000
  70
    32
  0
VERTEX
  8
0
  5
6556
 10
653.873
 20
-29.6573
 30
0.000000
  70
    32
  0
VERTEX
  8
0
  5
6557
 10
653.873
 20
-29.6471
 30
0.000000
  70
    32
  0
VERTEX
  8
0
  5
6558
 10
653.873
 20
-29.6370
 30
0.000000
  70
    32
  0
VERTEX
  8
0
  5
6559
 10
653.873
 20
-29.6269
 30
0.000000
  70
    32
  0
VERTEX
  8
0
  5
655A
 10
653.873
 20
-29.6168
 30
0.000000
  70
    32
  0
VERTEX
  8
0
  5
655B
 10
653.873
 20
-29.6067
 30
0.000000
  70
    32
  0
VERTEX
  8
0
  5
655C
 10
653.873
 20
-29.5967
 30
0.000000
  70
    32
  0
VERTEX
  8
0
  5
655D
 10
653.873
 20
-29.5867
 30
0.000000
  70
    32
  0
VERTEX
  8
0
  5
655E
 10
653.873
 20
-29.5767
 30
0.000000
  70
    32
  0
VERTEX
  8
0
  5
655F
 10
653.873
 20
-29.5667
 30
0.000000
  70
    32
  0
VERTEX
  8
0
  5
6560
 10
653.873
 20
-29.5568
 30
0.000000
  70
    32
  0
VERTEX
  8
0
  5
6561
 10
653.873
 20
-29.5469
 30
0.000000
  70
    32
  0
VERTEX
  8
0
  5
6562
 10
653.873
 20
-29.5370
 30
0.000000
  70
    32
  0
VERTEX
  8
0
  5
6563
 10
653.873
 20
-29.5271
 30
0.000000
  70
    32
  0
VERTEX
  8
0
  5
6564
 10
653.873
 20
-29.5172
 30
0.000000
  70
    32
  0
VERTEX
  8
0
  5
6565
 10
653.873
 20
-29.5074
 30
0.000000
  70
    32
  0
VERTEX
  8
0
  5
6566
 10
653.873
 20
-29.4976
 30
0.000000
  70
    32
  0
VERTEX
  8
0
  5
6567
 10
653.873
 20
-29.4878
 30
0.000000
  70
    32
  0
VERTEX
  8
0
  5
6568
 10
653.873
 20
-29.4780
 30
0.000000
  70
    32
  0
VERTEX
  8
0
  5
6569
 10
653.873
 20
-29.4683
 30
0.000000
  70
    32
  0
VERTEX
  8
0
  5
656A
 10
653.873
 20
-29.4586
 30
0.000000
  70
    32
  0
VERTEX
  8
0
  5
656B
 10
653.873
 20
-29.4489
 30
0.000000
  70
    32
  0
VERTEX
  8
0
  5
656C
 10
653.873
 20
-29.4392
 30
0.000000
  70
    32
  0
VERTEX
  8
0
  5
656D
 10
653.873
 20
-29.4295
 30
0.000000
  70
    32
  0
VERTEX
  8
0
  5
656E
 10
653.873
 20
-29.4199
 30
0.000000
  70
    32
  0
VERTEX
  8
0
  5
656F
 10
653.873
 20
-29.4103
 30
0.000000
  70
    32
  0
VERTEX
  8
0
  5
6570
 10
653.873
 20
-29.4007
 30
0.000000
  70
    32
  0
VERTEX
  8
0
  5
6571
 10
653.873
 20
-29.3911
 30
0.000000
  70
    32
  0
SEQEND
  8
0
  5
6572
  0
POLYLINE
  8
0
  5
6573
  62
1
  66
     1
 10
0.000000
 20
0.000000
 30
0.000000
  70
     8
  0
VERTEX
  8
0
  5
6574
 10
650.899
 20
-31.9677
 30
0.000000
  70
    32
  0
VERTEX
  8
0
  5
6575
 10
650.854
 20
-31.8891
 30
0.000000
  70
    32
  0
VERTEX
  8
0
  5
6576
 10
650.809
 20
-31.8111
 30
0.000000
  70
    32
  0
VERTEX
  8
0
  5
6577
 10
650.764
 20
-31.7339
 30
0.000000
  70
    32
  0
VERTEX
  8
0
  5
6578
 10
650.720
 20
-31.6573
 30
0.000000
  70
    32
  0
VERTEX
  8
0
  5
6579
 10
650.676
 20
-31.5814
 30
0.000000
  70
    32
  0
VERTEX
  8
0
  5
657A
 10
650.633
 20
-31.5061
 30
0.000000
  70
    32
  0
VERTEX
  8
0
  5
657B
 10
650.590
 20
-31.4314
 30
0.000000
  70
    32
  0
VERTEX
  8
0
  5
657C
 10
650.547
 20
-31.3574
 30
0.000000
  70
    32
  0
VERTEX
  8
0
  5
657D
 10
650.504
 20
-31.2838
 30
0.000000
  70
    32
  0
VERTEX
  8
0
  5
657E
 10
650.462
 20
-31.2108
 30
0.000000
  70
    32
  0
VERTEX
  8
0
  5
657F
 10
650.420
 20
-31.1384
 30
0.000000
  70
    32
  0
VERTEX
  8
0
  5
6580
 10
650.379
 20
-31.0665
 30
0.000000
  70
    32
  0
VERTEX
  8
0
  5
6581
 10
650.338
 20
-30.9950
 30
0.000000
  70
    32
  0
VERTEX
  8
0
  5
6582
 10
650.297
 20
-30.9240
 30
0.000000
  70
    32
  0
VERTEX
  8
0
  5
6583
 10
650.256
 20
-30.8535
 30
0.000000
  70
    32
  0
VERTEX
  8
0
  5
6584
 10
650.215
 20
-30.7835
 30
0.000000
  70
    32
  0
VERTEX
  8
0
  5
6585
 10
650.175
 20
-30.7138
 30
0.000000
  70
    32
  0
VERTEX
  8
0
  5
6586
 10
650.135
 20
-30.6446
 30
0.000000
  70
    32
  0
VERTEX
  8
0
  5
6587
 10
650.096
 20
-30.5757
 30
0.000000
  70
    32
  0
VERTEX
  8
0
  5
6588
 10
650.056
 20
-30.5073
 30
0.000000
  70
    32
  0
VERTEX
  8
0
  5
6589
 10
650.017
 20
-30.4392
 30
0.000000
  70
    32
  0
VERTEX
  8
0
  5
658A
 10
649.978
 20
-30.3714
 30
0.000000
  70
    32
  0
VERTEX
  8
0
  5
658B
 10
649.939
 20
-30.3040
 30
0.000000
  70
    32
  0
VERTEX
  8
0
  5
658C
 10
649.900
 20
-30.2369
 30
0.000000
  70
    32
  0
VERTEX
  8
0
  5
658D
 10
649.861
 20
-30.1700
 30
0.000000
  70
    32
  0
VERTEX
  8
0
  5
658E
 10
649.823
 20
-30.1035
 30
0.000000
  70
    32
  0
VERTEX
  8
0
  5
658F
 10
649.785
 20
-30.0373
 30
0.000000
  70
    32
  0
VERTEX
  8
0
  5
6590
 10
649.747
 20
-29.9713
 30
0.000000
  70
    32
  0
VERTEX
  8
0
  5
6591
 10
649.709
 20
-29.9056
 30
0.000000
  70
    32
  0
VERTEX
  8
0
  5
6592
 10
649.671
 20
-29.8400
 30
0.000000
  70
    32
  0
VERTEX
  8
0
  5
6593
 10
649.633
 20
-29.7748
 30
0.000000
  70
    32
  0
VERTEX
  8
0
  5
6594
 10
649.596
 20
-29.7097
 30
0.000000
  70
    32
  0
VERTEX
  8
0
  5
6595
 10
649.558
 20
-29.6448
 30
0.000000
  70
    32
  0
VERTEX
  8
0
  5
6596
 10
649.521
 20
-29.5801
 30
0.000000
  70
    32
  0
VERTEX
  8
0
  5
6597
 10
649.483
 20
-29.5155
 30
0.000000
  70
    32
  0
VERTEX
  8
0
  5
6598
 10
649.446
 20
-29.4511
 30
0.000000
  70
    32
  0
VERTEX
  8
0
  5
6599
 10
649.409
 20
-29.3869
 30
0.000000
  70
    32
  0
VERTEX
  8
0
  5
659A
 10
649.372
 20
-29.3228
 30
0.000000
  70
    32
  0
VERTEX
  8
0
  5
659B
 10
649.335
 20
-29.2588
 30
0.000000
  70
    32
  0
VERTEX
  8
0
  5
659C
 10
649.298
 20
-29.1949
 30
0.000000
  70
    32
  0
VERTEX
  8
0
  5
659D
 10
649.261
 20
-29.1311
 30
0.000000
  70
    32
  0
VERTEX
  8
0
  5
659E
 10
649.225
 20
-29.0673
 30
0.000000
  70
    32
  0
VERTEX
  8
0
  5
659F
 10
649.188
 20
-29.0037
 30
0.000000
  70
    32
  0
VERTEX
  8
0
  5
65A0
 10
649.151
 20
-28.9401
 30
0.000000
  70
    32
  0
VERTEX
  8
0
  5
65A1
 10
649.115
 20
-28.8765
 30
0.000000
  70
    32
  0
VERTEX
  8
0
  5
65A2
 10
649.078
 20
-28.8130
 30
0.000000
  70
    32
  0
VERTEX
  8
0
  5
65A3
 10
649.041
 20
-28.7495
 30
0.000000
  70
    32
  0
VERTEX
  8
0
  5
65A4
 10
649.004
 20
-28.6859
 30
0.000000
  70
    32
  0
VERTEX
  8
0
  5
65A5
 10
648.968
 20
-28.6224
 30
0.000000
  70
    32
  0
VERTEX
  8
0
  5
65A6
 10
648.931
 20
-28.5589
 30
0.000000
  70
    32
  0
VERTEX
  8
0
  5
65A7
 10
648.894
 20
-28.4953
 30
0.000000
  70
    32
  0
VERTEX
  8
0
  5
65A8
 10
648.858
 20
-28.4317
 30
0.000000
  70
    32
  0
VERTEX
  8
0
  5
65A9
 10
648.821
 20
-28.3681
 30
0.000000
  70
    32
  0
VERTEX
  8
0
  5
65AA
 10
648.784
 20
-28.3043
 30
0.000000
  70
    32
  0
VERTEX
  8
0
  5
65AB
 10
648.747
 20
-28.2405
 30
0.000000
  70
    32
  0
VERTEX
  8
0
  5
65AC
 10
648.710
 20
-28.1766
 30
0.000000
  70
    32
  0
VERTEX
  8
0
  5
65AD
 10
648.673
 20
-28.1126
 30
0.000000
  70
    32
  0
VERTEX
  8
0
  5
65AE
 10
648.636
 20
-28.0485
 30
0.000000
  70
    32
  0
VERTEX
  8
0
  5
65AF
 10
648.599
 20
-27.9843
 30
0.000000
  70
    32
  0
VERTEX
  8
0
  5
65B0
 10
648.562
 20
-27.9199
 30
0.000000
  70
    32
  0
VERTEX
  8
0
  5
65B1
 10
648.525
 20
-27.8553
 30
0.000000
  70
    32
  0
VERTEX
  8
0
  5
65B2
 10
648.488
 20
-27.7906
 30
0.000000
  70
    32
  0
VERTEX
  8
0
  5
65B3
 10
648.450
 20
-27.7257
 30
0.000000
  70
    32
  0
VERTEX
  8
0
  5
65B4
 10
648.413
 20
-27.6607
 30
0.000000
  70
    32
  0
VERTEX
  8
0
  5
65B5
 10
648.375
 20
-27.5954
 30
0.000000
  70
    32
  0
VERTEX
  8
0
  5
65B6
 10
648.337
 20
-27.5299
 30
0.000000
  70
    32
  0
VERTEX
  8
0
  5
65B7
 10
648.299
 20
-27.4641
 30
0.000000
  70
    32
  0
VERTEX
  8
0
  5
65B8
 10
648.261
 20
-27.3981
 30
0.000000
  70
    32
  0
VERTEX
  8
0
  5
65B9
 10
648.223
 20
-27.3319
 30
0.000000
  70
    32
  0
VERTEX
  8
0
  5
65BA
 10
648.184
 20
-27.2654
 30
0.000000
  70
    32
  0
VERTEX
  8
0
  5
65BB
 10
648.146
 20
-27.1986
 30
0.000000
  70
    32
  0
VERTEX
  8
0
  5
65BC
 10
648.107
 20
-27.1314
 30
0.000000
  70
    32
  0
VERTEX
  8
0
  5
65BD
 10
648.068
 20
-27.0640
 30
0.000000
  70
    32
  0
VERTEX
  8
0
  5
65BE
 10
648.029
 20
-26.9963
 30
0.000000
  70
    32
  0
VERTEX
  8
0
  5
65BF
 10
647.990
 20
-26.9282
 30
0.000000
  70
    32
  0
VERTEX
  8
0
  5
65C0
 10
647.950
 20
-26.8597
 30
0.000000
  70
    32
  0
VERTEX
  8
0
  5
65C1
 10
647.910
 20
-26.7908
 30
0.000000
  70
    32
  0
VERTEX
  8
0
  5
65C2
 10
647.870
 20
-26.7216
 30
0.000000
  70
    32
  0
VERTEX
  8
0
  5
65C3
 10
647.830
 20
-26.6520
 30
0.000000
  70
    32
  0
VERTEX
  8
0
  5
65C4
 10
647.790
 20
-26.5819
 30
0.000000
  70
    32
  0
VERTEX
  8
0
  5
65C5
 10
647.749
 20
-26.5114
 30
0.000000
  70
    32
  0
VERTEX
  8
0
  5
65C6
 10
647.708
 20
-26.4404
 30
0.000000
  70
    32
  0
VERTEX
  8
0
  5
65C7
 10
647.667
 20
-26.3690
 30
0.000000
  70
    32
  0
VERTEX
  8
0
  5
65C8
 10
647.625
 20
-26.2970
 30
0.000000
  70
    32
  0
VERTEX
  8
0
  5
65C9
 10
647.583
 20
-26.2246
 30
0.000000
  70
    32
  0
VERTEX
  8
0
  5
65CA
 10
647.541
 20
-26.1516
 30
0.000000
  70
    32
  0
VERTEX
  8
0
  5
65CB
 10
647.499
 20
-26.0781
 30
0.000000
  70
    32
  0
VERTEX
  8
0
  5
65CC
 10
647.456
 20
-26.0040
 30
0.000000
  70
    32
  0
VERTEX
  8
0
  5
65CD
 10
647.413
 20
-25.9293
 30
0.000000
  70
    32
  0
VERTEX
  8
0
  5
65CE
 10
647.369
 20
-25.8540
 30
0.000000
  70
    32
  0
VERTEX
  8
0
  5
65CF
 10
647.326
 20
-25.7781
 30
0.000000
  70
    32
  0
VERTEX
  8
0
  5
65D0
 10
647.281
 20
-25.7015
 30
0.000000
  70
    32
  0
VERTEX
  8
0
  5
65D1
 10
647.237
 20
-25.6243
 30
0.000000
  70
    32
  0
VERTEX
  8
0
  5
65D2
 10
647.192
 20
-25.5463
 30
0.000000
  70
    32
  0
VERTEX
  8
0
  5
65D3
 10
647.146
 20
-25.4677
 30
0.000000
  70
    32
  0
SEQEND
  8
0
  5
65D4
  0
POLYLINE
  8
0
  5
65D5
  62
1
  66
     1
 10
0.000000
 20
0.000000
 30
0.000000
  70
     8
  0
VERTEX
  8
0
  5
65D6
 10
658.405
 20
-31.9677
 30
0.000000
  70
    32
  0
VERTEX
  8
0
  5
65D7
 10
658.314
 20
-31.9677
 30
0.000000
  70
    32
  0
VERTEX
  8
0
  5
65D8
 10
658.224
 20
-31.9677
 30
0.000000
  70
    32
  0
VERTEX
  8
0
  5
65D9
 10
658.135
 20
-31.9677
 30
0.000000
  70
    32
  0
VERTEX
  8
0
  5
65DA
 10
658.046
 20
-31.9677
 30
0.000000
  70
    32
  0
VERTEX
  8
0
  5
65DB
 10
657.959
 20
-31.9677
 30
0.000000
  70
    32
  0
VERTEX
  8
0
  5
65DC
 10
657.872
 20
-31.9677
 30
0.000000
  70
    32
  0
VERTEX
  8
0
  5
65DD
 10
657.786
 20
-31.9677
 30
0.000000
  70
    32
  0
VERTEX
  8
0
  5
65DE
 10
657.700
 20
-31.9677
 30
0.000000
  70
    32
  0
VERTEX
  8
0
  5
65DF
 10
657.615
 20
-31.9677
 30
0.000000
  70
    32
  0
VERTEX
  8
0
  5
65E0
 10
657.531
 20
-31.9677
 30
0.000000
  70
    32
  0
VERTEX
  8
0
  5
65E1
 10
657.447
 20
-31.9677
 30
0.000000
  70
    32
  0
VERTEX
  8
0
  5
65E2
 10
657.364
 20
-31.9677
 30
0.000000
  70
    32
  0
VERTEX
  8
0
  5
65E3
 10
657.282
 20
-31.9677
 30
0.000000
  70
    32
  0
VERTEX
  8
0
  5
65E4
 10
657.200
 20
-31.9677
 30
0.000000
  70
    32
  0
VERTEX
  8
0
  5
65E5
 10
657.118
 20
-31.9677
 30
0.000000
  70
    32
  0
VERTEX
  8
0
  5
65E6
 10
657.037
 20
-31.9677
 30
0.000000
  70
    32
  0
VERTEX
  8
0
  5
65E7
 10
656.957
 20
-31.9677
 30
0.000000
  70
    32
  0
VERTEX
  8
0
  5
65E8
 10
656.877
 20
-31.9677
 30
0.000000
  70
    32
  0
VERTEX
  8
0
  5
65E9
 10
656.797
 20
-31.9677
 30
0.000000
  70
    32
  0
VERTEX
  8
0
  5
65EA
 10
656.718
 20
-31.9677
 30
0.000000
  70
    32
  0
VERTEX
  8
0
  5
65EB
 10
656.640
 20
-31.9677
 30
0.000000
  70
    32
  0
VERTEX
  8
0
  5
65EC
 10
656.562
 20
-31.9677
 30
0.000000
  70
    32
  0
VERTEX
  8
0
  5
65ED
 10
656.484
 20
-31.9677
 30
0.000000
  70
    32
  0
VERTEX
  8
0
  5
65EE
 10
656.406
 20
-31.9677
 30
0.000000
  70
    32
  0
VERTEX
  8
0
  5
65EF
 10
656.329
 20
-31.9677
 30
0.000000
  70
    32
  0
VERTEX
  8
0
  5
65F0
 10
656.252
 20
-31.9677
 30
0.000000
  70
    32
  0
VERTEX
  8
0
  5
65F1
 10
656.176
 20
-31.9677
 30
0.000000
  70
    32
  0
VERTEX
  8
0
  5
65F2
 10
656.100
 20
-31.9677
 30
0.000000
  70
    32
  0
VERTEX
  8
0
  5
65F3
 10
656.024
 20
-31.9677
 30
0.000000
  70
    32
  0
VERTEX
  8
0
  5
65F4
 10
655.948
 20
-31.9677
 30
0.000000
  70
    32
  0
VERTEX
  8
0
  5
65F5
 10
655.873
 20
-31.9677
 30
0.000000
  70
    32
  0
VERTEX
  8
0
  5
65F6
 10
655.797
 20
-31.9677
 30
0.000000
  70
    32
  0
VERTEX
  8
0
  5
65F7
 10
655.722
 20
-31.9677
 30
0.000000
  70
    32
  0
VERTEX
  8
0
  5
65F8
 10
655.648
 20
-31.9677
 30
0.000000
  70
    32
  0
VERTEX
  8
0
  5
65F9
 10
655.573
 20
-31.9677
 30
0.000000
  70
    32
  0
VERTEX
  8
0
  5
65FA
 10
655.499
 20
-31.9677
 30
0.000000
  70
    32
  0
VERTEX
  8
0
  5
65FB
 10
655.425
 20
-31.9677
 30
0.000000
  70
    32
  0
VERTEX
  8
0
  5
65FC
 10
655.351
 20
-31.9677
 30
0.000000
  70
    32
  0
VERTEX
  8
0
  5
65FD
 10
655.277
 20
-31.9677
 30
0.000000
  70
    32
  0
VERTEX
  8
0
  5
65FE
 10
655.203
 20
-31.9677
 30
0.000000
  70
    32
  0
VERTEX
  8
0
  5
65FF
 10
655.129
 20
-31.9677
 30
0.000000
  70
    32
  0
VERTEX
  8
0
  5
6600
 10
655.056
 20
-31.9677
 30
0.000000
  70
    32
  0
VERTEX
  8
0
  5
6601
 10
654.982
 20
-31.9677
 30
0.000000
  70
    32
  0
VERTEX
  8
0
  5
6602
 10
654.909
 20
-31.9677
 30
0.000000
  70
    32
  0
VERTEX
  8
0
  5
6603
 10
654.835
 20
-31.9677
 30
0.000000
  70
    32
  0
VERTEX
  8
0
  5
6604
 10
654.762
 20
-31.9677
 30
0.000000
  70
    32
  0
VERTEX
  8
0
  5
6605
 10
654.689
 20
-31.9677
 30
0.000000
  70
    32
  0
VERTEX
  8
0
  5
6606
 10
654.615
 20
-31.9677
 30
0.000000
  70
    32
  0
VERTEX
  8
0
  5
6607
 10
654.542
 20
-31.9677
 30
0.000000
  70
    32
  0
VERTEX
  8
0
  5
6608
 10
654.469
 20
-31.9677
 30
0.000000
  70
    32
  0
VERTEX
  8
0
  5
6609
 10
654.395
 20
-31.9677
 30
0.000000
  70
    32
  0
VERTEX
  8
0
  5
660A
 10
654.322
 20
-31.9677
 30
0.000000
  70
    32
  0
VERTEX
  8
0
  5
660B
 10
654.248
 20
-31.9677
 30
0.000000
  70
    32
  0
VERTEX
  8
0
  5
660C
 10
654.175
 20
-31.9677
 30
0.000000
  70
    32
  0
VERTEX
  8
0
  5
660D
 10
654.101
 20
-31.9677
 30
0.000000
  70
    32
  0
VERTEX
  8
0
  5
660E
 10
654.027
 20
-31.9677
 30
0.000000
  70
    32
  0
VERTEX
  8
0
  5
660F
 10
653.953
 20
-31.9677
 30
0.000000
  70
    32
  0
VERTEX
  8
0
  5
6610
 10
653.879
 20
-31.9677
 30
0.000000
  70
    32
  0
VERTEX
  8
0
  5
6611
 10
653.805
 20
-31.9677
 30
0.000000
  70
    32
  0
VERTEX
  8
0
  5
6612
 10
653.731
 20
-31.9677
 30
0.000000
  70
    32
  0
VERTEX
  8
0
  5
6613
 10
653.656
 20
-31.9677
 30
0.000000
  70
    32
  0
VERTEX
  8
0
  5
6614
 10
653.581
 20
-31.9677
 30
0.000000
  70
    32
  0
VERTEX
  8
0
  5
6615
 10
653.507
 20
-31.9677
 30
0.000000
  70
    32
  0
VERTEX
  8
0
  5
6616
 10
653.431
 20
-31.9677
 30
0.000000
  70
    32
  0
VERTEX
  8
0
  5
6617
 10
653.356
 20
-31.9677
 30
0.000000
  70
    32
  0
VERTEX
  8
0
  5
6618
 10
653.280
 20
-31.9677
 30
0.000000
  70
    32
  0
VERTEX
  8
0
  5
6619
 10
653.204
 20
-31.9677
 30
0.000000
  70
    32
  0
VERTEX
  8
0
  5
661A
 10
653.128
 20
-31.9677
 30
0.000000
  70
    32
  0
VERTEX
  8
0
  5
661B
 10
653.052
 20
-31.9677
 30
0.000000
  70
    32
  0
VERTEX
  8
0
  5
661C
 10
652.975
 20
-31.9677
 30
0.000000
  70
    32
  0
VERTEX
  8
0
  5
661D
 10
652.898
 20
-31.9677
 30
0.000000
  70
    32
  0
VERTEX
  8
0
  5
661E
 10
652.820
 20
-31.9677
 30
0.000000
  70
    32
  0
VERTEX
  8
0
  5
661F
 10
652.742
 20
-31.9677
 30
0.000000
  70
    32
  0
VERTEX
  8
0
  5
6620
 10
652.664
 20
-31.9677
 30
0.000000
  70
    32
  0
VERTEX
  8
0
  5
6621
 10
652.586
 20
-31.9677
 30
0.000000
  70
    32
  0
VERTEX
  8
0
  5
6622
 10
652.507
 20
-31.9677
 30
0.000000
  70
    32
  0
VERTEX
  8
0
  5
6623
 10
652.427
 20
-31.9677
 30
0.000000
  70
    32
  0
VERTEX
  8
0
  5
6624
 10
652.347
 20
-31.9677
 30
0.000000
  70
    32
  0
VERTEX
  8
0
  5
6625
 10
652.267
 20
-31.9677
 30
0.000000
  70
    32
  0
VERTEX
  8
0
  5
6626
 10
652.186
 20
-31.9677
 30
0.000000
  70
    32
  0
VERTEX
  8
0
  5
6627
 10
652.104
 20
-31.9677
 30
0.000000
  70
    32
  0
VERTEX
  8
0
  5
6628
 10
652.022
 20
-31.9677
 30
0.000000
  70
    32
  0
VERTEX
  8
0
  5
6629
 10
651.940
 20
-31.9677
 30
0.000000
  70
    32
  0
VERTEX
  8
0
  5
662A
 10
651.857
 20
-31.9677
 30
0.000000
  70
    32
  0
VERTEX
  8
0
  5
662B
 10
651.773
 20
-31.9677
 30
0.000000
  70
    32
  0
VERTEX
  8
0
  5
662C
 10
651.689
 20
-31.9677
 30
0.000000
  70
    32
  0
VERTEX
  8
0
  5
662D
 10
651.604
 20
-31.9677
 30
0.000000
  70
    32
  0
VERTEX
  8
0
  5
662E
 10
651.518
 20
-31.9677
 30
0.000000
  70
    32
  0
VERTEX
  8
0
  5
662F
 10
651.432
 20
-31.9677
 30
0.000000
  70
    32
  0
VERTEX
  8
0
  5
6630
 10
651.345
 20
-31.9677
 30
0.000000
  70
    32
  0
VERTEX
  8
0
  5
6631
 10
651.258
 20
-31.9677
 30
0.000000
  70
    32
  0
VERTEX
  8
0
  5
6632
 10
651.169
 20
-31.9677
 30
0.000000
  70
    32
  0
VERTEX
  8
0
  5
6633
 10
651.080
 20
-31.9677
 30
0.000000
  70
    32
  0
VERTEX
  8
0
  5
6634
 10
650.990
 20
-31.9677
 30
0.000000
  70
    32
  0
VERTEX
  8
0
  5
6635
 10
650.899
 20
-31.9677
 30
0.000000
  70
    32
  0
SEQEND
  8
0
  5
6636
  0
POLYLINE
  8
0
  5
6637
  62
1
  66
     1
 10
0.000000
 20
0.000000
 30
0.000000
  70
     8
  0
VERTEX
  8
0
  5
6638
 10
662.158
 20
-25.4677
 30
0.000000
  70
    32
  0
VERTEX
  8
0
  5
6639
 10
662.112
 20
-25.5463
 30
0.000000
  70
    32
  0
VERTEX
  8
0
  5
663A
 10
662.067
 20
-25.6243
 30
0.000000
  70
    32
  0
VERTEX
  8
0
  5
663B
 10
662.023
 20
-25.7015
 30
0.000000
  70
    32
  0
VERTEX
  8
0
  5
663C
 10
661.978
 20
-25.7781
 30
0.000000
  70
    32
  0
VERTEX
  8
0
  5
663D
 10
661.935
 20
-25.8540
 30
0.000000
  70
    32
  0
VERTEX
  8
0
  5
663E
 10
661.891
 20
-25.9293
 30
0.000000
  70
    32
  0
VERTEX
  8
0
  5
663F
 10
661.848
 20
-26.0040
 30
0.000000
  70
    32
  0
VERTEX
  8
0
  5
6640
 10
661.805
 20
-26.0781
 30
0.000000
  70
    32
  0
VERTEX
  8
0
  5
6641
 10
661.763
 20
-26.1516
 30
0.000000
  70
    32
  0
VERTEX
  8
0
  5
6642
 10
661.721
 20
-26.2246
 30
0.000000
  70
    32
  0
VERTEX
  8
0
  5
6643
 10
661.679
 20
-26.2970
 30
0.000000
  70
    32
  0
VERTEX
  8
0
  5
6644
 10
661.637
 20
-26.3690
 30
0.000000
  70
    32
  0
VERTEX
  8
0
  5
6645
 10
661.596
 20
-26.4404
 30
0.000000
  70
    32
  0
VERTEX
  8
0
  5
6646
 10
661.555
 20
-26.5114
 30
0.000000
  70
    32
  0
VERTEX
  8
0
  5
6647
 10
661.514
 20
-26.5819
 30
0.000000
  70
    32
  0
VERTEX
  8
0
  5
6648
 10
661.474
 20
-26.6520
 30
0.000000
  70
    32
  0
VERTEX
  8
0
  5
6649
 10
661.434
 20
-26.7216
 30
0.000000
  70
    32
  0
VERTEX
  8
0
  5
664A
 10
661.394
 20
-26.7908
 30
0.000000
  70
    32
  0
VERTEX
  8
0
  5
664B
 10
661.354
 20
-26.8597
 30
0.000000
  70
    32
  0
VERTEX
  8
0
  5
664C
 10
661.314
 20
-26.9282
 30
0.000000
  70
    32
  0
VERTEX
  8
0
  5
664D
 10
661.275
 20
-26.9963
 30
0.000000
  70
    32
  0
VERTEX
  8
0
  5
664E
 10
661.236
 20
-27.0640
 30
0.000000
  70
    32
  0
VERTEX
  8
0
  5
664F
 10
661.197
 20
-27.1314
 30
0.000000
  70
    32
  0
VERTEX
  8
0
  5
6650
 10
661.158
 20
-27.1986
 30
0.000000
  70
    32
  0
VERTEX
  8
0
  5
6651
 10
661.120
 20
-27.2654
 30
0.000000
  70
    32
  0
VERTEX
  8
0
  5
6652
 10
661.081
 20
-27.3319
 30
0.000000
  70
    32
  0
VERTEX
  8
0
  5
6653
 10
661.043
 20
-27.3981
 30
0.000000
  70
    32
  0
VERTEX
  8
0
  5
6654
 10
661.005
 20
-27.4641
 30
0.000000
  70
    32
  0
VERTEX
  8
0
  5
6655
 10
660.967
 20
-27.5299
 30
0.000000
  70
    32
  0
VERTEX
  8
0
  5
6656
 10
660.929
 20
-27.5954
 30
0.000000
  70
    32
  0
VERTEX
  8
0
  5
6657
 10
660.891
 20
-27.6607
 30
0.000000
  70
    32
  0
VERTEX
  8
0
  5
6658
 10
660.854
 20
-27.7257
 30
0.000000
  70
    32
  0
VERTEX
  8
0
  5
6659
 10
660.816
 20
-27.7906
 30
0.000000
  70
    32
  0
VERTEX
  8
0
  5
665A
 10
660.779
 20
-27.8553
 30
0.000000
  70
    32
  0
VERTEX
  8
0
  5
665B
 10
660.742
 20
-27.9199
 30
0.000000
  70
    32
  0
VERTEX
  8
0
  5
665C
 10
660.705
 20
-27.9843
 30
0.000000
  70
    32
  0
VERTEX
  8
0
  5
665D
 10
660.668
 20
-28.0485
 30
0.000000
  70
    32
  0
VERTEX
  8
0
  5
665E
 10
660.630
 20
-28.1126
 30
0.000000
  70
    32
  0
VERTEX
  8
0
  5
665F
 10
660.594
 20
-28.1766
 30
0.000000
  70
    32
  0
VERTEX
  8
0
  5
6660
 10
660.557
 20
-28.2405
 30
0.000000
  70
    32
  0
VERTEX
  8
0
  5
6661
 10
660.520
 20
-28.3043
 30
0.000000
  70
    32
  0
VERTEX
  8
0
  5
6662
 10
660.483
 20
-28.3681
 30
0.000000
  70
    32
  0
VERTEX
  8
0
  5
6663
 10
660.446
 20
-28.4317
 30
0.000000
  70
    32
  0
VERTEX
  8
0
  5
6664
 10
660.410
 20
-28.4953
 30
0.000000
  70
    32
  0
VERTEX
  8
0
  5
6665
 10
660.373
 20
-28.5589
 30
0.000000
  70
    32
  0
VERTEX
  8
0
  5
6666
 10
660.336
 20
-28.6224
 30
0.000000
  70
    32
  0
VERTEX
  8
0
  5
6667
 10
660.299
 20
-28.6859
 30
0.000000
  70
    32
  0
VERTEX
  8
0
  5
6668
 10
660.263
 20
-28.7495
 30
0.000000
  70
    32
  0
VERTEX
  8
0
  5
6669
 10
660.226
 20
-28.8130
 30
0.000000
  70
    32
  0
VERTEX
  8
0
  5
666A
 10
660.189
 20
-28.8765
 30
0.000000
  70
    32
  0
VERTEX
  8
0
  5
666B
 10
660.153
 20
-28.9401
 30
0.000000
  70
    32
  0
VERTEX
  8
0
  5
666C
 10
660.116
 20
-29.0037
 30
0.000000
  70
    32
  0
VERTEX
  8
0
  5
666D
 10
660.079
 20
-29.0673
 30
0.000000
  70
    32
  0
VERTEX
  8
0
  5
666E
 10
660.043
 20
-29.1311
 30
0.000000
  70
    32
  0
VERTEX
  8
0
  5
666F
 10
660.006
 20
-29.1949
 30
0.000000
  70
    32
  0
VERTEX
  8
0
  5
6670
 10
659.969
 20
-29.2588
 30
0.000000
  70
    32
  0
VERTEX
  8
0
  5
6671
 10
659.932
 20
-29.3228
 30
0.000000
  70
    32
  0
VERTEX
  8
0
  5
6672
 10
659.895
 20
-29.3869
 30
0.000000
  70
    32
  0
VERTEX
  8
0
  5
6673
 10
659.858
 20
-29.4511
 30
0.000000
  70
    32
  0
VERTEX
  8
0
  5
6674
 10
659.821
 20
-29.5155
 30
0.000000
  70
    32
  0
VERTEX
  8
0
  5
6675
 10
659.783
 20
-29.5801
 30
0.000000
  70
    32
  0
VERTEX
  8
0
  5
6676
 10
659.746
 20
-29.6448
 30
0.000000
  70
    32
  0
VERTEX
  8
0
  5
6677
 10
659.708
 20
-29.7097
 30
0.000000
  70
    32
  0
VERTEX
  8
0
  5
6678
 10
659.671
 20
-29.7748
 30
0.000000
  70
    32
  0
VERTEX
  8
0
  5
6679
 10
659.633
 20
-29.8400
 30
0.000000
  70
    32
  0
VERTEX
  8
0
  5
667A
 10
659.595
 20
-29.9056
 30
0.000000
  70
    32
  0
VERTEX
  8
0
  5
667B
 10
659.557
 20
-29.9713
 30
0.000000
  70
    32
  0
VERTEX
  8
0
  5
667C
 10
659.519
 20
-30.0373
 30
0.000000
  70
    32
  0
VERTEX
  8
0
  5
667D
 10
659.481
 20
-30.1035
 30
0.000000
  70
    32
  0
VERTEX
  8
0
  5
667E
 10
659.443
 20
-30.1700
 30
0.000000
  70
    32
  0
VERTEX
  8
0
  5
667F
 10
659.404
 20
-30.2369
 30
0.000000
  70
    32
  0
VERTEX
  8
0
  5
6680
 10
659.365
 20
-30.3040
 30
0.000000
  70
    32
  0
VERTEX
  8
0
  5
6681
 10
659.326
 20
-30.3714
 30
0.000000
  70
    32
  0
VERTEX
  8
0
  5
6682
 10
659.287
 20
-30.4392
 30
0.000000
  70
    32
  0
VERTEX
  8
0
  5
6683
 10
659.248
 20
-30.5073
 30
0.000000
  70
    32
  0
VERTEX
  8
0
  5
6684
 10
659.208
 20
-30.5757
 30
0.000000
  70
    32
  0
VERTEX
  8
0
  5
6685
 10
659.169
 20
-30.6446
 30
0.000000
  70
    32
  0
VERTEX
  8
0
  5
6686
 10
659.129
 20
-30.7138
 30
0.000000
  70
    32
  0
VERTEX
  8
0
  5
6687
 10
659.089
 20
-30.7835
 30
0.000000
  70
    32
  0
VERTEX
  8
0
  5
6688
 10
659.048
 20
-30.8535
 30
0.000000
  70
    32
  0
VERTEX
  8
0
  5
6689
 10
659.007
 20
-30.9240
 30
0.000000
  70
    32
  0
VERTEX
  8
0
  5
668A
 10
658.966
 20
-30.9950
 30
0.000000
  70
    32
  0
VERTEX
  8
0
  5
668B
 10
658.925
 20
-31.0665
 30
0.000000
  70
    32
  0
VERTEX
  8
0
  5
668C
 10
658.884
 20
-31.1384
 30
0.000000
  70
    32
  0
VERTEX
  8
0
  5
668D
 10
658.842
 20
-31.2108
 30
0.000000
  70
    32
  0
VERTEX
  8
0
  5
668E
 10
658.800
 20
-31.2838
 30
0.000000
  70
    32
  0
VERTEX
  8
0
  5
668F
 10
658.757
 20
-31.3574
 30
0.000000
  70
    32
  0
VERTEX
  8
0
  5
6690
 10
658.714
 20
-31.4314
 30
0.000000
  70
    32
  0
VERTEX
  8
0
  5
6691
 10
658.671
 20
-31.5061
 30
0.000000
  70
    32
  0
VERTEX
  8
0
  5
6692
 10
658.628
 20
-31.5814
 30
0.000000
  70
    32
  0
VERTEX
  8
0
  5
6693
 10
658.584
 20
-31.6573
 30
0.000000
  70
    32
  0
VERTEX
  8
0
  5
6694
 10
658.540
 20
-31.7339
 30
0.000000
  70
    32
  0
VERTEX
  8
0
  5
6695
 10
658.495
 20
-31.8111
 30
0.000000
  70
    32
  0
VERTEX
  8
0
  5
6696
 10
658.450
 20
-31.8891
 30
0.000000
  70
    32
  0
VERTEX
  8
0
  5
6697
 10
658.405
 20
-31.9677
 30
0.000000
  70
    32
  0
SEQEND
  8
0
  5
6698
  0
ARC
  5
6289
  8
0
  6
VERDECKT
 62
     1
 10
654.6519951185673563
 20
-25.4677040982105289
 30
0.0
 40
6.5000000000018421
 50
150.0000000000106866
 51
209.9999999999890861
  0
ARC
  5
628A
  8
0
  6
VERDECKT
 62
     1
 10
654.6519951185655373
 20
-25.4677040982089586
 30
0.0
 40
6.5000000000010534
 50
210.0000000000092086
 51
270.0
  0
ARC
  5
628B
  8
0
  6
VERDECKT
 62
     1
 10
654.6519951185655373
 20
-25.4677040982120495
 30
0.0
 40
6.5000000000012781
 50
90.0
 51
149.999999999991104
  0
ARC
  5
628C
  8
0
  6
VERDECKT
 62
     1
 10
654.6519951185655373
 20
-25.4677040982120815
 30
0.0
 40
6.5000000000010569
 50
30.0000000000093117
 51
90.0000000000000284
  0
ARC
  5
628D
  8
0
  6
VERDECKT
 62
     1
 10
654.6519951185655373
 20
-25.4677040982089586
 30
0.0
 40
6.5000000000013074
 50
270.0
 51
329.9999999999907914
  0
ARC
  5
628E
  8
0
  6
VERDECKT
 62
     1
 10
654.6519951185636046
 20
-25.4677040982105112
 30
0.0
 40
6.5000000000018519
 50
330.0000000000106866
 51
29.9999999999893596
  0
POLYLINE
  8
0
  5
6699
  62
1
  66
     1
 10
0.000000
 20
0.000000
 30
0.000000
  70
     8
  0
VERTEX
  8
0
  5
669A
 10
658.405
 20
-18.9677
 30
0.000000
  70
    32
  0
VERTEX
  8
0
  5
669B
 10
658.450
 20
-19.0463
 30
0.000000
  70
    32
  0
VERTEX
  8
0
  5
669C
 10
658.495
 20
-19.1243
 30
0.000000
  70
    32
  0
VERTEX
  8
0
  5
669D
 10
658.540
 20
-19.2015
 30
0.000000
  70
    32
  0
VERTEX
  8
0
  5
669E
 10
658.584
 20
-19.2781
 30
0.000000
  70
    32
  0
VERTEX
  8
0
  5
669F
 10
658.628
 20
-19.3540
 30
0.000000
  70
    32
  0
VERTEX
  8
0
  5
66A0
 10
658.671
 20
-19.4293
 30
0.000000
  70
    32
  0
VERTEX
  8
0
  5
66A1
 10
658.714
 20
-19.5040
 30
0.000000
  70
    32
  0
VERTEX
  8
0
  5
66A2
 10
658.757
 20
-19.5781
 30
0.000000
  70
    32
  0
VERTEX
  8
0
  5
66A3
 10
658.800
 20
-19.6516
 30
0.000000
  70
    32
  0
VERTEX
  8
0
  5
66A4
 10
658.842
 20
-19.7246
 30
0.000000
  70
    32
  0
VERTEX
  8
0
  5
66A5
 10
658.884
 20
-19.7970
 30
0.000000
  70
    32
  0
VERTEX
  8
0
  5
66A6
 10
658.925
 20
-19.8690
 30
0.000000
  70
    32
  0
VERTEX
  8
0
  5
66A7
 10
658.966
 20
-19.9404
 30
0.000000
  70
    32
  0
VERTEX
  8
0
  5
66A8
 10
659.007
 20
-20.0114
 30
0.000000
  70
    32
  0
VERTEX
  8
0
  5
66A9
 10
659.048
 20
-20.0819
 30
0.000000
  70
    32
  0
VERTEX
  8
0
  5
66AA
 10
659.089
 20
-20.1520
 30
0.000000
  70
    32
  0
VERTEX
  8
0
  5
66AB
 10
659.129
 20
-20.2216
 30
0.000000
  70
    32
  0
VERTEX
  8
0
  5
66AC
 10
659.169
 20
-20.2908
 30
0.000000
  70
    32
  0
VERTEX
  8
0
  5
66AD
 10
659.208
 20
-20.3597
 30
0.000000
  70
    32
  0
VERTEX
  8
0
  5
66AE
 10
659.248
 20
-20.4282
 30
0.000000
  70
    32
  0
VERTEX
  8
0
  5
66AF
 10
659.287
 20
-20.4963
 30
0.000000
  70
    32
  0
VERTEX
  8
0
  5
66B0
 10
659.326
 20
-20.5640
 30
0.000000
  70
    32
  0
VERTEX
  8
0
  5
66B1
 10
659.365
 20
-20.6314
 30
0.000000
  70
    32
  0
VERTEX
  8
0
  5
66B2
 10
659.404
 20
-20.6986
 30
0.000000
  70
    32
  0
VERTEX
  8
0
  5
66B3
 10
659.443
 20
-20.7654
 30
0.000000
  70
    32
  0
VERTEX
  8
0
  5
66B4
 10
659.481
 20
-20.8319
 30
0.000000
  70
    32
  0
VERTEX
  8
0
  5
66B5
 10
659.519
 20
-20.8981
 30
0.000000
  70
    32
  0
VERTEX
  8
0
  5
66B6
 10
659.557
 20
-20.9641
 30
0.000000
  70
    32
  0
VERTEX
  8
0
  5
66B7
 10
659.595
 20
-21.0299
 30
0.000000
  70
    32
  0
VERTEX
  8
0
  5
66B8
 10
659.633
 20
-21.0954
 30
0.000000
  70
    32
  0
VERTEX
  8
0
  5
66B9
 10
659.671
 20
-21.1607
 30
0.000000
  70
    32
  0
VERTEX
  8
0
  5
66BA
 10
659.708
 20
-21.2257
 30
0.000000
  70
    32
  0
VERTEX
  8
0
  5
66BB
 10
659.746
 20
-21.2906
 30
0.000000
  70
    32
  0
VERTEX
  8
0
  5
66BC
 10
659.783
 20
-21.3553
 30
0.000000
  70
    32
  0
VERTEX
  8
0
  5
66BD
 10
659.821
 20
-21.4199
 30
0.000000
  70
    32
  0
VERTEX
  8
0
  5
66BE
 10
659.858
 20
-21.4843
 30
0.000000
  70
    32
  0
VERTEX
  8
0
  5
66BF
 10
659.895
 20
-21.5485
 30
0.000000
  70
    32
  0
VERTEX
  8
0
  5
66C0
 10
659.932
 20
-21.6126
 30
0.000000
  70
    32
  0
VERTEX
  8
0
  5
66C1
 10
659.969
 20
-21.6766
 30
0.000000
  70
    32
  0
VERTEX
  8
0
  5
66C2
 10
660.006
 20
-21.7405
 30
0.000000
  70
    32
  0
VERTEX
  8
0
  5
66C3
 10
660.043
 20
-21.8043
 30
0.000000
  70
    32
  0
VERTEX
  8
0
  5
66C4
 10
660.079
 20
-21.8681
 30
0.000000
  70
    32
  0
VERTEX
  8
0
  5
66C5
 10
660.116
 20
-21.9317
 30
0.000000
  70
    32
  0
VERTEX
  8
0
  5
66C6
 10
660.153
 20
-21.9953
 30
0.000000
  70
    32
  0
VERTEX
  8
0
  5
66C7
 10
660.189
 20
-22.0589
 30
0.000000
  70
    32
  0
VERTEX
  8
0
  5
66C8
 10
660.226
 20
-22.1224
 30
0.000000
  70
    32
  0
VERTEX
  8
0
  5
66C9
 10
660.263
 20
-22.1859
 30
0.000000
  70
    32
  0
VERTEX
  8
0
  5
66CA
 10
660.299
 20
-22.2495
 30
0.000000
  70
    32
  0
VERTEX
  8
0
  5
66CB
 10
660.336
 20
-22.3130
 30
0.000000
  70
    32
  0
VERTEX
  8
0
  5
66CC
 10
660.373
 20
-22.3765
 30
0.000000
  70
    32
  0
VERTEX
  8
0
  5
66CD
 10
660.410
 20
-22.4401
 30
0.000000
  70
    32
  0
VERTEX
  8
0
  5
66CE
 10
660.446
 20
-22.5037
 30
0.000000
  70
    32
  0
VERTEX
  8
0
  5
66CF
 10
660.483
 20
-22.5673
 30
0.000000
  70
    32
  0
VERTEX
  8
0
  5
66D0
 10
660.520
 20
-22.6311
 30
0.000000
  70
    32
  0
VERTEX
  8
0
  5
66D1
 10
660.557
 20
-22.6949
 30
0.000000
  70
    32
  0
VERTEX
  8
0
  5
66D2
 10
660.594
 20
-22.7588
 30
0.000000
  70
    32
  0
VERTEX
  8
0
  5
66D3
 10
660.630
 20
-22.8228
 30
0.000000
  70
    32
  0
VERTEX
  8
0
  5
66D4
 10
660.668
 20
-22.8869
 30
0.000000
  70
    32
  0
VERTEX
  8
0
  5
66D5
 10
660.705
 20
-22.9511
 30
0.000000
  70
    32
  0
VERTEX
  8
0
  5
66D6
 10
660.742
 20
-23.0155
 30
0.000000
  70
    32
  0
VERTEX
  8
0
  5
66D7
 10
660.779
 20
-23.0801
 30
0.000000
  70
    32
  0
VERTEX
  8
0
  5
66D8
 10
660.816
 20
-23.1448
 30
0.000000
  70
    32
  0
VERTEX
  8
0
  5
66D9
 10
660.854
 20
-23.2097
 30
0.000000
  70
    32
  0
VERTEX
  8
0
  5
66DA
 10
660.891
 20
-23.2748
 30
0.000000
  70
    32
  0
VERTEX
  8
0
  5
66DB
 10
660.929
 20
-23.3400
 30
0.000000
  70
    32
  0
VERTEX
  8
0
  5
66DC
 10
660.967
 20
-23.4056
 30
0.000000
  70
    32
  0
VERTEX
  8
0
  5
66DD
 10
661.005
 20
-23.4713
 30
0.000000
  70
    32
  0
VERTEX
  8
0
  5
66DE
 10
661.043
 20
-23.5373
 30
0.000000
  70
    32
  0
VERTEX
  8
0
  5
66DF
 10
661.081
 20
-23.6035
 30
0.000000
  70
    32
  0
VERTEX
  8
0
  5
66E0
 10
661.120
 20
-23.6700
 30
0.000000
  70
    32
  0
VERTEX
  8
0
  5
66E1
 10
661.158
 20
-23.7369
 30
0.000000
  70
    32
  0
VERTEX
  8
0
  5
66E2
 10
661.197
 20
-23.8040
 30
0.000000
  70
    32
  0
VERTEX
  8
0
  5
66E3
 10
661.236
 20
-23.8714
 30
0.000000
  70
    32
  0
VERTEX
  8
0
  5
66E4
 10
661.275
 20
-23.9392
 30
0.000000
  70
    32
  0
VERTEX
  8
0
  5
66E5
 10
661.314
 20
-24.0073
 30
0.000000
  70
    32
  0
VERTEX
  8
0
  5
66E6
 10
661.354
 20
-24.0757
 30
0.000000
  70
    32
  0
VERTEX
  8
0
  5
66E7
 10
661.394
 20
-24.1446
 30
0.000000
  70
    32
  0
VERTEX
  8
0
  5
66E8
 10
661.434
 20
-24.2138
 30
0.000000
  70
    32
  0
VERTEX
  8
0
  5
66E9
 10
661.474
 20
-24.2835
 30
0.000000
  70
    32
  0
VERTEX
  8
0
  5
66EA
 10
661.514
 20
-24.3535
 30
0.000000
  70
    32
  0
VERTEX
  8
0
  5
66EB
 10
661.555
 20
-24.4240
 30
0.000000
  70
    32
  0
VERTEX
  8
0
  5
66EC
 10
661.596
 20
-24.4950
 30
0.000000
  70
    32
  0
VERTEX
  8
0
  5
66ED
 10
661.637
 20
-24.5665
 30
0.000000
  70
    32
  0
VERTEX
  8
0
  5
66EE
 10
661.679
 20
-24.6384
 30
0.000000
  70
    32
  0
VERTEX
  8
0
  5
66EF
 10
661.721
 20
-24.7108
 30
0.000000
  70
    32
  0
VERTEX
  8
0
  5
66F0
 10
661.763
 20
-24.7838
 30
0.000000
  70
    32
  0
VERTEX
  8
0
  5
66F1
 10
661.805
 20
-24.8574
 30
0.000000
  70
    32
  0
VERTEX
  8
0
  5
66F2
 10
661.848
 20
-24.9314
 30
0.000000
  70
    32
  0
VERTEX
  8
0
  5
66F3
 10
661.891
 20
-25.0061
 30
0.000000
  70
    32
  0
VERTEX
  8
0
  5
66F4
 10
661.935
 20
-25.0814
 30
0.000000
  70
    32
  0
VERTEX
  8
0
  5
66F5
 10
661.978
 20
-25.1573
 30
0.000000
  70
    32
  0
VERTEX
  8
0
  5
66F6
 10
662.023
 20
-25.2339
 30
0.000000
  70
    32
  0
VERTEX
  8
0
  5
66F7
 10
662.067
 20
-25.3111
 30
0.000000
  70
    32
  0
VERTEX
  8
0
  5
66F8
 10
662.112
 20
-25.3891
 30
0.000000
  70
    32
  0
VERTEX
  8
0
  5
66F9
 10
662.158
 20
-25.4677
 30
0.000000
  70
    32
  0
SEQEND
  8
0
  5
66FA
  0
POLYLINE
  8
0
  5
66FB
  62
1
  66
     1
 10
0.000000
 20
0.000000
 30
0.000000
  70
     8
  0
VERTEX
  8
0
  5
66FC
 10
650.899
 20
-18.9677
 30
0.000000
  70
    32
  0
VERTEX
  8
0
  5
66FD
 10
650.990
 20
-18.9677
 30
0.000000
  70
    32
  0
VERTEX
  8
0
  5
66FE
 10
651.080
 20
-18.9677
 30
0.000000
  70
    32
  0
VERTEX
  8
0
  5
66FF
 10
651.169
 20
-18.9677
 30
0.000000
  70
    32
  0
VERTEX
  8
0
  5
6700
 10
651.258
 20
-18.9677
 30
0.000000
  70
    32
  0
VERTEX
  8
0
  5
6701
 10
651.345
 20
-18.9677
 30
0.000000
  70
    32
  0
VERTEX
  8
0
  5
6702
 10
651.432
 20
-18.9677
 30
0.000000
  70
    32
  0
VERTEX
  8
0
  5
6703
 10
651.518
 20
-18.9677
 30
0.000000
  70
    32
  0
VERTEX
  8
0
  5
6704
 10
651.604
 20
-18.9677
 30
0.000000
  70
    32
  0
VERTEX
  8
0
  5
6705
 10
651.689
 20
-18.9677
 30
0.000000
  70
    32
  0
VERTEX
  8
0
  5
6706
 10
651.773
 20
-18.9677
 30
0.000000
  70
    32
  0
VERTEX
  8
0
  5
6707
 10
651.857
 20
-18.9677
 30
0.000000
  70
    32
  0
VERTEX
  8
0
  5
6708
 10
651.940
 20
-18.9677
 30
0.000000
  70
    32
  0
VERTEX
  8
0
  5
6709
 10
652.022
 20
-18.9677
 30
0.000000
  70
    32
  0
VERTEX
  8
0
  5
670A
 10
652.104
 20
-18.9677
 30
0.000000
  70
    32
  0
VERTEX
  8
0
  5
670B
 10
652.186
 20
-18.9677
 30
0.000000
  70
    32
  0
VERTEX
  8
0
  5
670C
 10
652.267
 20
-18.9677
 30
0.000000
  70
    32
  0
VERTEX
  8
0
  5
670D
 10
652.347
 20
-18.9677
 30
0.000000
  70
    32
  0
VERTEX
  8
0
  5
670E
 10
652.427
 20
-18.9677
 30
0.000000
  70
    32
  0
VERTEX
  8
0
  5
670F
 10
652.507
 20
-18.9677
 30
0.000000
  70
    32
  0
VERTEX
  8
0
  5
6710
 10
652.586
 20
-18.9677
 30
0.000000
  70
    32
  0
VERTEX
  8
0
  5
6711
 10
652.664
 20
-18.9677
 30
0.000000
  70
    32
  0
VERTEX
  8
0
  5
6712
 10
652.742
 20
-18.9677
 30
0.000000
  70
    32
  0
VERTEX
  8
0
  5
6713
 10
652.820
 20
-18.9677
 30
0.000000
  70
    32
  0
VERTEX
  8
0
  5
6714
 10
652.898
 20
-18.9677
 30
0.000000
  70
    32
  0
VERTEX
  8
0
  5
6715
 10
652.975
 20
-18.9677
 30
0.000000
  70
    32
  0
VERTEX
  8
0
  5
6716
 10
653.052
 20
-18.9677
 30
0.000000
  70
    32
  0
VERTEX
  8
0
  5
6717
 10
653.128
 20
-18.9677
 30
0.000000
  70
    32
  0
VERTEX
  8
0
  5
6718
 10
653.204
 20
-18.9677
 30
0.000000
  70
    32
  0
VERTEX
  8
0
  5
6719
 10
653.280
 20
-18.9677
 30
0.000000
  70
    32
  0
VERTEX
  8
0
  5
671A
 10
653.356
 20
-18.9677
 30
0.000000
  70
    32
  0
VERTEX
  8
0
  5
671B
 10
653.431
 20
-18.9677
 30
0.000000
  70
    32
  0
VERTEX
  8
0
  5
671C
 10
653.507
 20
-18.9677
 30
0.000000
  70
    32
  0
VERTEX
  8
0
  5
671D
 10
653.581
 20
-18.9677
 30
0.000000
  70
    32
  0
VERTEX
  8
0
  5
671E
 10
653.656
 20
-18.9677
 30
0.000000
  70
    32
  0
VERTEX
  8
0
  5
671F
 10
653.731
 20
-18.9677
 30
0.000000
  70
    32
  0
VERTEX
  8
0
  5
6720
 10
653.805
 20
-18.9677
 30
0.000000
  70
    32
  0
VERTEX
  8
0
  5
6721
 10
653.879
 20
-18.9677
 30
0.000000
  70
    32
  0
VERTEX
  8
0
  5
6722
 10
653.953
 20
-18.9677
 30
0.000000
  70
    32
  0
VERTEX
  8
0
  5
6723
 10
654.027
 20
-18.9677
 30
0.000000
  70
    32
  0
VERTEX
  8
0
  5
6724
 10
654.101
 20
-18.9677
 30
0.000000
  70
    32
  0
VERTEX
  8
0
  5
6725
 10
654.175
 20
-18.9677
 30
0.000000
  70
    32
  0
VERTEX
  8
0
  5
6726
 10
654.248
 20
-18.9677
 30
0.000000
  70
    32
  0
VERTEX
  8
0
  5
6727
 10
654.322
 20
-18.9677
 30
0.000000
  70
    32
  0
VERTEX
  8
0
  5
6728
 10
654.395
 20
-18.9677
 30
0.000000
  70
    32
  0
VERTEX
  8
0
  5
6729
 10
654.469
 20
-18.9677
 30
0.000000
  70
    32
  0
VERTEX
  8
0
  5
672A
 10
654.542
 20
-18.9677
 30
0.000000
  70
    32
  0
VERTEX
  8
0
  5
672B
 10
654.615
 20
-18.9677
 30
0.000000
  70
    32
  0
VERTEX
  8
0
  5
672C
 10
654.689
 20
-18.9677
 30
0.000000
  70
    32
  0
VERTEX
  8
0
  5
672D
 10
654.762
 20
-18.9677
 30
0.000000
  70
    32
  0
VERTEX
  8
0
  5
672E
 10
654.835
 20
-18.9677
 30
0.000000
  70
    32
  0
VERTEX
  8
0
  5
672F
 10
654.909
 20
-18.9677
 30
0.000000
  70
    32
  0
VERTEX
  8
0
  5
6730
 10
654.982
 20
-18.9677
 30
0.000000
  70
    32
  0
VERTEX
  8
0
  5
6731
 10
655.056
 20
-18.9677
 30
0.000000
  70
    32
  0
VERTEX
  8
0
  5
6732
 10
655.129
 20
-18.9677
 30
0.000000
  70
    32
  0
VERTEX
  8
0
  5
6733
 10
655.203
 20
-18.9677
 30
0.000000
  70
    32
  0
VERTEX
  8
0
  5
6734
 10
655.277
 20
-18.9677
 30
0.000000
  70
    32
  0
VERTEX
  8
0
  5
6735
 10
655.351
 20
-18.9677
 30
0.000000
  70
    32
  0
VERTEX
  8
0
  5
6736
 10
655.425
 20
-18.9677
 30
0.000000
  70
    32
  0
VERTEX
  8
0
  5
6737
 10
655.499
 20
-18.9677
 30
0.000000
  70
    32
  0
VERTEX
  8
0
  5
6738
 10
655.573
 20
-18.9677
 30
0.000000
  70
    32
  0
VERTEX
  8
0
  5
6739
 10
655.648
 20
-18.9677
 30
0.000000
  70
    32
  0
VERTEX
  8
0
  5
673A
 10
655.722
 20
-18.9677
 30
0.000000
  70
    32
  0
VERTEX
  8
0
  5
673B
 10
655.797
 20
-18.9677
 30
0.000000
  70
    32
  0
VERTEX
  8
0
  5
673C
 10
655.873
 20
-18.9677
 30
0.000000
  70
    32
  0
VERTEX
  8
0
  5
673D
 10
655.948
 20
-18.9677
 30
0.000000
  70
    32
  0
VERTEX
  8
0
  5
673E
 10
656.024
 20
-18.9677
 30
0.000000
  70
    32
  0
VERTEX
  8
0
  5
673F
 10
656.100
 20
-18.9677
 30
0.000000
  70
    32
  0
VERTEX
  8
0
  5
6740
 10
656.176
 20
-18.9677
 30
0.000000
  70
    32
  0
VERTEX
  8
0
  5
6741
 10
656.252
 20
-18.9677
 30
0.000000
  70
    32
  0
VERTEX
  8
0
  5
6742
 10
656.329
 20
-18.9677
 30
0.000000
  70
    32
  0
VERTEX
  8
0
  5
6743
 10
656.406
 20
-18.9677
 30
0.000000
  70
    32
  0
VERTEX
  8
0
  5
6744
 10
656.484
 20
-18.9677
 30
0.000000
  70
    32
  0
VERTEX
  8
0
  5
6745
 10
656.562
 20
-18.9677
 30
0.000000
  70
    32
  0
VERTEX
  8
0
  5
6746
 10
656.640
 20
-18.9677
 30
0.000000
  70
    32
  0
VERTEX
  8
0
  5
6747
 10
656.718
 20
-18.9677
 30
0.000000
  70
    32
  0
VERTEX
  8
0
  5
6748
 10
656.797
 20
-18.9677
 30
0.000000
  70
    32
  0
VERTEX
  8
0
  5
6749
 10
656.877
 20
-18.9677
 30
0.000000
  70
    32
  0
VERTEX
  8
0
  5
674A
 10
656.957
 20
-18.9677
 30
0.000000
  70
    32
  0
VERTEX
  8
0
  5
674B
 10
657.037
 20
-18.9677
 30
0.000000
  70
    32
  0
VERTEX
  8
0
  5
674C
 10
657.118
 20
-18.9677
 30
0.000000
  70
    32
  0
VERTEX
  8
0
  5
674D
 10
657.200
 20
-18.9677
 30
0.000000
  70
    32
  0
VERTEX
  8
0
  5
674E
 10
657.282
 20
-18.9677
 30
0.000000
  70
    32
  0
VERTEX
  8
0
  5
674F
 10
657.364
 20
-18.9677
 30
0.000000
  70
    32
  0
VERTEX
  8
0
  5
6750
 10
657.447
 20
-18.9677
 30
0.000000
  70
    32
  0
VERTEX
  8
0
  5
6751
 10
657.531
 20
-18.9677
 30
0.000000
  70
    32
  0
VERTEX
  8
0
  5
6752
 10
657.615
 20
-18.9677
 30
0.000000
  70
    32
  0
VERTEX
  8
0
  5
6753
 10
657.700
 20
-18.9677
 30
0.000000
  70
    32
  0
VERTEX
  8
0
  5
6754
 10
657.786
 20
-18.9677
 30
0.000000
  70
    32
  0
VERTEX
  8
0
  5
6755
 10
657.872
 20
-18.9677
 30
0.000000
  70
    32
  0
VERTEX
  8
0
  5
6756
 10
657.959
 20
-18.9677
 30
0.000000
  70
    32
  0
VERTEX
  8
0
  5
6757
 10
658.046
 20
-18.9677
 30
0.000000
  70
    32
  0
VERTEX
  8
0
  5
6758
 10
658.135
 20
-18.9677
 30
0.000000
  70
    32
  0
VERTEX
  8
0
  5
6759
 10
658.224
 20
-18.9677
 30
0.000000
  70
    32
  0
VERTEX
  8
0
  5
675A
 10
658.314
 20
-18.9677
 30
0.000000
  70
    32
  0
VERTEX
  8
0
  5
675B
 10
658.405
 20
-18.9677
 30
0.000000
  70
    32
  0
SEQEND
  8
0
  5
675C
  0
POLYLINE
  8
0
  5
675D
  62
1
  66
     1
 10
0.000000
 20
0.000000
 30
0.000000
  70
     8
  0
VERTEX
  8
0
  5
675E
 10
647.146
 20
-25.4677
 30
0.000000
  70
    32
  0
VERTEX
  8
0
  5
675F
 10
647.192
 20
-25.3891
 30
0.000000
  70
    32
  0
VERTEX
  8
0
  5
6760
 10
647.237
 20
-25.3111
 30
0.000000
  70
    32
  0
VERTEX
  8
0
  5
6761
 10
647.281
 20
-25.2339
 30
0.000000
  70
    32
  0
VERTEX
  8
0
  5
6762
 10
647.326
 20
-25.1573
 30
0.000000
  70
    32
  0
VERTEX
  8
0
  5
6763
 10
647.369
 20
-25.0814
 30
0.000000
  70
    32
  0
VERTEX
  8
0
  5
6764
 10
647.413
 20
-25.0061
 30
0.000000
  70
    32
  0
VERTEX
  8
0
  5
6765
 10
647.456
 20
-24.9314
 30
0.000000
  70
    32
  0
VERTEX
  8
0
  5
6766
 10
647.499
 20
-24.8574
 30
0.000000
  70
    32
  0
VERTEX
  8
0
  5
6767
 10
647.541
 20
-24.7838
 30
0.000000
  70
    32
  0
VERTEX
  8
0
  5
6768
 10
647.583
 20
-24.7108
 30
0.000000
  70
    32
  0
VERTEX
  8
0
  5
6769
 10
647.625
 20
-24.6384
 30
0.000000
  70
    32
  0
VERTEX
  8
0
  5
676A
 10
647.667
 20
-24.5665
 30
0.000000
  70
    32
  0
VERTEX
  8
0
  5
676B
 10
647.708
 20
-24.4950
 30
0.000000
  70
    32
  0
VERTEX
  8
0
  5
676C
 10
647.749
 20
-24.4240
 30
0.000000
  70
    32
  0
VERTEX
  8
0
  5
676D
 10
647.790
 20
-24.3535
 30
0.000000
  70
    32
  0
VERTEX
  8
0
  5
676E
 10
647.830
 20
-24.2835
 30
0.000000
  70
    32
  0
VERTEX
  8
0
  5
676F
 10
647.870
 20
-24.2138
 30
0.000000
  70
    32
  0
VERTEX
  8
0
  5
6770
 10
647.910
 20
-24.1446
 30
0.000000
  70
    32
  0
VERTEX
  8
0
  5
6771
 10
647.950
 20
-24.0757
 30
0.000000
  70
    32
  0
VERTEX
  8
0
  5
6772
 10
647.990
 20
-24.0073
 30
0.000000
  70
    32
  0
VERTEX
  8
0
  5
6773
 10
648.029
 20
-23.9392
 30
0.000000
  70
    32
  0
VERTEX
  8
0
  5
6774
 10
648.068
 20
-23.8714
 30
0.000000
  70
    32
  0
VERTEX
  8
0
  5
6775
 10
648.107
 20
-23.8040
 30
0.000000
  70
    32
  0
VERTEX
  8
0
  5
6776
 10
648.146
 20
-23.7369
 30
0.000000
  70
    32
  0
VERTEX
  8
0
  5
6777
 10
648.184
 20
-23.6700
 30
0.000000
  70
    32
  0
VERTEX
  8
0
  5
6778
 10
648.223
 20
-23.6035
 30
0.000000
  70
    32
  0
VERTEX
  8
0
  5
6779
 10
648.261
 20
-23.5373
 30
0.000000
  70
    32
  0
VERTEX
  8
0
  5
677A
 10
648.299
 20
-23.4713
 30
0.000000
  70
    32
  0
VERTEX
  8
0
  5
677B
 10
648.337
 20
-23.4056
 30
0.000000
  70
    32
  0
VERTEX
  8
0
  5
677C
 10
648.375
 20
-23.3400
 30
0.000000
  70
    32
  0
VERTEX
  8
0
  5
677D
 10
648.413
 20
-23.2748
 30
0.000000
  70
    32
  0
VERTEX
  8
0
  5
677E
 10
648.450
 20
-23.2097
 30
0.000000
  70
    32
  0
VERTEX
  8
0
  5
677F
 10
648.488
 20
-23.1448
 30
0.000000
  70
    32
  0
VERTEX
  8
0
  5
6780
 10
648.525
 20
-23.0801
 30
0.000000
  70
    32
  0
VERTEX
  8
0
  5
6781
 10
648.562
 20
-23.0155
 30
0.000000
  70
    32
  0
VERTEX
  8
0
  5
6782
 10
648.599
 20
-22.9511
 30
0.000000
  70
    32
  0
VERTEX
  8
0
  5
6783
 10
648.636
 20
-22.8869
 30
0.000000
  70
    32
  0
VERTEX
  8
0
  5
6784
 10
648.673
 20
-22.8228
 30
0.000000
  70
    32
  0
VERTEX
  8
0
  5
6785
 10
648.710
 20
-22.7588
 30
0.000000
  70
    32
  0
VERTEX
  8
0
  5
6786
 10
648.747
 20
-22.6949
 30
0.000000
  70
    32
  0
VERTEX
  8
0
  5
6787
 10
648.784
 20
-22.6311
 30
0.000000
  70
    32
  0
VERTEX
  8
0
  5
6788
 10
648.821
 20
-22.5673
 30
0.000000
  70
    32
  0
VERTEX
  8
0
  5
6789
 10
648.858
 20
-22.5037
 30
0.000000
  70
    32
  0
VERTEX
  8
0
  5
678A
 10
648.894
 20
-22.4401
 30
0.000000
  70
    32
  0
VERTEX
  8
0
  5
678B
 10
648.931
 20
-22.3765
 30
0.000000
  70
    32
  0
VERTEX
  8
0
  5
678C
 10
648.968
 20
-22.3130
 30
0.000000
  70
    32
  0
VERTEX
  8
0
  5
678D
 10
649.004
 20
-22.2495
 30
0.000000
  70
    32
  0
VERTEX
  8
0
  5
678E
 10
649.041
 20
-22.1859
 30
0.000000
  70
    32
  0
VERTEX
  8
0
  5
678F
 10
649.078
 20
-22.1224
 30
0.000000
  70
    32
  0
VERTEX
  8
0
  5
6790
 10
649.115
 20
-22.0589
 30
0.000000
  70
    32
  0
VERTEX
  8
0
  5
6791
 10
649.151
 20
-21.9953
 30
0.000000
  70
    32
  0
VERTEX
  8
0
  5
6792
 10
649.188
 20
-21.9317
 30
0.000000
  70
    32
  0
VERTEX
  8
0
  5
6793
 10
649.225
 20
-21.8681
 30
0.000000
  70
    32
  0
VERTEX
  8
0
  5
6794
 10
649.261
 20
-21.8043
 30
0.000000
  70
    32
  0
VERTEX
  8
0
  5
6795
 10
649.298
 20
-21.7405
 30
0.000000
  70
    32
  0
VERTEX
  8
0
  5
6796
 10
649.335
 20
-21.6766
 30
0.000000
  70
    32
  0
VERTEX
  8
0
  5
6797
 10
649.372
 20
-21.6126
 30
0.000000
  70
    32
  0
VERTEX
  8
0
  5
6798
 10
649.409
 20
-21.5485
 30
0.000000
  70
    32
  0
VERTEX
  8
0
  5
6799
 10
649.446
 20
-21.4843
 30
0.000000
  70
    32
  0
VERTEX
  8
0
  5
679A
 10
649.483
 20
-21.4199
 30
0.000000
  70
    32
  0
VERTEX
  8
0
  5
679B
 10
649.521
 20
-21.3553
 30
0.000000
  70
    32
  0
VERTEX
  8
0
  5
679C
 10
649.558
 20
-21.2906
 30
0.000000
  70
    32
  0
VERTEX
  8
0
  5
679D
 10
649.596
 20
-21.2257
 30
0.000000
  70
    32
  0
VERTEX
  8
0
  5
679E
 10
649.633
 20
-21.1607
 30
0.000000
  70
    32
  0
VERTEX
  8
0
  5
679F
 10
649.671
 20
-21.0954
 30
0.000000
  70
    32
  0
VERTEX
  8
0
  5
67A0
 10
649.709
 20
-21.0299
 30
0.000000
  70
    32
  0
VERTEX
  8
0
  5
67A1
 10
649.747
 20
-20.9641
 30
0.000000
  70
    32
  0
VERTEX
  8
0
  5
67A2
 10
649.785
 20
-20.8981
 30
0.000000
  70
    32
  0
VERTEX
  8
0
  5
67A3
 10
649.823
 20
-20.8319
 30
0.000000
  70
    32
  0
VERTEX
  8
0
  5
67A4
 10
649.861
 20
-20.7654
 30
0.000000
  70
    32
  0
VERTEX
  8
0
  5
67A5
 10
649.900
 20
-20.6986
 30
0.000000
  70
    32
  0
VERTEX
  8
0
  5
67A6
 10
649.939
 20
-20.6314
 30
0.000000
  70
    32
  0
VERTEX
  8
0
  5
67A7
 10
649.978
 20
-20.5640
 30
0.000000
  70
    32
  0
VERTEX
  8
0
  5
67A8
 10
650.017
 20
-20.4963
 30
0.000000
  70
    32
  0
VERTEX
  8
0
  5
67A9
 10
650.056
 20
-20.4282
 30
0.000000
  70
    32
  0
VERTEX
  8
0
  5
67AA
 10
650.096
 20
-20.3597
 30
0.000000
  70
    32
  0
VERTEX
  8
0
  5
67AB
 10
650.135
 20
-20.2908
 30
0.000000
  70
    32
  0
VERTEX
  8
0
  5
67AC
 10
650.175
 20
-20.2216
 30
0.000000
  70
    32
  0
VERTEX
  8
0
  5
67AD
 10
650.215
 20
-20.1520
 30
0.000000
  70
    32
  0
VERTEX
  8
0
  5
67AE
 10
650.256
 20
-20.0819
 30
0.000000
  70
    32
  0
VERTEX
  8
0
  5
67AF
 10
650.297
 20
-20.0114
 30
0.000000
  70
    32
  0
VERTEX
  8
0
  5
67B0
 10
650.338
 20
-19.9404
 30
0.000000
  70
    32
  0
VERTEX
  8
0
  5
67B1
 10
650.379
 20
-19.8690
 30
0.000000
  70
    32
  0
VERTEX
  8
0
  5
67B2
 10
650.420
 20
-19.7970
 30
0.000000
  70
    32
  0
VERTEX
  8
0
  5
67B3
 10
650.462
 20
-19.7246
 30
0.000000
  70
    32
  0
VERTEX
  8
0
  5
67B4
 10
650.504
 20
-19.6516
 30
0.000000
  70
    32
  0
VERTEX
  8
0
  5
67B5
 10
650.547
 20
-19.5781
 30
0.000000
  70
    32
  0
VERTEX
  8
0
  5
67B6
 10
650.590
 20
-19.5040
 30
0.000000
  70
    32
  0
VERTEX
  8
0
  5
67B7
 10
650.633
 20
-19.4293
 30
0.000000
  70
    32
  0
VERTEX
  8
0
  5
67B8
 10
650.676
 20
-19.3540
 30
0.000000
  70
    32
  0
VERTEX
  8
0
  5
67B9
 10
650.720
 20
-19.2781
 30
0.000000
  70
    32
  0
VERTEX
  8
0
  5
67BA
 10
650.764
 20
-19.2015
 30
0.000000
  70
    32
  0
VERTEX
  8
0
  5
67BB
 10
650.809
 20
-19.1243
 30
0.000000
  70
    32
  0
VERTEX
  8
0
  5
67BC
 10
650.854
 20
-19.0463
 30
0.000000
  70
    32
  0
VERTEX
  8
0
  5
67BD
 10
650.899
 20
-18.9677
 30
0.000000
  70
    32
  0
SEQEND
  8
0
  5
67BE
  0
CIRCLE
  5
6292
  8
0
  6
VERDECKT
 62
     1
 10
654.6519951185636046
 20
-25.4677040982105112
 30
0.0
 40
4.9999400000001506
  0
ARC
  5
6293
  8
0
  6
VERDECKT
 62
     1
 10
654.6519951185636046
 20
-25.4677040982105716
 30
0.0
 40
3.9999999999999409
 50
258.7685065492731269
 51
270.0000000000001137
  0
ARC
  5
6294
  8
0
  6
VERDECKT
 62
     1
 10
654.6519951185636046
 20
-25.4677040982104899
 30
0.0
 40
3.9999999999999898
 50
78.7685065492730843
 51
101.2314934507268021
  0
ARC
  5
6295
  8
0
  6
VERDECKT
 62
     1
 10
654.6519951185636046
 20
-25.4677040982105396
 30
0.0
 40
3.999999999999968
 50
269.9999999999998863
 51
281.2314934507269868
  0
ENDBLK
  5
6297
  8
0
  0
BLOCK
  8
0
  2
A$C10B65BC9
 70
     0
 10
0.0
 20
0.0
 30
0.0
  3
A$C10B65BC9
  1

  0
POLYLINE
  8
0
  5
67BF
  62
3
  66
     1
 10
0.000000
 20
0.000000
 30
0.000000
  70
     8
  0
VERTEX
  8
0
  5
67C0
 10
650.899
 20
-1.21636
 30
3.00000e-16
  70
    32
  0
VERTEX
  8
0
  5
67C1
 10
650.854
 20
-1.23273
 30
3.02398e-16
  70
    32
  0
VERTEX
  8
0
  5
67C2
 10
650.809
 20
-1.24865
 30
3.04729e-16
  70
    32
  0
VERTEX
  8
0
  5
67C3
 10
650.764
 20
-1.26414
 30
3.06996e-16
  70
    32
  0
VERTEX
  8
0
  5
67C4
 10
650.720
 20
-1.27918
 30
3.09200e-16
  70
    32
  0
VERTEX
  8
0
  5
67C5
 10
650.676
 20
-1.29380
 30
3.11340e-16
  70
    32
  0
VERTEX
  8
0
  5
67C6
 10
650.633
 20
-1.30800
 30
3.13419e-16
  70
    32
  0
VERTEX
  8
0
  5
67C7
 10
650.590
 20
-1.32178
 30
3.15437e-16
  70
    32
  0
VERTEX
  8
0
  5
67C8
 10
650.547
 20
-1.33515
 30
3.17395e-16
  70
    32
  0
VERTEX
  8
0
  5
67C9
 10
650.504
 20
-1.34812
 30
3.19294e-16
  70
    32
  0
VERTEX
  8
0
  5
67CA
 10
650.462
 20
-1.36070
 30
3.21135e-16
  70
    32
  0
VERTEX
  8
0
  5
67CB
 10
650.420
 20
-1.37288
 30
3.22918e-16
  70
    32
  0
VERTEX
  8
0
  5
67CC
 10
650.379
 20
-1.38467
 30
3.24645e-16
  70
    32
  0
VERTEX
  8
0
  5
67CD
 10
650.338
 20
-1.39608
 30
3.26316e-16
  70
    32
  0
VERTEX
  8
0
  5
67CE
 10
650.297
 20
-1.40712
 30
3.27932e-16
  70
    32
  0
VERTEX
  8
0
  5
67CF
 10
650.256
 20
-1.41778
 30
3.29493e-16
  70
    32
  0
VERTEX
  8
0
  5
67D0
 10
650.215
 20
-1.42808
 30
3.31001e-16
  70
    32
  0
VERTEX
  8
0
  5
67D1
 10
650.175
 20
-1.43801
 30
3.32456e-16
  70
    32
  0
VERTEX
  8
0
  5
67D2
 10
650.135
 20
-1.44759
 30
3.33857e-16
  70
    32
  0
VERTEX
  8
0
  5
67D3
 10
650.096
 20
-1.45681
 30
3.35207e-16
  70
    32
  0
VERTEX
  8
0
  5
67D4
 10
650.056
 20
-1.46567
 30
3.36506e-16
  70
    32
  0
VERTEX
  8
0
  5
67D5
 10
650.017
 20
-1.47420
 30
3.37754e-16
  70
    32
  0
VERTEX
  8
0
  5
67D6
 10
649.978
 20
-1.48237
 30
3.38951e-16
  70
    32
  0
VERTEX
  8
0
  5
67D7
 10
649.939
 20
-1.49021
 30
3.40099e-16
  70
    32
  0
VERTEX
  8
0
  5
67D8
 10
649.900
 20
-1.49771
 30
3.41197e-16
  70
    32
  0
VERTEX
  8
0
  5
67D9
 10
649.861
 20
-1.50488
 30
3.42246e-16
  70
    32
  0
VERTEX
  8
0
  5
67DA
 10
649.823
 20
-1.51171
 30
3.43247e-16
  70
    32
  0
VERTEX
  8
0
  5
67DB
 10
649.785
 20
-1.51821
 30
3.44199e-16
  70
    32
  0
VERTEX
  8
0
  5
67DC
 10
649.747
 20
-1.52439
 30
3.45104e-16
  70
    32
  0
VERTEX
  8
0
  5
67DD
 10
649.709
 20
-1.53025
 30
3.45961e-16
  70
    32
  0
VERTEX
  8
0
  5
67DE
 10
649.671
 20
-1.53578
 30
3.46772e-16
  70
    32
  0
VERTEX
  8
0
  5
67DF
 10
649.633
 20
-1.54100
 30
3.47535e-16
  70
    32
  0
VERTEX
  8
0
  5
67E0
 10
649.596
 20
-1.54590
 30
3.48252e-16
  70
    32
  0
VERTEX
  8
0
  5
67E1
 10
649.558
 20
-1.55048
 30
3.48923e-16
  70
    32
  0
VERTEX
  8
0
  5
67E2
 10
649.521
 20
-1.55475
 30
3.49548e-16
  70
    32
  0
VERTEX
  8
0
  5
67E3
 10
649.483
 20
-1.55870
 30
3.50128e-16
  70
    32
  0
VERTEX
  8
0
  5
67E4
 10
649.446
 20
-1.56235
 30
3.50662e-16
  70
    32
  0
VERTEX
  8
0
  5
67E5
 10
649.409
 20
-1.56569
 30
3.51151e-16
  70
    32
  0
VERTEX
  8
0
  5
67E6
 10
649.372
 20
-1.56872
 30
3.51594e-16
  70
    32
  0
VERTEX
  8
0
  5
67E7
 10
649.335
 20
-1.57144
 30
3.51993e-16
  70
    32
  0
VERTEX
  8
0
  5
67E8
 10
649.298
 20
-1.57386
 30
3.52348e-16
  70
    32
  0
VERTEX
  8
0
  5
67E9
 10
649.261
 20
-1.57598
 30
3.52657e-16
  70
    32
  0
VERTEX
  8
0
  5
67EA
 10
649.225
 20
-1.57779
 30
3.52922e-16
  70
    32
  0
VERTEX
  8
0
  5
67EB
 10
649.188
 20
-1.57930
 30
3.53143e-16
  70
    32
  0
VERTEX
  8
0
  5
67EC
 10
649.151
 20
-1.58050
 30
3.53320e-16
  70
    32
  0
VERTEX
  8
0
  5
67ED
 10
649.115
 20
-1.58141
 30
3.53452e-16
  70
    32
  0
VERTEX
  8
0
  5
67EE
 10
649.078
 20
-1.58201
 30
3.53540e-16
  70
    32
  0
VERTEX
  8
0
  5
67EF
 10
649.041
 20
-1.58231
 30
3.53584e-16
  70
    32
  0
VERTEX
  8
0
  5
67F0
 10
649.004
 20
-1.58231
 30
3.53584e-16
  70
    32
  0
VERTEX
  8
0
  5
67F1
 10
648.968
 20
-1.58201
 30
3.53540e-16
  70
    32
  0
VERTEX
  8
0
  5
67F2
 10
648.931
 20
-1.58141
 30
3.53452e-16
  70
    32
  0
VERTEX
  8
0
  5
67F3
 10
648.894
 20
-1.58050
 30
3.53320e-16
  70
    32
  0
VERTEX
  8
0
  5
67F4
 10
648.858
 20
-1.57930
 30
3.53143e-16
  70
    32
  0
VERTEX
  8
0
  5
67F5
 10
648.821
 20
-1.57779
 30
3.52922e-16
  70
    32
  0
VERTEX
  8
0
  5
67F6
 10
648.784
 20
-1.57598
 30
3.52657e-16
  70
    32
  0
VERTEX
  8
0
  5
67F7
 10
648.747
 20
-1.57386
 30
3.52348e-16
  70
    32
  0
VERTEX
  8
0
  5
67F8
 10
648.710
 20
-1.57144
 30
3.51993e-16
  70
    32
  0
VERTEX
  8
0
  5
67F9
 10
648.673
 20
-1.56872
 30
3.51594e-16
  70
    32
  0
VERTEX
  8
0
  5
67FA
 10
648.636
 20
-1.56569
 30
3.51151e-16
  70
    32
  0
VERTEX
  8
0
  5
67FB
 10
648.599
 20
-1.56235
 30
3.50662e-16
  70
    32
  0
VERTEX
  8
0
  5
67FC
 10
648.562
 20
-1.55870
 30
3.50128e-16
  70
    32
  0
VERTEX
  8
0
  5
67FD
 10
648.525
 20
-1.55475
 30
3.49548e-16
  70
    32
  0
VERTEX
  8
0
  5
67FE
 10
648.488
 20
-1.55048
 30
3.48923e-16
  70
    32
  0
VERTEX
  8
0
  5
67FF
 10
648.450
 20
-1.54590
 30
3.48252e-16
  70
    32
  0
VERTEX
  8
0
  5
6800
 10
648.413
 20
-1.54100
 30
3.47535e-16
  70
    32
  0
VERTEX
  8
0
  5
6801
 10
648.375
 20
-1.53578
 30
3.46772e-16
  70
    32
  0
VERTEX
  8
0
  5
6802
 10
648.337
 20
-1.53025
 30
3.45961e-16
  70
    32
  0
VERTEX
  8
0
  5
6803
 10
648.299
 20
-1.52439
 30
3.45104e-16
  70
    32
  0
VERTEX
  8
0
  5
6804
 10
648.261
 20
-1.51821
 30
3.44199e-16
  70
    32
  0
VERTEX
  8
0
  5
6805
 10
648.223
 20
-1.51171
 30
3.43247e-16
  70
    32
  0
VERTEX
  8
0
  5
6806
 10
648.184
 20
-1.50488
 30
3.42246e-16
  70
    32
  0
VERTEX
  8
0
  5
6807
 10
648.146
 20
-1.49771
 30
3.41197e-16
  70
    32
  0
VERTEX
  8
0
  5
6808
 10
648.107
 20
-1.49021
 30
3.40099e-16
  70
    32
  0
VERTEX
  8
0
  5
6809
 10
648.068
 20
-1.48237
 30
3.38951e-16
  70
    32
  0
VERTEX
  8
0
  5
680A
 10
648.029
 20
-1.47420
 30
3.37754e-16
  70
    32
  0
VERTEX
  8
0
  5
680B
 10
647.990
 20
-1.46567
 30
3.36506e-16
  70
    32
  0
VERTEX
  8
0
  5
680C
 10
647.950
 20
-1.45681
 30
3.35207e-16
  70
    32
  0
VERTEX
  8
0
  5
680D
 10
647.910
 20
-1.44759
 30
3.33857e-16
  70
    32
  0
VERTEX
  8
0
  5
680E
 10
647.870
 20
-1.43801
 30
3.32456e-16
  70
    32
  0
VERTEX
  8
0
  5
680F
 10
647.830
 20
-1.42808
 30
3.31001e-16
  70
    32
  0
VERTEX
  8
0
  5
6810
 10
647.790
 20
-1.41778
 30
3.29493e-16
  70
    32
  0
VERTEX
  8
0
  5
6811
 10
647.749
 20
-1.40712
 30
3.27932e-16
  70
    32
  0
VERTEX
  8
0
  5
6812
 10
647.708
 20
-1.39608
 30
3.26316e-16
  70
    32
  0
VERTEX
  8
0
  5
6813
 10
647.667
 20
-1.38467
 30
3.24645e-16
  70
    32
  0
VERTEX
  8
0
  5
6814
 10
647.625
 20
-1.37288
 30
3.22918e-16
  70
    32
  0
VERTEX
  8
0
  5
6815
 10
647.583
 20
-1.36070
 30
3.21135e-16
  70
    32
  0
VERTEX
  8
0
  5
6816
 10
647.541
 20
-1.34812
 30
3.19294e-16
  70
    32
  0
VERTEX
  8
0
  5
6817
 10
647.499
 20
-1.33515
 30
3.17395e-16
  70
    32
  0
VERTEX
  8
0
  5
6818
 10
647.456
 20
-1.32178
 30
3.15437e-16
  70
    32
  0
VERTEX
  8
0
  5
6819
 10
647.413
 20
-1.30800
 30
3.13419e-16
  70
    32
  0
VERTEX
  8
0
  5
681A
 10
647.369
 20
-1.29380
 30
3.11340e-16
  70
    32
  0
VERTEX
  8
0
  5
681B
 10
647.326
 20
-1.27918
 30
3.09200e-16
  70
    32
  0
VERTEX
  8
0
  5
681C
 10
647.281
 20
-1.26414
 30
3.06996e-16
  70
    32
  0
VERTEX
  8
0
  5
681D
 10
647.237
 20
-1.24865
 30
3.04729e-16
  70
    32
  0
VERTEX
  8
0
  5
681E
 10
647.192
 20
-1.23273
 30
3.02398e-16
  70
    32
  0
VERTEX
  8
0
  5
681F
 10
647.146
 20
-1.21636
 30
3.00000e-16
  70
    32
  0
SEQEND
  8
0
  5
6820
  0
LINE
  5
629C
  8
0
  6
CONTINUOUS
 62
     3
 10
647.1464416190991642
 20
-7.4010583512594517
 30
0.0000000000000016
 11
647.1464416190991642
 21
-1.2163556534979421
 31
0.0000000000000003
210
0.0
220
1.0
230
-0.0000000000000002
  0
POLYLINE
  8
0
  5
6821
  62
3
  66
     1
 10
0.000000
 20
0.000000
 30
0.000000
  70
     8
  0
VERTEX
  8
0
  5
6822
 10
649.023
 20
-7.67050
 30
1.70000e-15
  70
    32
  0
VERTEX
  8
0
  5
6823
 10
649.004
 20
-7.67047
 30
1.69999e-15
  70
    32
  0
VERTEX
  8
0
  5
6824
 10
648.985
 20
-7.67038
 30
1.69996e-15
  70
    32
  0
VERTEX
  8
0
  5
6825
 10
648.966
 20
-7.67023
 30
1.69990e-15
  70
    32
  0
VERTEX
  8
0
  5
6826
 10
648.947
 20
-7.67002
 30
1.69982e-15
  70
    32
  0
VERTEX
  8
0
  5
6827
 10
648.928
 20
-7.66975
 30
1.69972e-15
  70
    32
  0
VERTEX
  8
0
  5
6828
 10
648.909
 20
-7.66943
 30
1.69960e-15
  70
    32
  0
VERTEX
  8
0
  5
6829
 10
648.890
 20
-7.66904
 30
1.69946e-15
  70
    32
  0
VERTEX
  8
0
  5
682A
 10
648.871
 20
-7.66860
 30
1.69929e-15
  70
    32
  0
VERTEX
  8
0
  5
682B
 10
648.852
 20
-7.66809
 30
1.69911e-15
  70
    32
  0
VERTEX
  8
0
  5
682C
 10
648.833
 20
-7.66753
 30
1.69890e-15
  70
    32
  0
VERTEX
  8
0
  5
682D
 10
648.814
 20
-7.66691
 30
1.69867e-15
  70
    32
  0
VERTEX
  8
0
  5
682E
 10
648.795
 20
-7.66623
 30
1.69842e-15
  70
    32
  0
VERTEX
  8
0
  5
682F
 10
648.776
 20
-7.66550
 30
1.69814e-15
  70
    32
  0
VERTEX
  8
0
  5
6830
 10
648.757
 20
-7.66470
 30
1.69785e-15
  70
    32
  0
VERTEX
  8
0
  5
6831
 10
648.739
 20
-7.66385
 30
1.69753e-15
  70
    32
  0
VERTEX
  8
0
  5
6832
 10
648.720
 20
-7.66293
 30
1.69719e-15
  70
    32
  0
VERTEX
  8
0
  5
6833
 10
648.701
 20
-7.66196
 30
1.69683e-15
  70
    32
  0
VERTEX
  8
0
  5
6834
 10
648.682
 20
-7.66093
 30
1.69645e-15
  70
    32
  0
VERTEX
  8
0
  5
6835
 10
648.663
 20
-7.65985
 30
1.69605e-15
  70
    32
  0
VERTEX
  8
0
  5
6836
 10
648.644
 20
-7.65870
 30
1.69562e-15
  70
    32
  0
VERTEX
  8
0
  5
6837
 10
648.625
 20
-7.65750
 30
1.69518e-15
  70
    32
  0
VERTEX
  8
0
  5
6838
 10
648.606
 20
-7.65624
 30
1.69471e-15
  70
    32
  0
VERTEX
  8
0
  5
6839
 10
648.587
 20
-7.65492
 30
1.69422e-15
  70
    32
  0
VERTEX
  8
0
  5
683A
 10
648.568
 20
-7.65354
 30
1.69371e-15
  70
    32
  0
VERTEX
  8
0
  5
683B
 10
648.549
 20
-7.65211
 30
1.69318e-15
  70
    32
  0
VERTEX
  8
0
  5
683C
 10
648.530
 20
-7.65061
 30
1.69262e-15
  70
    32
  0
VERTEX
  8
0
  5
683D
 10
648.511
 20
-7.64906
 30
1.69205e-15
  70
    32
  0
VERTEX
  8
0
  5
683E
 10
648.492
 20
-7.64745
 30
1.69145e-15
  70
    32
  0
VERTEX
  8
0
  5
683F
 10
648.473
 20
-7.64579
 30
1.69083e-15
  70
    32
  0
VERTEX
  8
0
  5
6840
 10
648.454
 20
-7.64406
 30
1.69019e-15
  70
    32
  0
VERTEX
  8
0
  5
6841
 10
648.435
 20
-7.64228
 30
1.68953e-15
  70
    32
  0
VERTEX
  8
0
  5
6842
 10
648.416
 20
-7.64043
 30
1.68884e-15
  70
    32
  0
VERTEX
  8
0
  5
6843
 10
648.397
 20
-7.63853
 30
1.68814e-15
  70
    32
  0
VERTEX
  8
0
  5
6844
 10
648.378
 20
-7.63658
 30
1.68741e-15
  70
    32
  0
VERTEX
  8
0
  5
6845
 10
648.359
 20
-7.63456
 30
1.68666e-15
  70
    32
  0
VERTEX
  8
0
  5
6846
 10
648.340
 20
-7.63248
 30
1.68589e-15
  70
    32
  0
VERTEX
  8
0
  5
6847
 10
648.321
 20
-7.63035
 30
1.68510e-15
  70
    32
  0
VERTEX
  8
0
  5
6848
 10
648.302
 20
-7.62816
 30
1.68429e-15
  70
    32
  0
VERTEX
  8
0
  5
6849
 10
648.283
 20
-7.62591
 30
1.68345e-15
  70
    32
  0
VERTEX
  8
0
  5
684A
 10
648.264
 20
-7.62360
 30
1.68259e-15
  70
    32
  0
VERTEX
  8
0
  5
684B
 10
648.244
 20
-7.62123
 30
1.68171e-15
  70
    32
  0
VERTEX
  8
0
  5
684C
 10
648.225
 20
-7.61880
 30
1.68081e-15
  70
    32
  0
VERTEX
  8
0
  5
684D
 10
648.206
 20
-7.61631
 30
1.67989e-15
  70
    32
  0
VERTEX
  8
0
  5
684E
 10
648.187
 20
-7.61377
 30
1.67895e-15
  70
    32
  0
VERTEX
  8
0
  5
684F
 10
648.167
 20
-7.61116
 30
1.67798e-15
  70
    32
  0
VERTEX
  8
0
  5
6850
 10
648.148
 20
-7.60850
 30
1.67699e-15
  70
    32
  0
VERTEX
  8
0
  5
6851
 10
648.129
 20
-7.60578
 30
1.67598e-15
  70
    32
  0
VERTEX
  8
0
  5
6852
 10
648.109
 20
-7.60299
 30
1.67495e-15
  70
    32
  0
VERTEX
  8
0
  5
6853
 10
648.090
 20
-7.60015
 30
1.67389e-15
  70
    32
  0
VERTEX
  8
0
  5
6854
 10
648.070
 20
-7.59725
 30
1.67281e-15
  70
    32
  0
VERTEX
  8
0
  5
6855
 10
648.051
 20
-7.59428
 30
1.67171e-15
  70
    32
  0
VERTEX
  8
0
  5
6856
 10
648.031
 20
-7.59126
 30
1.67059e-15
  70
    32
  0
VERTEX
  8
0
  5
6857
 10
648.012
 20
-7.58818
 30
1.66945e-15
  70
    32
  0
VERTEX
  8
0
  5
6858
 10
647.992
 20
-7.58503
 30
1.66828e-15
  70
    32
  0
VERTEX
  8
0
  5
6859
 10
647.973
 20
-7.58183
 30
1.66709e-15
  70
    32
  0
VERTEX
  8
0
  5
685A
 10
647.953
 20
-7.57856
 30
1.66588e-15
  70
    32
  0
VERTEX
  8
0
  5
685B
 10
647.933
 20
-7.57523
 30
1.66464e-15
  70
    32
  0
VERTEX
  8
0
  5
685C
 10
647.914
 20
-7.57185
 30
1.66339e-15
  70
    32
  0
VERTEX
  8
0
  5
685D
 10
647.894
 20
-7.56840
 30
1.66211e-15
  70
    32
  0
VERTEX
  8
0
  5
685E
 10
647.874
 20
-7.56488
 30
1.66080e-15
  70
    32
  0
VERTEX
  8
0
  5
685F
 10
647.854
 20
-7.56131
 30
1.65948e-15
  70
    32
  0
VERTEX
  8
0
  5
6860
 10
647.834
 20
-7.55768
 30
1.65813e-15
  70
    32
  0
VERTEX
  8
0
  5
6861
 10
647.814
 20
-7.55398
 30
1.65676e-15
  70
    32
  0
VERTEX
  8
0
  5
6862
 10
647.794
 20
-7.55022
 30
1.65536e-15
  70
    32
  0
VERTEX
  8
0
  5
6863
 10
647.774
 20
-7.54640
 30
1.65394e-15
  70
    32
  0
VERTEX
  8
0
  5
6864
 10
647.754
 20
-7.54251
 30
1.65250e-15
  70
    32
  0
VERTEX
  8
0
  5
6865
 10
647.734
 20
-7.53856
 30
1.65103e-15
  70
    32
  0
VERTEX
  8
0
  5
6866
 10
647.714
 20
-7.53455
 30
1.64954e-15
  70
    32
  0
VERTEX
  8
0
  5
6867
 10
647.694
 20
-7.53047
 30
1.64803e-15
  70
    32
  0
VERTEX
  8
0
  5
6868
 10
647.673
 20
-7.52633
 30
1.64649e-15
  70
    32
  0
VERTEX
  8
0
  5
6869
 10
647.653
 20
-7.52213
 30
1.64493e-15
  70
    32
  0
VERTEX
  8
0
  5
686A
 10
647.633
 20
-7.51786
 30
1.64335e-15
  70
    32
  0
VERTEX
  8
0
  5
686B
 10
647.612
 20
-7.51352
 30
1.64174e-15
  70
    32
  0
VERTEX
  8
0
  5
686C
 10
647.592
 20
-7.50912
 30
1.64011e-15
  70
    32
  0
VERTEX
  8
0
  5
686D
 10
647.571
 20
-7.50466
 30
1.63845e-15
  70
    32
  0
VERTEX
  8
0
  5
686E
 10
647.551
 20
-7.50013
 30
1.63677e-15
  70
    32
  0
VERTEX
  8
0
  5
686F
 10
647.530
 20
-7.49553
 30
1.63506e-15
  70
    32
  0
VERTEX
  8
0
  5
6870
 10
647.509
 20
-7.49086
 30
1.63333e-15
  70
    32
  0
VERTEX
  8
0
  5
6871
 10
647.488
 20
-7.48613
 30
1.63158e-15
  70
    32
  0
VERTEX
  8
0
  5
6872
 10
647.468
 20
-7.48134
 30
1.62979e-15
  70
    32
  0
VERTEX
  8
0
  5
6873
 10
647.447
 20
-7.47647
 30
1.62799e-15
  70
    32
  0
VERTEX
  8
0
  5
6874
 10
647.426
 20
-7.47154
 30
1.62616e-15
  70
    32
  0
VERTEX
  8
0
  5
6875
 10
647.405
 20
-7.46654
 30
1.62430e-15
  70
    32
  0
VERTEX
  8
0
  5
6876
 10
647.383
 20
-7.46147
 30
1.62242e-15
  70
    32
  0
VERTEX
  8
0
  5
6877
 10
647.362
 20
-7.45633
 30
1.62051e-15
  70
    32
  0
VERTEX
  8
0
  5
6878
 10
647.341
 20
-7.45112
 30
1.61858e-15
  70
    32
  0
VERTEX
  8
0
  5
6879
 10
647.320
 20
-7.44584
 30
1.61662e-15
  70
    32
  0
VERTEX
  8
0
  5
687A
 10
647.298
 20
-7.44049
 30
1.61464e-15
  70
    32
  0
VERTEX
  8
0
  5
687B
 10
647.277
 20
-7.43508
 30
1.61263e-15
  70
    32
  0
VERTEX
  8
0
  5
687C
 10
647.255
 20
-7.42959
 30
1.61059e-15
  70
    32
  0
VERTEX
  8
0
  5
687D
 10
647.234
 20
-7.42402
 30
1.60852e-15
  70
    32
  0
VERTEX
  8
0
  5
687E
 10
647.212
 20
-7.41839
 30
1.60643e-15
  70
    32
  0
VERTEX
  8
0
  5
687F
 10
647.190
 20
-7.41269
 30
1.60432e-15
  70
    32
  0
VERTEX
  8
0
  5
6880
 10
647.168
 20
-7.40691
 30
1.60217e-15
  70
    32
  0
VERTEX
  8
0
  5
6881
 10
647.146
 20
-7.40106
 30
1.60000e-15
  70
    32
  0
SEQEND
  8
0
  5
6882
  0
POLYLINE
  8
0
  5
6883
  62
3
  66
     1
 10
0.000000
 20
0.000000
 30
0.000000
  70
     8
  0
VERTEX
  8
0
  5
6884
 10
650.899
 20
-7.40106
 30
1.60000e-15
  70
    32
  0
VERTEX
  8
0
  5
6885
 10
650.877
 20
-7.40691
 30
1.60217e-15
  70
    32
  0
VERTEX
  8
0
  5
6886
 10
650.855
 20
-7.41269
 30
1.60432e-15
  70
    32
  0
VERTEX
  8
0
  5
6887
 10
650.834
 20
-7.41839
 30
1.60643e-15
  70
    32
  0
VERTEX
  8
0
  5
6888
 10
650.812
 20
-7.42402
 30
1.60852e-15
  70
    32
  0
VERTEX
  8
0
  5
6889
 10
650.790
 20
-7.42959
 30
1.61059e-15
  70
    32
  0
VERTEX
  8
0
  5
688A
 10
650.769
 20
-7.43508
 30
1.61263e-15
  70
    32
  0
VERTEX
  8
0
  5
688B
 10
650.747
 20
-7.44049
 30
1.61464e-15
  70
    32
  0
VERTEX
  8
0
  5
688C
 10
650.726
 20
-7.44584
 30
1.61662e-15
  70
    32
  0
VERTEX
  8
0
  5
688D
 10
650.705
 20
-7.45112
 30
1.61858e-15
  70
    32
  0
VERTEX
  8
0
  5
688E
 10
650.683
 20
-7.45633
 30
1.62051e-15
  70
    32
  0
VERTEX
  8
0
  5
688F
 10
650.662
 20
-7.46147
 30
1.62242e-15
  70
    32
  0
VERTEX
  8
0
  5
6890
 10
650.641
 20
-7.46654
 30
1.62430e-15
  70
    32
  0
VERTEX
  8
0
  5
6891
 10
650.620
 20
-7.47154
 30
1.62616e-15
  70
    32
  0
VERTEX
  8
0
  5
6892
 10
650.599
 20
-7.47647
 30
1.62799e-15
  70
    32
  0
VERTEX
  8
0
  5
6893
 10
650.578
 20
-7.48134
 30
1.62979e-15
  70
    32
  0
VERTEX
  8
0
  5
6894
 10
650.557
 20
-7.48613
 30
1.63158e-15
  70
    32
  0
VERTEX
  8
0
  5
6895
 10
650.536
 20
-7.49086
 30
1.63333e-15
  70
    32
  0
VERTEX
  8
0
  5
6896
 10
650.516
 20
-7.49553
 30
1.63506e-15
  70
    32
  0
VERTEX
  8
0
  5
6897
 10
650.495
 20
-7.50013
 30
1.63677e-15
  70
    32
  0
VERTEX
  8
0
  5
6898
 10
650.474
 20
-7.50466
 30
1.63845e-15
  70
    32
  0
VERTEX
  8
0
  5
6899
 10
650.454
 20
-7.50912
 30
1.64011e-15
  70
    32
  0
VERTEX
  8
0
  5
689A
 10
650.433
 20
-7.51352
 30
1.64174e-15
  70
    32
  0
VERTEX
  8
0
  5
689B
 10
650.413
 20
-7.51786
 30
1.64335e-15
  70
    32
  0
VERTEX
  8
0
  5
689C
 10
650.393
 20
-7.52213
 30
1.64493e-15
  70
    32
  0
VERTEX
  8
0
  5
689D
 10
650.372
 20
-7.52633
 30
1.64649e-15
  70
    32
  0
VERTEX
  8
0
  5
689E
 10
650.352
 20
-7.53047
 30
1.64803e-15
  70
    32
  0
VERTEX
  8
0
  5
689F
 10
650.332
 20
-7.53455
 30
1.64954e-15
  70
    32
  0
VERTEX
  8
0
  5
68A0
 10
650.312
 20
-7.53856
 30
1.65103e-15
  70
    32
  0
VERTEX
  8
0
  5
68A1
 10
650.291
 20
-7.54251
 30
1.65250e-15
  70
    32
  0
VERTEX
  8
0
  5
68A2
 10
650.271
 20
-7.54640
 30
1.65394e-15
  70
    32
  0
VERTEX
  8
0
  5
68A3
 10
650.251
 20
-7.55022
 30
1.65536e-15
  70
    32
  0
VERTEX
  8
0
  5
68A4
 10
650.231
 20
-7.55398
 30
1.65676e-15
  70
    32
  0
VERTEX
  8
0
  5
68A5
 10
650.211
 20
-7.55768
 30
1.65813e-15
  70
    32
  0
VERTEX
  8
0
  5
68A6
 10
650.192
 20
-7.56131
 30
1.65948e-15
  70
    32
  0
VERTEX
  8
0
  5
68A7
 10
650.172
 20
-7.56488
 30
1.66080e-15
  70
    32
  0
VERTEX
  8
0
  5
68A8
 10
650.152
 20
-7.56840
 30
1.66211e-15
  70
    32
  0
VERTEX
  8
0
  5
68A9
 10
650.132
 20
-7.57185
 30
1.66339e-15
  70
    32
  0
VERTEX
  8
0
  5
68AA
 10
650.112
 20
-7.57523
 30
1.66464e-15
  70
    32
  0
VERTEX
  8
0
  5
68AB
 10
650.093
 20
-7.57856
 30
1.66588e-15
  70
    32
  0
VERTEX
  8
0
  5
68AC
 10
650.073
 20
-7.58183
 30
1.66709e-15
  70
    32
  0
VERTEX
  8
0
  5
68AD
 10
650.053
 20
-7.58503
 30
1.66828e-15
  70
    32
  0
VERTEX
  8
0
  5
68AE
 10
650.034
 20
-7.58818
 30
1.66945e-15
  70
    32
  0
VERTEX
  8
0
  5
68AF
 10
650.014
 20
-7.59126
 30
1.67059e-15
  70
    32
  0
VERTEX
  8
0
  5
68B0
 10
649.995
 20
-7.59428
 30
1.67171e-15
  70
    32
  0
VERTEX
  8
0
  5
68B1
 10
649.975
 20
-7.59725
 30
1.67281e-15
  70
    32
  0
VERTEX
  8
0
  5
68B2
 10
649.956
 20
-7.60015
 30
1.67389e-15
  70
    32
  0
VERTEX
  8
0
  5
68B3
 10
649.936
 20
-7.60299
 30
1.67495e-15
  70
    32
  0
VERTEX
  8
0
  5
68B4
 10
649.917
 20
-7.60578
 30
1.67598e-15
  70
    32
  0
VERTEX
  8
0
  5
68B5
 10
649.898
 20
-7.60850
 30
1.67699e-15
  70
    32
  0
VERTEX
  8
0
  5
68B6
 10
649.878
 20
-7.61116
 30
1.67798e-15
  70
    32
  0
VERTEX
  8
0
  5
68B7
 10
649.859
 20
-7.61377
 30
1.67895e-15
  70
    32
  0
VERTEX
  8
0
  5
68B8
 10
649.840
 20
-7.61631
 30
1.67989e-15
  70
    32
  0
VERTEX
  8
0
  5
68B9
 10
649.821
 20
-7.61880
 30
1.68081e-15
  70
    32
  0
VERTEX
  8
0
  5
68BA
 10
649.801
 20
-7.62123
 30
1.68171e-15
  70
    32
  0
VERTEX
  8
0
  5
68BB
 10
649.782
 20
-7.62360
 30
1.68259e-15
  70
    32
  0
VERTEX
  8
0
  5
68BC
 10
649.763
 20
-7.62591
 30
1.68345e-15
  70
    32
  0
VERTEX
  8
0
  5
68BD
 10
649.744
 20
-7.62816
 30
1.68429e-15
  70
    32
  0
VERTEX
  8
0
  5
68BE
 10
649.725
 20
-7.63035
 30
1.68510e-15
  70
    32
  0
VERTEX
  8
0
  5
68BF
 10
649.706
 20
-7.63248
 30
1.68589e-15
  70
    32
  0
VERTEX
  8
0
  5
68C0
 10
649.686
 20
-7.63456
 30
1.68666e-15
  70
    32
  0
VERTEX
  8
0
  5
68C1
 10
649.667
 20
-7.63658
 30
1.68741e-15
  70
    32
  0
VERTEX
  8
0
  5
68C2
 10
649.648
 20
-7.63853
 30
1.68814e-15
  70
    32
  0
VERTEX
  8
0
  5
68C3
 10
649.629
 20
-7.64043
 30
1.68884e-15
  70
    32
  0
VERTEX
  8
0
  5
68C4
 10
649.610
 20
-7.64228
 30
1.68953e-15
  70
    32
  0
VERTEX
  8
0
  5
68C5
 10
649.591
 20
-7.64406
 30
1.69019e-15
  70
    32
  0
VERTEX
  8
0
  5
68C6
 10
649.572
 20
-7.64579
 30
1.69083e-15
  70
    32
  0
VERTEX
  8
0
  5
68C7
 10
649.553
 20
-7.64745
 30
1.69145e-15
  70
    32
  0
VERTEX
  8
0
  5
68C8
 10
649.534
 20
-7.64906
 30
1.69205e-15
  70
    32
  0
VERTEX
  8
0
  5
68C9
 10
649.515
 20
-7.65061
 30
1.69262e-15
  70
    32
  0
VERTEX
  8
0
  5
68CA
 10
649.496
 20
-7.65211
 30
1.69318e-15
  70
    32
  0
VERTEX
  8
0
  5
68CB
 10
649.477
 20
-7.65354
 30
1.69371e-15
  70
    32
  0
VERTEX
  8
0
  5
68CC
 10
649.458
 20
-7.65492
 30
1.69422e-15
  70
    32
  0
VERTEX
  8
0
  5
68CD
 10
649.440
 20
-7.65624
 30
1.69471e-15
  70
    32
  0
VERTEX
  8
0
  5
68CE
 10
649.421
 20
-7.65750
 30
1.69518e-15
  70
    32
  0
VERTEX
  8
0
  5
68CF
 10
649.402
 20
-7.65870
 30
1.69562e-15
  70
    32
  0
VERTEX
  8
0
  5
68D0
 10
649.383
 20
-7.65985
 30
1.69605e-15
  70
    32
  0
VERTEX
  8
0
  5
68D1
 10
649.364
 20
-7.66093
 30
1.69645e-15
  70
    32
  0
VERTEX
  8
0
  5
68D2
 10
649.345
 20
-7.66196
 30
1.69683e-15
  70
    32
  0
VERTEX
  8
0
  5
68D3
 10
649.326
 20
-7.66293
 30
1.69719e-15
  70
    32
  0
VERTEX
  8
0
  5
68D4
 10
649.307
 20
-7.66385
 30
1.69753e-15
  70
    32
  0
VERTEX
  8
0
  5
68D5
 10
649.288
 20
-7.66470
 30
1.69785e-15
  70
    32
  0
VERTEX
  8
0
  5
68D6
 10
649.269
 20
-7.66550
 30
1.69814e-15
  70
    32
  0
VERTEX
  8
0
  5
68D7
 10
649.250
 20
-7.66623
 30
1.69842e-15
  70
    32
  0
VERTEX
  8
0
  5
68D8
 10
649.231
 20
-7.66691
 30
1.69867e-15
  70
    32
  0
VERTEX
  8
0
  5
68D9
 10
649.213
 20
-7.66753
 30
1.69890e-15
  70
    32
  0
VERTEX
  8
0
  5
68DA
 10
649.194
 20
-7.66809
 30
1.69911e-15
  70
    32
  0
VERTEX
  8
0
  5
68DB
 10
649.175
 20
-7.66860
 30
1.69929e-15
  70
    32
  0
VERTEX
  8
0
  5
68DC
 10
649.156
 20
-7.66904
 30
1.69946e-15
  70
    32
  0
VERTEX
  8
0
  5
68DD
 10
649.137
 20
-7.66943
 30
1.69960e-15
  70
    32
  0
VERTEX
  8
0
  5
68DE
 10
649.118
 20
-7.66975
 30
1.69972e-15
  70
    32
  0
VERTEX
  8
0
  5
68DF
 10
649.099
 20
-7.67002
 30
1.69982e-15
  70
    32
  0
VERTEX
  8
0
  5
68E0
 10
649.080
 20
-7.67023
 30
1.69990e-15
  70
    32
  0
VERTEX
  8
0
  5
68E1
 10
649.061
 20
-7.67038
 30
1.69996e-15
  70
    32
  0
VERTEX
  8
0
  5
68E2
 10
649.042
 20
-7.67047
 30
1.69999e-15
  70
    32
  0
VERTEX
  8
0
  5
68E3
 10
649.023
 20
-7.67050
 30
1.70000e-15
  70
    32
  0
SEQEND
  8
0
  5
68E4
  0
LINE
  5
629F
  8
0
  6
CONTINUOUS
 62
     3
 10
650.8992183688333171
 20
-7.401058351259338
 30
0.0000000000000016
 11
650.8992183688333171
 21
-1.216355653497885
 31
0.0000000000000003
210
0.0
220
1.0
230
-0.0000000000000002
  0
POLYLINE
  8
0
  5
68E5
  62
3
  66
     1
 10
0.000000
 20
0.000000
 30
0.000000
  70
     8
  0
VERTEX
  8
0
  5
68E6
 10
658.405
 20
-1.21636
 30
3.00000e-16
  70
    32
  0
VERTEX
  8
0
  5
68E7
 10
658.314
 20
-1.23273
 30
3.02398e-16
  70
    32
  0
VERTEX
  8
0
  5
68E8
 10
658.224
 20
-1.24865
 30
3.04729e-16
  70
    32
  0
VERTEX
  8
0
  5
68E9
 10
658.135
 20
-1.26414
 30
3.06996e-16
  70
    32
  0
VERTEX
  8
0
  5
68EA
 10
658.046
 20
-1.27918
 30
3.09200e-16
  70
    32
  0
VERTEX
  8
0
  5
68EB
 10
657.959
 20
-1.29380
 30
3.11340e-16
  70
    32
  0
VERTEX
  8
0
  5
68EC
 10
657.872
 20
-1.30800
 30
3.13419e-16
  70
    32
  0
VERTEX
  8
0
  5
68ED
 10
657.786
 20
-1.32178
 30
3.15437e-16
  70
    32
  0
VERTEX
  8
0
  5
68EE
 10
657.700
 20
-1.33515
 30
3.17395e-16
  70
    32
  0
VERTEX
  8
0
  5
68EF
 10
657.615
 20
-1.34812
 30
3.19294e-16
  70
    32
  0
VERTEX
  8
0
  5
68F0
 10
657.531
 20
-1.36070
 30
3.21135e-16
  70
    32
  0
VERTEX
  8
0
  5
68F1
 10
657.447
 20
-1.37288
 30
3.22918e-16
  70
    32
  0
VERTEX
  8
0
  5
68F2
 10
657.364
 20
-1.38467
 30
3.24645e-16
  70
    32
  0
VERTEX
  8
0
  5
68F3
 10
657.282
 20
-1.39608
 30
3.26316e-16
  70
    32
  0
VERTEX
  8
0
  5
68F4
 10
657.200
 20
-1.40712
 30
3.27932e-16
  70
    32
  0
VERTEX
  8
0
  5
68F5
 10
657.118
 20
-1.41778
 30
3.29493e-16
  70
    32
  0
VERTEX
  8
0
  5
68F6
 10
657.037
 20
-1.42808
 30
3.31001e-16
  70
    32
  0
VERTEX
  8
0
  5
68F7
 10
656.957
 20
-1.43801
 30
3.32456e-16
  70
    32
  0
VERTEX
  8
0
  5
68F8
 10
656.877
 20
-1.44759
 30
3.33857e-16
  70
    32
  0
VERTEX
  8
0
  5
68F9
 10
656.797
 20
-1.45681
 30
3.35207e-16
  70
    32
  0
VERTEX
  8
0
  5
68FA
 10
656.718
 20
-1.46567
 30
3.36506e-16
  70
    32
  0
VERTEX
  8
0
  5
68FB
 10
656.640
 20
-1.47420
 30
3.37754e-16
  70
    32
  0
VERTEX
  8
0
  5
68FC
 10
656.562
 20
-1.48237
 30
3.38951e-16
  70
    32
  0
VERTEX
  8
0
  5
68FD
 10
656.484
 20
-1.49021
 30
3.40099e-16
  70
    32
  0
VERTEX
  8
0
  5
68FE
 10
656.406
 20
-1.49771
 30
3.41197e-16
  70
    32
  0
VERTEX
  8
0
  5
68FF
 10
656.329
 20
-1.50488
 30
3.42246e-16
  70
    32
  0
VERTEX
  8
0
  5
6900
 10
656.252
 20
-1.51171
 30
3.43247e-16
  70
    32
  0
VERTEX
  8
0
  5
6901
 10
656.176
 20
-1.51821
 30
3.44199e-16
  70
    32
  0
VERTEX
  8
0
  5
6902
 10
656.100
 20
-1.52439
 30
3.45104e-16
  70
    32
  0
VERTEX
  8
0
  5
6903
 10
656.024
 20
-1.53025
 30
3.45961e-16
  70
    32
  0
VERTEX
  8
0
  5
6904
 10
655.948
 20
-1.53578
 30
3.46772e-16
  70
    32
  0
VERTEX
  8
0
  5
6905
 10
655.873
 20
-1.54100
 30
3.47535e-16
  70
    32
  0
VERTEX
  8
0
  5
6906
 10
655.797
 20
-1.54590
 30
3.48252e-16
  70
    32
  0
VERTEX
  8
0
  5
6907
 10
655.722
 20
-1.55048
 30
3.48923e-16
  70
    32
  0
VERTEX
  8
0
  5
6908
 10
655.648
 20
-1.55475
 30
3.49548e-16
  70
    32
  0
VERTEX
  8
0
  5
6909
 10
655.573
 20
-1.55870
 30
3.50128e-16
  70
    32
  0
VERTEX
  8
0
  5
690A
 10
655.499
 20
-1.56235
 30
3.50662e-16
  70
    32
  0
VERTEX
  8
0
  5
690B
 10
655.425
 20
-1.56569
 30
3.51151e-16
  70
    32
  0
VERTEX
  8
0
  5
690C
 10
655.351
 20
-1.56872
 30
3.51594e-16
  70
    32
  0
VERTEX
  8
0
  5
690D
 10
655.277
 20
-1.57144
 30
3.51993e-16
  70
    32
  0
VERTEX
  8
0
  5
690E
 10
655.203
 20
-1.57386
 30
3.52348e-16
  70
    32
  0
VERTEX
  8
0
  5
690F
 10
655.129
 20
-1.57598
 30
3.52657e-16
  70
    32
  0
VERTEX
  8
0
  5
6910
 10
655.056
 20
-1.57779
 30
3.52922e-16
  70
    32
  0
VERTEX
  8
0
  5
6911
 10
654.982
 20
-1.57930
 30
3.53143e-16
  70
    32
  0
VERTEX
  8
0
  5
6912
 10
654.909
 20
-1.58050
 30
3.53320e-16
  70
    32
  0
VERTEX
  8
0
  5
6913
 10
654.835
 20
-1.58141
 30
3.53452e-16
  70
    32
  0
VERTEX
  8
0
  5
6914
 10
654.762
 20
-1.58201
 30
3.53540e-16
  70
    32
  0
VERTEX
  8
0
  5
6915
 10
654.689
 20
-1.58231
 30
3.53584e-16
  70
    32
  0
VERTEX
  8
0
  5
6916
 10
654.615
 20
-1.58231
 30
3.53584e-16
  70
    32
  0
VERTEX
  8
0
  5
6917
 10
654.542
 20
-1.58201
 30
3.53540e-16
  70
    32
  0
VERTEX
  8
0
  5
6918
 10
654.469
 20
-1.58141
 30
3.53452e-16
  70
    32
  0
VERTEX
  8
0
  5
6919
 10
654.395
 20
-1.58050
 30
3.53320e-16
  70
    32
  0
VERTEX
  8
0
  5
691A
 10
654.322
 20
-1.57930
 30
3.53143e-16
  70
    32
  0
VERTEX
  8
0
  5
691B
 10
654.248
 20
-1.57779
 30
3.52922e-16
  70
    32
  0
VERTEX
  8
0
  5
691C
 10
654.175
 20
-1.57598
 30
3.52657e-16
  70
    32
  0
VERTEX
  8
0
  5
691D
 10
654.101
 20
-1.57386
 30
3.52348e-16
  70
    32
  0
VERTEX
  8
0
  5
691E
 10
654.027
 20
-1.57144
 30
3.51993e-16
  70
    32
  0
VERTEX
  8
0
  5
691F
 10
653.953
 20
-1.56872
 30
3.51594e-16
  70
    32
  0
VERTEX
  8
0
  5
6920
 10
653.879
 20
-1.56569
 30
3.51151e-16
  70
    32
  0
VERTEX
  8
0
  5
6921
 10
653.805
 20
-1.56235
 30
3.50662e-16
  70
    32
  0
VERTEX
  8
0
  5
6922
 10
653.731
 20
-1.55870
 30
3.50128e-16
  70
    32
  0
VERTEX
  8
0
  5
6923
 10
653.656
 20
-1.55475
 30
3.49548e-16
  70
    32
  0
VERTEX
  8
0
  5
6924
 10
653.581
 20
-1.55048
 30
3.48923e-16
  70
    32
  0
VERTEX
  8
0
  5
6925
 10
653.507
 20
-1.54590
 30
3.48252e-16
  70
    32
  0
VERTEX
  8
0
  5
6926
 10
653.431
 20
-1.54100
 30
3.47535e-16
  70
    32
  0
VERTEX
  8
0
  5
6927
 10
653.356
 20
-1.53578
 30
3.46772e-16
  70
    32
  0
VERTEX
  8
0
  5
6928
 10
653.280
 20
-1.53025
 30
3.45961e-16
  70
    32
  0
VERTEX
  8
0
  5
6929
 10
653.204
 20
-1.52439
 30
3.45104e-16
  70
    32
  0
VERTEX
  8
0
  5
692A
 10
653.128
 20
-1.51821
 30
3.44199e-16
  70
    32
  0
VERTEX
  8
0
  5
692B
 10
653.052
 20
-1.51171
 30
3.43247e-16
  70
    32
  0
VERTEX
  8
0
  5
692C
 10
652.975
 20
-1.50488
 30
3.42246e-16
  70
    32
  0
VERTEX
  8
0
  5
692D
 10
652.898
 20
-1.49771
 30
3.41197e-16
  70
    32
  0
VERTEX
  8
0
  5
692E
 10
652.820
 20
-1.49021
 30
3.40099e-16
  70
    32
  0
VERTEX
  8
0
  5
692F
 10
652.742
 20
-1.48237
 30
3.38951e-16
  70
    32
  0
VERTEX
  8
0
  5
6930
 10
652.664
 20
-1.47420
 30
3.37754e-16
  70
    32
  0
VERTEX
  8
0
  5
6931
 10
652.586
 20
-1.46567
 30
3.36506e-16
  70
    32
  0
VERTEX
  8
0
  5
6932
 10
652.507
 20
-1.45681
 30
3.35207e-16
  70
    32
  0
VERTEX
  8
0
  5
6933
 10
652.427
 20
-1.44759
 30
3.33857e-16
  70
    32
  0
VERTEX
  8
0
  5
6934
 10
652.347
 20
-1.43801
 30
3.32456e-16
  70
    32
  0
VERTEX
  8
0
  5
6935
 10
652.267
 20
-1.42808
 30
3.31001e-16
  70
    32
  0
VERTEX
  8
0
  5
6936
 10
652.186
 20
-1.41778
 30
3.29493e-16
  70
    32
  0
VERTEX
  8
0
  5
6937
 10
652.104
 20
-1.40712
 30
3.27932e-16
  70
    32
  0
VERTEX
  8
0
  5
6938
 10
652.022
 20
-1.39608
 30
3.26316e-16
  70
    32
  0
VERTEX
  8
0
  5
6939
 10
651.940
 20
-1.38467
 30
3.24645e-16
  70
    32
  0
VERTEX
  8
0
  5
693A
 10
651.857
 20
-1.37288
 30
3.22918e-16
  70
    32
  0
VERTEX
  8
0
  5
693B
 10
651.773
 20
-1.36070
 30
3.21135e-16
  70
    32
  0
VERTEX
  8
0
  5
693C
 10
651.689
 20
-1.34812
 30
3.19294e-16
  70
    32
  0
VERTEX
  8
0
  5
693D
 10
651.604
 20
-1.33515
 30
3.17395e-16
  70
    32
  0
VERTEX
  8
0
  5
693E
 10
651.518
 20
-1.32178
 30
3.15437e-16
  70
    32
  0
VERTEX
  8
0
  5
693F
 10
651.432
 20
-1.30800
 30
3.13419e-16
  70
    32
  0
VERTEX
  8
0
  5
6940
 10
651.345
 20
-1.29380
 30
3.11340e-16
  70
    32
  0
VERTEX
  8
0
  5
6941
 10
651.258
 20
-1.27918
 30
3.09200e-16
  70
    32
  0
VERTEX
  8
0
  5
6942
 10
651.169
 20
-1.26414
 30
3.06996e-16
  70
    32
  0
VERTEX
  8
0
  5
6943
 10
651.080
 20
-1.24865
 30
3.04729e-16
  70
    32
  0
VERTEX
  8
0
  5
6944
 10
650.990
 20
-1.23273
 30
3.02398e-16
  70
    32
  0
VERTEX
  8
0
  5
6945
 10
650.899
 20
-1.21636
 30
3.00000e-16
  70
    32
  0
SEQEND
  8
0
  5
6946
  0
POLYLINE
  8
0
  5
6947
  62
3
  66
     1
 10
0.000000
 20
0.000000
 30
0.000000
  70
     8
  0
VERTEX
  8
0
  5
6948
 10
654.652
 20
-7.67050
 30
1.70000e-15
  70
    32
  0
VERTEX
  8
0
  5
6949
 10
654.614
 20
-7.67047
 30
1.69999e-15
  70
    32
  0
VERTEX
  8
0
  5
694A
 10
654.576
 20
-7.67038
 30
1.69996e-15
  70
    32
  0
VERTEX
  8
0
  5
694B
 10
654.538
 20
-7.67023
 30
1.69990e-15
  70
    32
  0
VERTEX
  8
0
  5
694C
 10
654.500
 20
-7.67002
 30
1.69982e-15
  70
    32
  0
VERTEX
  8
0
  5
694D
 10
654.462
 20
-7.66975
 30
1.69972e-15
  70
    32
  0
VERTEX
  8
0
  5
694E
 10
654.424
 20
-7.66943
 30
1.69960e-15
  70
    32
  0
VERTEX
  8
0
  5
694F
 10
654.386
 20
-7.66904
 30
1.69946e-15
  70
    32
  0
VERTEX
  8
0
  5
6950
 10
654.348
 20
-7.66860
 30
1.69929e-15
  70
    32
  0
VERTEX
  8
0
  5
6951
 10
654.310
 20
-7.66809
 30
1.69911e-15
  70
    32
  0
VERTEX
  8
0
  5
6952
 10
654.273
 20
-7.66753
 30
1.69890e-15
  70
    32
  0
VERTEX
  8
0
  5
6953
 10
654.235
 20
-7.66691
 30
1.69867e-15
  70
    32
  0
VERTEX
  8
0
  5
6954
 10
654.197
 20
-7.66623
 30
1.69842e-15
  70
    32
  0
VERTEX
  8
0
  5
6955
 10
654.159
 20
-7.66550
 30
1.69814e-15
  70
    32
  0
VERTEX
  8
0
  5
6956
 10
654.121
 20
-7.66470
 30
1.69785e-15
  70
    32
  0
VERTEX
  8
0
  5
6957
 10
654.083
 20
-7.66385
 30
1.69753e-15
  70
    32
  0
VERTEX
  8
0
  5
6958
 10
654.046
 20
-7.66293
 30
1.69719e-15
  70
    32
  0
VERTEX
  8
0
  5
6959
 10
654.008
 20
-7.66196
 30
1.69683e-15
  70
    32
  0
VERTEX
  8
0
  5
695A
 10
653.970
 20
-7.66093
 30
1.69645e-15
  70
    32
  0
VERTEX
  8
0
  5
695B
 10
653.932
 20
-7.65985
 30
1.69605e-15
  70
    32
  0
VERTEX
  8
0
  5
695C
 10
653.894
 20
-7.65870
 30
1.69562e-15
  70
    32
  0
VERTEX
  8
0
  5
695D
 10
653.856
 20
-7.65750
 30
1.69518e-15
  70
    32
  0
VERTEX
  8
0
  5
695E
 10
653.819
 20
-7.65624
 30
1.69471e-15
  70
    32
  0
VERTEX
  8
0
  5
695F
 10
653.781
 20
-7.65492
 30
1.69422e-15
  70
    32
  0
VERTEX
  8
0
  5
6960
 10
653.743
 20
-7.65354
 30
1.69371e-15
  70
    32
  0
VERTEX
  8
0
  5
6961
 10
653.705
 20
-7.65211
 30
1.69318e-15
  70
    32
  0
VERTEX
  8
0
  5
6962
 10
653.667
 20
-7.65061
 30
1.69262e-15
  70
    32
  0
VERTEX
  8
0
  5
6963
 10
653.629
 20
-7.64906
 30
1.69205e-15
  70
    32
  0
VERTEX
  8
0
  5
6964
 10
653.591
 20
-7.64745
 30
1.69145e-15
  70
    32
  0
VERTEX
  8
0
  5
6965
 10
653.553
 20
-7.64579
 30
1.69083e-15
  70
    32
  0
VERTEX
  8
0
  5
6966
 10
653.515
 20
-7.64406
 30
1.69019e-15
  70
    32
  0
VERTEX
  8
0
  5
6967
 10
653.477
 20
-7.64228
 30
1.68953e-15
  70
    32
  0
VERTEX
  8
0
  5
6968
 10
653.439
 20
-7.64043
 30
1.68884e-15
  70
    32
  0
VERTEX
  8
0
  5
6969
 10
653.401
 20
-7.63853
 30
1.68814e-15
  70
    32
  0
VERTEX
  8
0
  5
696A
 10
653.363
 20
-7.63658
 30
1.68741e-15
  70
    32
  0
VERTEX
  8
0
  5
696B
 10
653.325
 20
-7.63456
 30
1.68666e-15
  70
    32
  0
VERTEX
  8
0
  5
696C
 10
653.287
 20
-7.63248
 30
1.68589e-15
  70
    32
  0
VERTEX
  8
0
  5
696D
 10
653.248
 20
-7.63035
 30
1.68510e-15
  70
    32
  0
VERTEX
  8
0
  5
696E
 10
653.210
 20
-7.62816
 30
1.68429e-15
  70
    32
  0
VERTEX
  8
0
  5
696F
 10
653.172
 20
-7.62591
 30
1.68345e-15
  70
    32
  0
VERTEX
  8
0
  5
6970
 10
653.133
 20
-7.62360
 30
1.68259e-15
  70
    32
  0
VERTEX
  8
0
  5
6971
 10
653.095
 20
-7.62123
 30
1.68171e-15
  70
    32
  0
VERTEX
  8
0
  5
6972
 10
653.057
 20
-7.61880
 30
1.68081e-15
  70
    32
  0
VERTEX
  8
0
  5
6973
 10
653.018
 20
-7.61631
 30
1.67989e-15
  70
    32
  0
VERTEX
  8
0
  5
6974
 10
652.980
 20
-7.61377
 30
1.67895e-15
  70
    32
  0
VERTEX
  8
0
  5
6975
 10
652.941
 20
-7.61116
 30
1.67798e-15
  70
    32
  0
VERTEX
  8
0
  5
6976
 10
652.902
 20
-7.60850
 30
1.67699e-15
  70
    32
  0
VERTEX
  8
0
  5
6977
 10
652.864
 20
-7.60578
 30
1.67598e-15
  70
    32
  0
VERTEX
  8
0
  5
6978
 10
652.825
 20
-7.60299
 30
1.67495e-15
  70
    32
  0
VERTEX
  8
0
  5
6979
 10
652.786
 20
-7.60015
 30
1.67389e-15
  70
    32
  0
VERTEX
  8
0
  5
697A
 10
652.747
 20
-7.59725
 30
1.67281e-15
  70
    32
  0
VERTEX
  8
0
  5
697B
 10
652.708
 20
-7.59428
 30
1.67171e-15
  70
    32
  0
VERTEX
  8
0
  5
697C
 10
652.669
 20
-7.59126
 30
1.67059e-15
  70
    32
  0
VERTEX
  8
0
  5
697D
 10
652.630
 20
-7.58818
 30
1.66945e-15
  70
    32
  0
VERTEX
  8
0
  5
697E
 10
652.591
 20
-7.58503
 30
1.66828e-15
  70
    32
  0
VERTEX
  8
0
  5
697F
 10
652.552
 20
-7.58183
 30
1.66709e-15
  70
    32
  0
VERTEX
  8
0
  5
6980
 10
652.512
 20
-7.57856
 30
1.66588e-15
  70
    32
  0
VERTEX
  8
0
  5
6981
 10
652.473
 20
-7.57523
 30
1.66464e-15
  70
    32
  0
VERTEX
  8
0
  5
6982
 10
652.434
 20
-7.57185
 30
1.66339e-15
  70
    32
  0
VERTEX
  8
0
  5
6983
 10
652.394
 20
-7.56840
 30
1.66211e-15
  70
    32
  0
VERTEX
  8
0
  5
6984
 10
652.354
 20
-7.56488
 30
1.66080e-15
  70
    32
  0
VERTEX
  8
0
  5
6985
 10
652.315
 20
-7.56131
 30
1.65948e-15
  70
    32
  0
VERTEX
  8
0
  5
6986
 10
652.275
 20
-7.55768
 30
1.65813e-15
  70
    32
  0
VERTEX
  8
0
  5
6987
 10
652.235
 20
-7.55398
 30
1.65676e-15
  70
    32
  0
VERTEX
  8
0
  5
6988
 10
652.195
 20
-7.55022
 30
1.65536e-15
  70
    32
  0
VERTEX
  8
0
  5
6989
 10
652.155
 20
-7.54640
 30
1.65394e-15
  70
    32
  0
VERTEX
  8
0
  5
698A
 10
652.115
 20
-7.54251
 30
1.65250e-15
  70
    32
  0
VERTEX
  8
0
  5
698B
 10
652.074
 20
-7.53856
 30
1.65103e-15
  70
    32
  0
VERTEX
  8
0
  5
698C
 10
652.034
 20
-7.53455
 30
1.64954e-15
  70
    32
  0
VERTEX
  8
0
  5
698D
 10
651.994
 20
-7.53047
 30
1.64803e-15
  70
    32
  0
VERTEX
  8
0
  5
698E
 10
651.953
 20
-7.52633
 30
1.64649e-15
  70
    32
  0
VERTEX
  8
0
  5
698F
 10
651.912
 20
-7.52213
 30
1.64493e-15
  70
    32
  0
VERTEX
  8
0
  5
6990
 10
651.872
 20
-7.51786
 30
1.64335e-15
  70
    32
  0
VERTEX
  8
0
  5
6991
 10
651.831
 20
-7.51352
 30
1.64174e-15
  70
    32
  0
VERTEX
  8
0
  5
6992
 10
651.790
 20
-7.50912
 30
1.64011e-15
  70
    32
  0
VERTEX
  8
0
  5
6993
 10
651.749
 20
-7.50466
 30
1.63845e-15
  70
    32
  0
VERTEX
  8
0
  5
6994
 10
651.707
 20
-7.50013
 30
1.63677e-15
  70
    32
  0
VERTEX
  8
0
  5
6995
 10
651.666
 20
-7.49553
 30
1.63506e-15
  70
    32
  0
VERTEX
  8
0
  5
6996
 10
651.625
 20
-7.49086
 30
1.63333e-15
  70
    32
  0
VERTEX
  8
0
  5
6997
 10
651.583
 20
-7.48613
 30
1.63158e-15
  70
    32
  0
VERTEX
  8
0
  5
6998
 10
651.541
 20
-7.48134
 30
1.62979e-15
  70
    32
  0
VERTEX
  8
0
  5
6999
 10
651.500
 20
-7.47647
 30
1.62799e-15
  70
    32
  0
VERTEX
  8
0
  5
699A
 10
651.458
 20
-7.47154
 30
1.62616e-15
  70
    32
  0
VERTEX
  8
0
  5
699B
 10
651.416
 20
-7.46654
 30
1.62430e-15
  70
    32
  0
VERTEX
  8
0
  5
699C
 10
651.373
 20
-7.46147
 30
1.62242e-15
  70
    32
  0
VERTEX
  8
0
  5
699D
 10
651.331
 20
-7.45633
 30
1.62051e-15
  70
    32
  0
VERTEX
  8
0
  5
699E
 10
651.288
 20
-7.45112
 30
1.61858e-15
  70
    32
  0
VERTEX
  8
0
  5
699F
 10
651.246
 20
-7.44584
 30
1.61662e-15
  70
    32
  0
VERTEX
  8
0
  5
69A0
 10
651.203
 20
-7.44049
 30
1.61464e-15
  70
    32
  0
VERTEX
  8
0
  5
69A1
 10
651.160
 20
-7.43508
 30
1.61263e-15
  70
    32
  0
VERTEX
  8
0
  5
69A2
 10
651.117
 20
-7.42959
 30
1.61059e-15
  70
    32
  0
VERTEX
  8
0
  5
69A3
 10
651.074
 20
-7.42402
 30
1.60852e-15
  70
    32
  0
VERTEX
  8
0
  5
69A4
 10
651.030
 20
-7.41839
 30
1.60643e-15
  70
    32
  0
VERTEX
  8
0
  5
69A5
 10
650.987
 20
-7.41269
 30
1.60432e-15
  70
    32
  0
VERTEX
  8
0
  5
69A6
 10
650.943
 20
-7.40691
 30
1.60217e-15
  70
    32
  0
VERTEX
  8
0
  5
69A7
 10
650.899
 20
-7.40106
 30
1.60000e-15
  70
    32
  0
SEQEND
  8
0
  5
69A8
  0
POLYLINE
  8
0
  5
69A9
  62
3
  66
     1
 10
0.000000
 20
0.000000
 30
0.000000
  70
     8
  0
VERTEX
  8
0
  5
69AA
 10
658.405
 20
-7.40106
 30
1.60000e-15
  70
    32
  0
VERTEX
  8
0
  5
69AB
 10
658.361
 20
-7.40691
 30
1.60217e-15
  70
    32
  0
VERTEX
  8
0
  5
69AC
 10
658.317
 20
-7.41269
 30
1.60432e-15
  70
    32
  0
VERTEX
  8
0
  5
69AD
 10
658.274
 20
-7.41839
 30
1.60643e-15
  70
    32
  0
VERTEX
  8
0
  5
69AE
 10
658.230
 20
-7.42402
 30
1.60852e-15
  70
    32
  0
VERTEX
  8
0
  5
69AF
 10
658.187
 20
-7.42959
 30
1.61059e-15
  70
    32
  0
VERTEX
  8
0
  5
69B0
 10
658.144
 20
-7.43508
 30
1.61263e-15
  70
    32
  0
VERTEX
  8
0
  5
69B1
 10
658.101
 20
-7.44049
 30
1.61464e-15
  70
    32
  0
VERTEX
  8
0
  5
69B2
 10
658.058
 20
-7.44584
 30
1.61662e-15
  70
    32
  0
VERTEX
  8
0
  5
69B3
 10
658.016
 20
-7.45112
 30
1.61858e-15
  70
    32
  0
VERTEX
  8
0
  5
69B4
 10
657.973
 20
-7.45633
 30
1.62051e-15
  70
    32
  0
VERTEX
  8
0
  5
69B5
 10
657.931
 20
-7.46147
 30
1.62242e-15
  70
    32
  0
VERTEX
  8
0
  5
69B6
 10
657.888
 20
-7.46654
 30
1.62430e-15
  70
    32
  0
VERTEX
  8
0
  5
69B7
 10
657.846
 20
-7.47154
 30
1.62616e-15
  70
    32
  0
VERTEX
  8
0
  5
69B8
 10
657.804
 20
-7.47647
 30
1.62799e-15
  70
    32
  0
VERTEX
  8
0
  5
69B9
 10
657.763
 20
-7.48134
 30
1.62979e-15
  70
    32
  0
VERTEX
  8
0
  5
69BA
 10
657.721
 20
-7.48613
 30
1.63158e-15
  70
    32
  0
VERTEX
  8
0
  5
69BB
 10
657.679
 20
-7.49086
 30
1.63333e-15
  70
    32
  0
VERTEX
  8
0
  5
69BC
 10
657.638
 20
-7.49553
 30
1.63506e-15
  70
    32
  0
VERTEX
  8
0
  5
69BD
 10
657.596
 20
-7.50013
 30
1.63677e-15
  70
    32
  0
VERTEX
  8
0
  5
69BE
 10
657.555
 20
-7.50466
 30
1.63845e-15
  70
    32
  0
VERTEX
  8
0
  5
69BF
 10
657.514
 20
-7.50912
 30
1.64011e-15
  70
    32
  0
VERTEX
  8
0
  5
69C0
 10
657.473
 20
-7.51352
 30
1.64174e-15
  70
    32
  0
VERTEX
  8
0
  5
69C1
 10
657.432
 20
-7.51786
 30
1.64335e-15
  70
    32
  0
VERTEX
  8
0
  5
69C2
 10
657.392
 20
-7.52213
 30
1.64493e-15
  70
    32
  0
VERTEX
  8
0
  5
69C3
 10
657.351
 20
-7.52633
 30
1.64649e-15
  70
    32
  0
VERTEX
  8
0
  5
69C4
 10
657.310
 20
-7.53047
 30
1.64803e-15
  70
    32
  0
VERTEX
  8
0
  5
69C5
 10
657.270
 20
-7.53455
 30
1.64954e-15
  70
    32
  0
VERTEX
  8
0
  5
69C6
 10
657.229
 20
-7.53856
 30
1.65103e-15
  70
    32
  0
VERTEX
  8
0
  5
69C7
 10
657.189
 20
-7.54251
 30
1.65250e-15
  70
    32
  0
VERTEX
  8
0
  5
69C8
 10
657.149
 20
-7.54640
 30
1.65394e-15
  70
    32
  0
VERTEX
  8
0
  5
69C9
 10
657.109
 20
-7.55022
 30
1.65536e-15
  70
    32
  0
VERTEX
  8
0
  5
69CA
 10
657.069
 20
-7.55398
 30
1.65676e-15
  70
    32
  0
VERTEX
  8
0
  5
69CB
 10
657.029
 20
-7.55768
 30
1.65813e-15
  70
    32
  0
VERTEX
  8
0
  5
69CC
 10
656.989
 20
-7.56131
 30
1.65948e-15
  70
    32
  0
VERTEX
  8
0
  5
69CD
 10
656.950
 20
-7.56488
 30
1.66080e-15
  70
    32
  0
VERTEX
  8
0
  5
69CE
 10
656.910
 20
-7.56840
 30
1.66211e-15
  70
    32
  0
VERTEX
  8
0
  5
69CF
 10
656.870
 20
-7.57185
 30
1.66339e-15
  70
    32
  0
VERTEX
  8
0
  5
69D0
 10
656.831
 20
-7.57523
 30
1.66464e-15
  70
    32
  0
VERTEX
  8
0
  5
69D1
 10
656.792
 20
-7.57856
 30
1.66588e-15
  70
    32
  0
VERTEX
  8
0
  5
69D2
 10
656.752
 20
-7.58183
 30
1.66709e-15
  70
    32
  0
VERTEX
  8
0
  5
69D3
 10
656.713
 20
-7.58503
 30
1.66828e-15
  70
    32
  0
VERTEX
  8
0
  5
69D4
 10
656.674
 20
-7.58818
 30
1.66945e-15
  70
    32
  0
VERTEX
  8
0
  5
69D5
 10
656.635
 20
-7.59126
 30
1.67059e-15
  70
    32
  0
VERTEX
  8
0
  5
69D6
 10
656.596
 20
-7.59428
 30
1.67171e-15
  70
    32
  0
VERTEX
  8
0
  5
69D7
 10
656.557
 20
-7.59725
 30
1.67281e-15
  70
    32
  0
VERTEX
  8
0
  5
69D8
 10
656.518
 20
-7.60015
 30
1.67389e-15
  70
    32
  0
VERTEX
  8
0
  5
69D9
 10
656.479
 20
-7.60299
 30
1.67495e-15
  70
    32
  0
VERTEX
  8
0
  5
69DA
 10
656.440
 20
-7.60578
 30
1.67598e-15
  70
    32
  0
VERTEX
  8
0
  5
69DB
 10
656.402
 20
-7.60850
 30
1.67699e-15
  70
    32
  0
VERTEX
  8
0
  5
69DC
 10
656.363
 20
-7.61116
 30
1.67798e-15
  70
    32
  0
VERTEX
  8
0
  5
69DD
 10
656.324
 20
-7.61377
 30
1.67895e-15
  70
    32
  0
VERTEX
  8
0
  5
69DE
 10
656.286
 20
-7.61631
 30
1.67989e-15
  70
    32
  0
VERTEX
  8
0
  5
69DF
 10
656.247
 20
-7.61880
 30
1.68081e-15
  70
    32
  0
VERTEX
  8
0
  5
69E0
 10
656.209
 20
-7.62123
 30
1.68171e-15
  70
    32
  0
VERTEX
  8
0
  5
69E1
 10
656.171
 20
-7.62360
 30
1.68259e-15
  70
    32
  0
VERTEX
  8
0
  5
69E2
 10
656.132
 20
-7.62591
 30
1.68345e-15
  70
    32
  0
VERTEX
  8
0
  5
69E3
 10
656.094
 20
-7.62816
 30
1.68429e-15
  70
    32
  0
VERTEX
  8
0
  5
69E4
 10
656.056
 20
-7.63035
 30
1.68510e-15
  70
    32
  0
VERTEX
  8
0
  5
69E5
 10
656.017
 20
-7.63248
 30
1.68589e-15
  70
    32
  0
VERTEX
  8
0
  5
69E6
 10
655.979
 20
-7.63456
 30
1.68666e-15
  70
    32
  0
VERTEX
  8
0
  5
69E7
 10
655.941
 20
-7.63658
 30
1.68741e-15
  70
    32
  0
VERTEX
  8
0
  5
69E8
 10
655.903
 20
-7.63853
 30
1.68814e-15
  70
    32
  0
VERTEX
  8
0
  5
69E9
 10
655.865
 20
-7.64043
 30
1.68884e-15
  70
    32
  0
VERTEX
  8
0
  5
69EA
 10
655.827
 20
-7.64228
 30
1.68953e-15
  70
    32
  0
VERTEX
  8
0
  5
69EB
 10
655.789
 20
-7.64406
 30
1.69019e-15
  70
    32
  0
VERTEX
  8
0
  5
69EC
 10
655.751
 20
-7.64579
 30
1.69083e-15
  70
    32
  0
VERTEX
  8
0
  5
69ED
 10
655.713
 20
-7.64745
 30
1.69145e-15
  70
    32
  0
VERTEX
  8
0
  5
69EE
 10
655.675
 20
-7.64906
 30
1.69205e-15
  70
    32
  0
VERTEX
  8
0
  5
69EF
 10
655.637
 20
-7.65061
 30
1.69262e-15
  70
    32
  0
VERTEX
  8
0
  5
69F0
 10
655.599
 20
-7.65211
 30
1.69318e-15
  70
    32
  0
VERTEX
  8
0
  5
69F1
 10
655.561
 20
-7.65354
 30
1.69371e-15
  70
    32
  0
VERTEX
  8
0
  5
69F2
 10
655.523
 20
-7.65492
 30
1.69422e-15
  70
    32
  0
VERTEX
  8
0
  5
69F3
 10
655.485
 20
-7.65624
 30
1.69471e-15
  70
    32
  0
VERTEX
  8
0
  5
69F4
 10
655.448
 20
-7.65750
 30
1.69518e-15
  70
    32
  0
VERTEX
  8
0
  5
69F5
 10
655.410
 20
-7.65870
 30
1.69562e-15
  70
    32
  0
VERTEX
  8
0
  5
69F6
 10
655.372
 20
-7.65985
 30
1.69605e-15
  70
    32
  0
VERTEX
  8
0
  5
69F7
 10
655.334
 20
-7.66093
 30
1.69645e-15
  70
    32
  0
VERTEX
  8
0
  5
69F8
 10
655.296
 20
-7.66196
 30
1.69683e-15
  70
    32
  0
VERTEX
  8
0
  5
69F9
 10
655.258
 20
-7.66293
 30
1.69719e-15
  70
    32
  0
VERTEX
  8
0
  5
69FA
 10
655.221
 20
-7.66385
 30
1.69753e-15
  70
    32
  0
VERTEX
  8
0
  5
69FB
 10
655.183
 20
-7.66470
 30
1.69785e-15
  70
    32
  0
VERTEX
  8
0
  5
69FC
 10
655.145
 20
-7.66550
 30
1.69814e-15
  70
    32
  0
VERTEX
  8
0
  5
69FD
 10
655.107
 20
-7.66623
 30
1.69842e-15
  70
    32
  0
VERTEX
  8
0
  5
69FE
 10
655.069
 20
-7.66691
 30
1.69867e-15
  70
    32
  0
VERTEX
  8
0
  5
69FF
 10
655.031
 20
-7.66753
 30
1.69890e-15
  70
    32
  0
VERTEX
  8
0
  5
6A00
 10
654.994
 20
-7.66809
 30
1.69911e-15
  70
    32
  0
VERTEX
  8
0
  5
6A01
 10
654.956
 20
-7.66860
 30
1.69929e-15
  70
    32
  0
VERTEX
  8
0
  5
6A02
 10
654.918
 20
-7.66904
 30
1.69946e-15
  70
    32
  0
VERTEX
  8
0
  5
6A03
 10
654.880
 20
-7.66943
 30
1.69960e-15
  70
    32
  0
VERTEX
  8
0
  5
6A04
 10
654.842
 20
-7.66975
 30
1.69972e-15
  70
    32
  0
VERTEX
  8
0
  5
6A05
 10
654.804
 20
-7.67002
 30
1.69982e-15
  70
    32
  0
VERTEX
  8
0
  5
6A06
 10
654.766
 20
-7.67023
 30
1.69990e-15
  70
    32
  0
VERTEX
  8
0
  5
6A07
 10
654.728
 20
-7.67038
 30
1.69996e-15
  70
    32
  0
VERTEX
  8
0
  5
6A08
 10
654.690
 20
-7.67047
 30
1.69999e-15
  70
    32
  0
VERTEX
  8
0
  5
6A09
 10
654.652
 20
-7.67050
 30
1.70000e-15
  70
    32
  0
SEQEND
  8
0
  5
6A0A
  0
LINE
  5
62A3
  8
0
  6
CONTINUOUS
 62
     3
 10
658.4047718682977575
 20
-7.4010583512594517
 30
0.0000000000000016
 11
658.4047718682977575
 21
-1.2163556534979989
 31
0.0000000000000003
210
0.0
220
1.0
230
-0.0000000000000002
  0
POLYLINE
  8
0
  5
6A0B
  62
3
  66
     1
 10
0.000000
 20
0.000000
 30
0.000000
  70
     8
  0
VERTEX
  8
0
  5
6A0C
 10
662.158
 20
-1.21636
 30
3.00000e-16
  70
    32
  0
VERTEX
  8
0
  5
6A0D
 10
662.112
 20
-1.23273
 30
3.02398e-16
  70
    32
  0
VERTEX
  8
0
  5
6A0E
 10
662.067
 20
-1.24865
 30
3.04729e-16
  70
    32
  0
VERTEX
  8
0
  5
6A0F
 10
662.023
 20
-1.26414
 30
3.06996e-16
  70
    32
  0
VERTEX
  8
0
  5
6A10
 10
661.978
 20
-1.27918
 30
3.09200e-16
  70
    32
  0
VERTEX
  8
0
  5
6A11
 10
661.935
 20
-1.29380
 30
3.11340e-16
  70
    32
  0
VERTEX
  8
0
  5
6A12
 10
661.891
 20
-1.30800
 30
3.13419e-16
  70
    32
  0
VERTEX
  8
0
  5
6A13
 10
661.848
 20
-1.32178
 30
3.15437e-16
  70
    32
  0
VERTEX
  8
0
  5
6A14
 10
661.805
 20
-1.33515
 30
3.17395e-16
  70
    32
  0
VERTEX
  8
0
  5
6A15
 10
661.763
 20
-1.34812
 30
3.19294e-16
  70
    32
  0
VERTEX
  8
0
  5
6A16
 10
661.721
 20
-1.36070
 30
3.21135e-16
  70
    32
  0
VERTEX
  8
0
  5
6A17
 10
661.679
 20
-1.37288
 30
3.22918e-16
  70
    32
  0
VERTEX
  8
0
  5
6A18
 10
661.637
 20
-1.38467
 30
3.24645e-16
  70
    32
  0
VERTEX
  8
0
  5
6A19
 10
661.596
 20
-1.39608
 30
3.26316e-16
  70
    32
  0
VERTEX
  8
0
  5
6A1A
 10
661.555
 20
-1.40712
 30
3.27932e-16
  70
    32
  0
VERTEX
  8
0
  5
6A1B
 10
661.514
 20
-1.41778
 30
3.29493e-16
  70
    32
  0
VERTEX
  8
0
  5
6A1C
 10
661.474
 20
-1.42808
 30
3.31001e-16
  70
    32
  0
VERTEX
  8
0
  5
6A1D
 10
661.434
 20
-1.43801
 30
3.32456e-16
  70
    32
  0
VERTEX
  8
0
  5
6A1E
 10
661.394
 20
-1.44759
 30
3.33857e-16
  70
    32
  0
VERTEX
  8
0
  5
6A1F
 10
661.354
 20
-1.45681
 30
3.35207e-16
  70
    32
  0
VERTEX
  8
0
  5
6A20
 10
661.314
 20
-1.46567
 30
3.36506e-16
  70
    32
  0
VERTEX
  8
0
  5
6A21
 10
661.275
 20
-1.47420
 30
3.37754e-16
  70
    32
  0
VERTEX
  8
0
  5
6A22
 10
661.236
 20
-1.48237
 30
3.38951e-16
  70
    32
  0
VERTEX
  8
0
  5
6A23
 10
661.197
 20
-1.49021
 30
3.40099e-16
  70
    32
  0
VERTEX
  8
0
  5
6A24
 10
661.158
 20
-1.49771
 30
3.41197e-16
  70
    32
  0
VERTEX
  8
0
  5
6A25
 10
661.120
 20
-1.50488
 30
3.42246e-16
  70
    32
  0
VERTEX
  8
0
  5
6A26
 10
661.081
 20
-1.51171
 30
3.43247e-16
  70
    32
  0
VERTEX
  8
0
  5
6A27
 10
661.043
 20
-1.51821
 30
3.44199e-16
  70
    32
  0
VERTEX
  8
0
  5
6A28
 10
661.005
 20
-1.52439
 30
3.45104e-16
  70
    32
  0
VERTEX
  8
0
  5
6A29
 10
660.967
 20
-1.53025
 30
3.45961e-16
  70
    32
  0
VERTEX
  8
0
  5
6A2A
 10
660.929
 20
-1.53578
 30
3.46772e-16
  70
    32
  0
VERTEX
  8
0
  5
6A2B
 10
660.891
 20
-1.54100
 30
3.47535e-16
  70
    32
  0
VERTEX
  8
0
  5
6A2C
 10
660.854
 20
-1.54590
 30
3.48252e-16
  70
    32
  0
VERTEX
  8
0
  5
6A2D
 10
660.816
 20
-1.55048
 30
3.48923e-16
  70
    32
  0
VERTEX
  8
0
  5
6A2E
 10
660.779
 20
-1.55475
 30
3.49548e-16
  70
    32
  0
VERTEX
  8
0
  5
6A2F
 10
660.742
 20
-1.55870
 30
3.50128e-16
  70
    32
  0
VERTEX
  8
0
  5
6A30
 10
660.705
 20
-1.56235
 30
3.50662e-16
  70
    32
  0
VERTEX
  8
0
  5
6A31
 10
660.668
 20
-1.56569
 30
3.51151e-16
  70
    32
  0
VERTEX
  8
0
  5
6A32
 10
660.630
 20
-1.56872
 30
3.51594e-16
  70
    32
  0
VERTEX
  8
0
  5
6A33
 10
660.594
 20
-1.57144
 30
3.51993e-16
  70
    32
  0
VERTEX
  8
0
  5
6A34
 10
660.557
 20
-1.57386
 30
3.52348e-16
  70
    32
  0
VERTEX
  8
0
  5
6A35
 10
660.520
 20
-1.57598
 30
3.52657e-16
  70
    32
  0
VERTEX
  8
0
  5
6A36
 10
660.483
 20
-1.57779
 30
3.52922e-16
  70
    32
  0
VERTEX
  8
0
  5
6A37
 10
660.446
 20
-1.57930
 30
3.53143e-16
  70
    32
  0
VERTEX
  8
0
  5
6A38
 10
660.410
 20
-1.58050
 30
3.53320e-16
  70
    32
  0
VERTEX
  8
0
  5
6A39
 10
660.373
 20
-1.58141
 30
3.53452e-16
  70
    32
  0
VERTEX
  8
0
  5
6A3A
 10
660.336
 20
-1.58201
 30
3.53540e-16
  70
    32
  0
VERTEX
  8
0
  5
6A3B
 10
660.299
 20
-1.58231
 30
3.53584e-16
  70
    32
  0
VERTEX
  8
0
  5
6A3C
 10
660.263
 20
-1.58231
 30
3.53584e-16
  70
    32
  0
VERTEX
  8
0
  5
6A3D
 10
660.226
 20
-1.58201
 30
3.53540e-16
  70
    32
  0
VERTEX
  8
0
  5
6A3E
 10
660.189
 20
-1.58141
 30
3.53452e-16
  70
    32
  0
VERTEX
  8
0
  5
6A3F
 10
660.153
 20
-1.58050
 30
3.53320e-16
  70
    32
  0
VERTEX
  8
0
  5
6A40
 10
660.116
 20
-1.57930
 30
3.53143e-16
  70
    32
  0
VERTEX
  8
0
  5
6A41
 10
660.079
 20
-1.57779
 30
3.52922e-16
  70
    32
  0
VERTEX
  8
0
  5
6A42
 10
660.043
 20
-1.57598
 30
3.52657e-16
  70
    32
  0
VERTEX
  8
0
  5
6A43
 10
660.006
 20
-1.57386
 30
3.52348e-16
  70
    32
  0
VERTEX
  8
0
  5
6A44
 10
659.969
 20
-1.57144
 30
3.51993e-16
  70
    32
  0
VERTEX
  8
0
  5
6A45
 10
659.932
 20
-1.56872
 30
3.51594e-16
  70
    32
  0
VERTEX
  8
0
  5
6A46
 10
659.895
 20
-1.56569
 30
3.51151e-16
  70
    32
  0
VERTEX
  8
0
  5
6A47
 10
659.858
 20
-1.56235
 30
3.50662e-16
  70
    32
  0
VERTEX
  8
0
  5
6A48
 10
659.821
 20
-1.55870
 30
3.50128e-16
  70
    32
  0
VERTEX
  8
0
  5
6A49
 10
659.783
 20
-1.55475
 30
3.49548e-16
  70
    32
  0
VERTEX
  8
0
  5
6A4A
 10
659.746
 20
-1.55048
 30
3.48923e-16
  70
    32
  0
VERTEX
  8
0
  5
6A4B
 10
659.708
 20
-1.54590
 30
3.48252e-16
  70
    32
  0
VERTEX
  8
0
  5
6A4C
 10
659.671
 20
-1.54100
 30
3.47535e-16
  70
    32
  0
VERTEX
  8
0
  5
6A4D
 10
659.633
 20
-1.53578
 30
3.46772e-16
  70
    32
  0
VERTEX
  8
0
  5
6A4E
 10
659.595
 20
-1.53025
 30
3.45961e-16
  70
    32
  0
VERTEX
  8
0
  5
6A4F
 10
659.557
 20
-1.52439
 30
3.45104e-16
  70
    32
  0
VERTEX
  8
0
  5
6A50
 10
659.519
 20
-1.51821
 30
3.44199e-16
  70
    32
  0
VERTEX
  8
0
  5
6A51
 10
659.481
 20
-1.51171
 30
3.43247e-16
  70
    32
  0
VERTEX
  8
0
  5
6A52
 10
659.443
 20
-1.50488
 30
3.42246e-16
  70
    32
  0
VERTEX
  8
0
  5
6A53
 10
659.404
 20
-1.49771
 30
3.41197e-16
  70
    32
  0
VERTEX
  8
0
  5
6A54
 10
659.365
 20
-1.49021
 30
3.40099e-16
  70
    32
  0
VERTEX
  8
0
  5
6A55
 10
659.326
 20
-1.48237
 30
3.38951e-16
  70
    32
  0
VERTEX
  8
0
  5
6A56
 10
659.287
 20
-1.47420
 30
3.37754e-16
  70
    32
  0
VERTEX
  8
0
  5
6A57
 10
659.248
 20
-1.46567
 30
3.36506e-16
  70
    32
  0
VERTEX
  8
0
  5
6A58
 10
659.208
 20
-1.45681
 30
3.35207e-16
  70
    32
  0
VERTEX
  8
0
  5
6A59
 10
659.169
 20
-1.44759
 30
3.33857e-16
  70
    32
  0
VERTEX
  8
0
  5
6A5A
 10
659.129
 20
-1.43801
 30
3.32456e-16
  70
    32
  0
VERTEX
  8
0
  5
6A5B
 10
659.089
 20
-1.42808
 30
3.31001e-16
  70
    32
  0
VERTEX
  8
0
  5
6A5C
 10
659.048
 20
-1.41778
 30
3.29493e-16
  70
    32
  0
VERTEX
  8
0
  5
6A5D
 10
659.007
 20
-1.40712
 30
3.27932e-16
  70
    32
  0
VERTEX
  8
0
  5
6A5E
 10
658.966
 20
-1.39608
 30
3.26316e-16
  70
    32
  0
VERTEX
  8
0
  5
6A5F
 10
658.925
 20
-1.38467
 30
3.24645e-16
  70
    32
  0
VERTEX
  8
0
  5
6A60
 10
658.884
 20
-1.37288
 30
3.22918e-16
  70
    32
  0
VERTEX
  8
0
  5
6A61
 10
658.842
 20
-1.36070
 30
3.21135e-16
  70
    32
  0
VERTEX
  8
0
  5
6A62
 10
658.800
 20
-1.34812
 30
3.19294e-16
  70
    32
  0
VERTEX
  8
0
  5
6A63
 10
658.757
 20
-1.33515
 30
3.17395e-16
  70
    32
  0
VERTEX
  8
0
  5
6A64
 10
658.714
 20
-1.32178
 30
3.15437e-16
  70
    32
  0
VERTEX
  8
0
  5
6A65
 10
658.671
 20
-1.30800
 30
3.13419e-16
  70
    32
  0
VERTEX
  8
0
  5
6A66
 10
658.628
 20
-1.29380
 30
3.11340e-16
  70
    32
  0
VERTEX
  8
0
  5
6A67
 10
658.584
 20
-1.27918
 30
3.09200e-16
  70
    32
  0
VERTEX
  8
0
  5
6A68
 10
658.540
 20
-1.26414
 30
3.06996e-16
  70
    32
  0
VERTEX
  8
0
  5
6A69
 10
658.495
 20
-1.24865
 30
3.04729e-16
  70
    32
  0
VERTEX
  8
0
  5
6A6A
 10
658.450
 20
-1.23273
 30
3.02398e-16
  70
    32
  0
VERTEX
  8
0
  5
6A6B
 10
658.405
 20
-1.21636
 30
3.00000e-16
  70
    32
  0
SEQEND
  8
0
  5
6A6C
  0
POLYLINE
  8
0
  5
6A6D
  62
3
  66
     1
 10
0.000000
 20
0.000000
 30
0.000000
  70
     8
  0
VERTEX
  8
0
  5
6A6E
 10
660.281
 20
-7.67050
 30
1.70000e-15
  70
    32
  0
VERTEX
  8
0
  5
6A6F
 10
660.262
 20
-7.67047
 30
1.69999e-15
  70
    32
  0
VERTEX
  8
0
  5
6A70
 10
660.243
 20
-7.67038
 30
1.69996e-15
  70
    32
  0
VERTEX
  8
0
  5
6A71
 10
660.224
 20
-7.67023
 30
1.69990e-15
  70
    32
  0
VERTEX
  8
0
  5
6A72
 10
660.205
 20
-7.67002
 30
1.69982e-15
  70
    32
  0
VERTEX
  8
0
  5
6A73
 10
660.186
 20
-7.66975
 30
1.69972e-15
  70
    32
  0
VERTEX
  8
0
  5
6A74
 10
660.167
 20
-7.66943
 30
1.69960e-15
  70
    32
  0
VERTEX
  8
0
  5
6A75
 10
660.148
 20
-7.66904
 30
1.69946e-15
  70
    32
  0
VERTEX
  8
0
  5
6A76
 10
660.129
 20
-7.66860
 30
1.69929e-15
  70
    32
  0
VERTEX
  8
0
  5
6A77
 10
660.110
 20
-7.66809
 30
1.69911e-15
  70
    32
  0
VERTEX
  8
0
  5
6A78
 10
660.091
 20
-7.66753
 30
1.69890e-15
  70
    32
  0
VERTEX
  8
0
  5
6A79
 10
660.073
 20
-7.66691
 30
1.69867e-15
  70
    32
  0
VERTEX
  8
0
  5
6A7A
 10
660.054
 20
-7.66623
 30
1.69842e-15
  70
    32
  0
VERTEX
  8
0
  5
6A7B
 10
660.035
 20
-7.66550
 30
1.69814e-15
  70
    32
  0
VERTEX
  8
0
  5
6A7C
 10
660.016
 20
-7.66470
 30
1.69785e-15
  70
    32
  0
VERTEX
  8
0
  5
6A7D
 10
659.997
 20
-7.66385
 30
1.69753e-15
  70
    32
  0
VERTEX
  8
0
  5
6A7E
 10
659.978
 20
-7.66293
 30
1.69719e-15
  70
    32
  0
VERTEX
  8
0
  5
6A7F
 10
659.959
 20
-7.66196
 30
1.69683e-15
  70
    32
  0
VERTEX
  8
0
  5
6A80
 10
659.940
 20
-7.66093
 30
1.69645e-15
  70
    32
  0
VERTEX
  8
0
  5
6A81
 10
659.921
 20
-7.65985
 30
1.69605e-15
  70
    32
  0
VERTEX
  8
0
  5
6A82
 10
659.902
 20
-7.65870
 30
1.69562e-15
  70
    32
  0
VERTEX
  8
0
  5
6A83
 10
659.883
 20
-7.65750
 30
1.69518e-15
  70
    32
  0
VERTEX
  8
0
  5
6A84
 10
659.864
 20
-7.65624
 30
1.69471e-15
  70
    32
  0
VERTEX
  8
0
  5
6A85
 10
659.846
 20
-7.65492
 30
1.69422e-15
  70
    32
  0
VERTEX
  8
0
  5
6A86
 10
659.827
 20
-7.65354
 30
1.69371e-15
  70
    32
  0
VERTEX
  8
0
  5
6A87
 10
659.808
 20
-7.65211
 30
1.69318e-15
  70
    32
  0
VERTEX
  8
0
  5
6A88
 10
659.789
 20
-7.65061
 30
1.69262e-15
  70
    32
  0
VERTEX
  8
0
  5
6A89
 10
659.770
 20
-7.64906
 30
1.69205e-15
  70
    32
  0
VERTEX
  8
0
  5
6A8A
 10
659.751
 20
-7.64745
 30
1.69145e-15
  70
    32
  0
VERTEX
  8
0
  5
6A8B
 10
659.732
 20
-7.64579
 30
1.69083e-15
  70
    32
  0
VERTEX
  8
0
  5
6A8C
 10
659.713
 20
-7.64406
 30
1.69019e-15
  70
    32
  0
VERTEX
  8
0
  5
6A8D
 10
659.694
 20
-7.64228
 30
1.68953e-15
  70
    32
  0
VERTEX
  8
0
  5
6A8E
 10
659.675
 20
-7.64043
 30
1.68884e-15
  70
    32
  0
VERTEX
  8
0
  5
6A8F
 10
659.656
 20
-7.63853
 30
1.68814e-15
  70
    32
  0
VERTEX
  8
0
  5
6A90
 10
659.637
 20
-7.63658
 30
1.68741e-15
  70
    32
  0
VERTEX
  8
0
  5
6A91
 10
659.618
 20
-7.63456
 30
1.68666e-15
  70
    32
  0
VERTEX
  8
0
  5
6A92
 10
659.598
 20
-7.63248
 30
1.68589e-15
  70
    32
  0
VERTEX
  8
0
  5
6A93
 10
659.579
 20
-7.63035
 30
1.68510e-15
  70
    32
  0
VERTEX
  8
0
  5
6A94
 10
659.560
 20
-7.62816
 30
1.68429e-15
  70
    32
  0
VERTEX
  8
0
  5
6A95
 10
659.541
 20
-7.62591
 30
1.68345e-15
  70
    32
  0
VERTEX
  8
0
  5
6A96
 10
659.522
 20
-7.62360
 30
1.68259e-15
  70
    32
  0
VERTEX
  8
0
  5
6A97
 10
659.503
 20
-7.62123
 30
1.68171e-15
  70
    32
  0
VERTEX
  8
0
  5
6A98
 10
659.483
 20
-7.61880
 30
1.68081e-15
  70
    32
  0
VERTEX
  8
0
  5
6A99
 10
659.464
 20
-7.61631
 30
1.67989e-15
  70
    32
  0
VERTEX
  8
0
  5
6A9A
 10
659.445
 20
-7.61377
 30
1.67895e-15
  70
    32
  0
VERTEX
  8
0
  5
6A9B
 10
659.426
 20
-7.61116
 30
1.67798e-15
  70
    32
  0
VERTEX
  8
0
  5
6A9C
 10
659.406
 20
-7.60850
 30
1.67699e-15
  70
    32
  0
VERTEX
  8
0
  5
6A9D
 10
659.387
 20
-7.60578
 30
1.67598e-15
  70
    32
  0
VERTEX
  8
0
  5
6A9E
 10
659.368
 20
-7.60299
 30
1.67495e-15
  70
    32
  0
VERTEX
  8
0
  5
6A9F
 10
659.348
 20
-7.60015
 30
1.67389e-15
  70
    32
  0
VERTEX
  8
0
  5
6AA0
 10
659.329
 20
-7.59725
 30
1.67281e-15
  70
    32
  0
VERTEX
  8
0
  5
6AA1
 10
659.309
 20
-7.59428
 30
1.67171e-15
  70
    32
  0
VERTEX
  8
0
  5
6AA2
 10
659.290
 20
-7.59126
 30
1.67059e-15
  70
    32
  0
VERTEX
  8
0
  5
6AA3
 10
659.270
 20
-7.58818
 30
1.66945e-15
  70
    32
  0
VERTEX
  8
0
  5
6AA4
 10
659.251
 20
-7.58503
 30
1.66828e-15
  70
    32
  0
VERTEX
  8
0
  5
6AA5
 10
659.231
 20
-7.58183
 30
1.66709e-15
  70
    32
  0
VERTEX
  8
0
  5
6AA6
 10
659.211
 20
-7.57856
 30
1.66588e-15
  70
    32
  0
VERTEX
  8
0
  5
6AA7
 10
659.192
 20
-7.57523
 30
1.66464e-15
  70
    32
  0
VERTEX
  8
0
  5
6AA8
 10
659.172
 20
-7.57185
 30
1.66339e-15
  70
    32
  0
VERTEX
  8
0
  5
6AA9
 10
659.152
 20
-7.56840
 30
1.66211e-15
  70
    32
  0
VERTEX
  8
0
  5
6AAA
 10
659.132
 20
-7.56488
 30
1.66080e-15
  70
    32
  0
VERTEX
  8
0
  5
6AAB
 10
659.112
 20
-7.56131
 30
1.65948e-15
  70
    32
  0
VERTEX
  8
0
  5
6AAC
 10
659.093
 20
-7.55768
 30
1.65813e-15
  70
    32
  0
VERTEX
  8
0
  5
6AAD
 10
659.073
 20
-7.55398
 30
1.65676e-15
  70
    32
  0
VERTEX
  8
0
  5
6AAE
 10
659.053
 20
-7.55022
 30
1.65536e-15
  70
    32
  0
VERTEX
  8
0
  5
6AAF
 10
659.033
 20
-7.54640
 30
1.65394e-15
  70
    32
  0
VERTEX
  8
0
  5
6AB0
 10
659.013
 20
-7.54251
 30
1.65250e-15
  70
    32
  0
VERTEX
  8
0
  5
6AB1
 10
658.992
 20
-7.53856
 30
1.65103e-15
  70
    32
  0
VERTEX
  8
0
  5
6AB2
 10
658.972
 20
-7.53455
 30
1.64954e-15
  70
    32
  0
VERTEX
  8
0
  5
6AB3
 10
658.952
 20
-7.53047
 30
1.64803e-15
  70
    32
  0
VERTEX
  8
0
  5
6AB4
 10
658.932
 20
-7.52633
 30
1.64649e-15
  70
    32
  0
VERTEX
  8
0
  5
6AB5
 10
658.911
 20
-7.52213
 30
1.64493e-15
  70
    32
  0
VERTEX
  8
0
  5
6AB6
 10
658.891
 20
-7.51786
 30
1.64335e-15
  70
    32
  0
VERTEX
  8
0
  5
6AB7
 10
658.871
 20
-7.51352
 30
1.64174e-15
  70
    32
  0
VERTEX
  8
0
  5
6AB8
 10
658.850
 20
-7.50912
 30
1.64011e-15
  70
    32
  0
VERTEX
  8
0
  5
6AB9
 10
658.830
 20
-7.50466
 30
1.63845e-15
  70
    32
  0
VERTEX
  8
0
  5
6ABA
 10
658.809
 20
-7.50013
 30
1.63677e-15
  70
    32
  0
VERTEX
  8
0
  5
6ABB
 10
658.788
 20
-7.49553
 30
1.63506e-15
  70
    32
  0
VERTEX
  8
0
  5
6ABC
 10
658.768
 20
-7.49086
 30
1.63333e-15
  70
    32
  0
VERTEX
  8
0
  5
6ABD
 10
658.747
 20
-7.48613
 30
1.63158e-15
  70
    32
  0
VERTEX
  8
0
  5
6ABE
 10
658.726
 20
-7.48134
 30
1.62979e-15
  70
    32
  0
VERTEX
  8
0
  5
6ABF
 10
658.705
 20
-7.47647
 30
1.62799e-15
  70
    32
  0
VERTEX
  8
0
  5
6AC0
 10
658.684
 20
-7.47154
 30
1.62616e-15
  70
    32
  0
VERTEX
  8
0
  5
6AC1
 10
658.663
 20
-7.46654
 30
1.62430e-15
  70
    32
  0
VERTEX
  8
0
  5
6AC2
 10
658.642
 20
-7.46147
 30
1.62242e-15
  70
    32
  0
VERTEX
  8
0
  5
6AC3
 10
658.621
 20
-7.45633
 30
1.62051e-15
  70
    32
  0
VERTEX
  8
0
  5
6AC4
 10
658.599
 20
-7.45112
 30
1.61858e-15
  70
    32
  0
VERTEX
  8
0
  5
6AC5
 10
658.578
 20
-7.44584
 30
1.61662e-15
  70
    32
  0
VERTEX
  8
0
  5
6AC6
 10
658.557
 20
-7.44049
 30
1.61464e-15
  70
    32
  0
VERTEX
  8
0
  5
6AC7
 10
658.535
 20
-7.43508
 30
1.61263e-15
  70
    32
  0
VERTEX
  8
0
  5
6AC8
 10
658.514
 20
-7.42959
 30
1.61059e-15
  70
    32
  0
VERTEX
  8
0
  5
6AC9
 10
658.492
 20
-7.42402
 30
1.60852e-15
  70
    32
  0
VERTEX
  8
0
  5
6ACA
 10
658.470
 20
-7.41839
 30
1.60643e-15
  70
    32
  0
VERTEX
  8
0
  5
6ACB
 10
658.449
 20
-7.41269
 30
1.60432e-15
  70
    32
  0
VERTEX
  8
0
  5
6ACC
 10
658.427
 20
-7.40691
 30
1.60217e-15
  70
    32
  0
VERTEX
  8
0
  5
6ACD
 10
658.405
 20
-7.40106
 30
1.60000e-15
  70
    32
  0
SEQEND
  8
0
  5
6ACE
  0
POLYLINE
  8
0
  5
6ACF
  62
3
  66
     1
 10
0.000000
 20
0.000000
 30
0.000000
  70
     8
  0
VERTEX
  8
0
  5
6AD0
 10
662.158
 20
-7.40106
 30
1.60000e-15
  70
    32
  0
VERTEX
  8
0
  5
6AD1
 10
662.136
 20
-7.40691
 30
1.60217e-15
  70
    32
  0
VERTEX
  8
0
  5
6AD2
 10
662.114
 20
-7.41269
 30
1.60432e-15
  70
    32
  0
VERTEX
  8
0
  5
6AD3
 10
662.092
 20
-7.41839
 30
1.60643e-15
  70
    32
  0
VERTEX
  8
0
  5
6AD4
 10
662.070
 20
-7.42402
 30
1.60852e-15
  70
    32
  0
VERTEX
  8
0
  5
6AD5
 10
662.049
 20
-7.42959
 30
1.61059e-15
  70
    32
  0
VERTEX
  8
0
  5
6AD6
 10
662.027
 20
-7.43508
 30
1.61263e-15
  70
    32
  0
VERTEX
  8
0
  5
6AD7
 10
662.006
 20
-7.44049
 30
1.61464e-15
  70
    32
  0
VERTEX
  8
0
  5
6AD8
 10
661.984
 20
-7.44584
 30
1.61662e-15
  70
    32
  0
VERTEX
  8
0
  5
6AD9
 10
661.963
 20
-7.45112
 30
1.61858e-15
  70
    32
  0
VERTEX
  8
0
  5
6ADA
 10
661.942
 20
-7.45633
 30
1.62051e-15
  70
    32
  0
VERTEX
  8
0
  5
6ADB
 10
661.921
 20
-7.46147
 30
1.62242e-15
  70
    32
  0
VERTEX
  8
0
  5
6ADC
 10
661.899
 20
-7.46654
 30
1.62430e-15
  70
    32
  0
VERTEX
  8
0
  5
6ADD
 10
661.878
 20
-7.47154
 30
1.62616e-15
  70
    32
  0
VERTEX
  8
0
  5
6ADE
 10
661.857
 20
-7.47647
 30
1.62799e-15
  70
    32
  0
VERTEX
  8
0
  5
6ADF
 10
661.836
 20
-7.48134
 30
1.62979e-15
  70
    32
  0
VERTEX
  8
0
  5
6AE0
 10
661.816
 20
-7.48613
 30
1.63158e-15
  70
    32
  0
VERTEX
  8
0
  5
6AE1
 10
661.795
 20
-7.49086
 30
1.63333e-15
  70
    32
  0
VERTEX
  8
0
  5
6AE2
 10
661.774
 20
-7.49553
 30
1.63506e-15
  70
    32
  0
VERTEX
  8
0
  5
6AE3
 10
661.753
 20
-7.50013
 30
1.63677e-15
  70
    32
  0
VERTEX
  8
0
  5
6AE4
 10
661.733
 20
-7.50466
 30
1.63845e-15
  70
    32
  0
VERTEX
  8
0
  5
6AE5
 10
661.712
 20
-7.50912
 30
1.64011e-15
  70
    32
  0
VERTEX
  8
0
  5
6AE6
 10
661.692
 20
-7.51352
 30
1.64174e-15
  70
    32
  0
VERTEX
  8
0
  5
6AE7
 10
661.671
 20
-7.51786
 30
1.64335e-15
  70
    32
  0
VERTEX
  8
0
  5
6AE8
 10
661.651
 20
-7.52213
 30
1.64493e-15
  70
    32
  0
VERTEX
  8
0
  5
6AE9
 10
661.631
 20
-7.52633
 30
1.64649e-15
  70
    32
  0
VERTEX
  8
0
  5
6AEA
 10
661.610
 20
-7.53047
 30
1.64803e-15
  70
    32
  0
VERTEX
  8
0
  5
6AEB
 10
661.590
 20
-7.53455
 30
1.64954e-15
  70
    32
  0
VERTEX
  8
0
  5
6AEC
 10
661.570
 20
-7.53856
 30
1.65103e-15
  70
    32
  0
VERTEX
  8
0
  5
6AED
 10
661.550
 20
-7.54251
 30
1.65250e-15
  70
    32
  0
VERTEX
  8
0
  5
6AEE
 10
661.530
 20
-7.54640
 30
1.65394e-15
  70
    32
  0
VERTEX
  8
0
  5
6AEF
 10
661.510
 20
-7.55022
 30
1.65536e-15
  70
    32
  0
VERTEX
  8
0
  5
6AF0
 10
661.490
 20
-7.55398
 30
1.65676e-15
  70
    32
  0
VERTEX
  8
0
  5
6AF1
 10
661.470
 20
-7.55768
 30
1.65813e-15
  70
    32
  0
VERTEX
  8
0
  5
6AF2
 10
661.450
 20
-7.56131
 30
1.65948e-15
  70
    32
  0
VERTEX
  8
0
  5
6AF3
 10
661.430
 20
-7.56488
 30
1.66080e-15
  70
    32
  0
VERTEX
  8
0
  5
6AF4
 10
661.410
 20
-7.56840
 30
1.66211e-15
  70
    32
  0
VERTEX
  8
0
  5
6AF5
 10
661.390
 20
-7.57185
 30
1.66339e-15
  70
    32
  0
VERTEX
  8
0
  5
6AF6
 10
661.371
 20
-7.57523
 30
1.66464e-15
  70
    32
  0
VERTEX
  8
0
  5
6AF7
 10
661.351
 20
-7.57856
 30
1.66588e-15
  70
    32
  0
VERTEX
  8
0
  5
6AF8
 10
661.331
 20
-7.58183
 30
1.66709e-15
  70
    32
  0
VERTEX
  8
0
  5
6AF9
 10
661.312
 20
-7.58503
 30
1.66828e-15
  70
    32
  0
VERTEX
  8
0
  5
6AFA
 10
661.292
 20
-7.58818
 30
1.66945e-15
  70
    32
  0
VERTEX
  8
0
  5
6AFB
 10
661.273
 20
-7.59126
 30
1.67059e-15
  70
    32
  0
VERTEX
  8
0
  5
6AFC
 10
661.253
 20
-7.59428
 30
1.67171e-15
  70
    32
  0
VERTEX
  8
0
  5
6AFD
 10
661.234
 20
-7.59725
 30
1.67281e-15
  70
    32
  0
VERTEX
  8
0
  5
6AFE
 10
661.214
 20
-7.60015
 30
1.67389e-15
  70
    32
  0
VERTEX
  8
0
  5
6AFF
 10
661.195
 20
-7.60299
 30
1.67495e-15
  70
    32
  0
VERTEX
  8
0
  5
6B00
 10
661.175
 20
-7.60578
 30
1.67598e-15
  70
    32
  0
VERTEX
  8
0
  5
6B01
 10
661.156
 20
-7.60850
 30
1.67699e-15
  70
    32
  0
VERTEX
  8
0
  5
6B02
 10
661.137
 20
-7.61116
 30
1.67798e-15
  70
    32
  0
VERTEX
  8
0
  5
6B03
 10
661.117
 20
-7.61377
 30
1.67895e-15
  70
    32
  0
VERTEX
  8
0
  5
6B04
 10
661.098
 20
-7.61631
 30
1.67989e-15
  70
    32
  0
VERTEX
  8
0
  5
6B05
 10
661.079
 20
-7.61880
 30
1.68081e-15
  70
    32
  0
VERTEX
  8
0
  5
6B06
 10
661.060
 20
-7.62123
 30
1.68171e-15
  70
    32
  0
VERTEX
  8
0
  5
6B07
 10
661.040
 20
-7.62360
 30
1.68259e-15
  70
    32
  0
VERTEX
  8
0
  5
6B08
 10
661.021
 20
-7.62591
 30
1.68345e-15
  70
    32
  0
VERTEX
  8
0
  5
6B09
 10
661.002
 20
-7.62816
 30
1.68429e-15
  70
    32
  0
VERTEX
  8
0
  5
6B0A
 10
660.983
 20
-7.63035
 30
1.68510e-15
  70
    32
  0
VERTEX
  8
0
  5
6B0B
 10
660.964
 20
-7.63248
 30
1.68589e-15
  70
    32
  0
VERTEX
  8
0
  5
6B0C
 10
660.945
 20
-7.63456
 30
1.68666e-15
  70
    32
  0
VERTEX
  8
0
  5
6B0D
 10
660.926
 20
-7.63658
 30
1.68741e-15
  70
    32
  0
VERTEX
  8
0
  5
6B0E
 10
660.907
 20
-7.63853
 30
1.68814e-15
  70
    32
  0
VERTEX
  8
0
  5
6B0F
 10
660.888
 20
-7.64043
 30
1.68884e-15
  70
    32
  0
VERTEX
  8
0
  5
6B10
 10
660.869
 20
-7.64228
 30
1.68953e-15
  70
    32
  0
VERTEX
  8
0
  5
6B11
 10
660.850
 20
-7.64406
 30
1.69019e-15
  70
    32
  0
VERTEX
  8
0
  5
6B12
 10
660.831
 20
-7.64579
 30
1.69083e-15
  70
    32
  0
VERTEX
  8
0
  5
6B13
 10
660.812
 20
-7.64745
 30
1.69145e-15
  70
    32
  0
VERTEX
  8
0
  5
6B14
 10
660.793
 20
-7.64906
 30
1.69205e-15
  70
    32
  0
VERTEX
  8
0
  5
6B15
 10
660.774
 20
-7.65061
 30
1.69262e-15
  70
    32
  0
VERTEX
  8
0
  5
6B16
 10
660.755
 20
-7.65211
 30
1.69318e-15
  70
    32
  0
VERTEX
  8
0
  5
6B17
 10
660.736
 20
-7.65354
 30
1.69371e-15
  70
    32
  0
VERTEX
  8
0
  5
6B18
 10
660.717
 20
-7.65492
 30
1.69422e-15
  70
    32
  0
VERTEX
  8
0
  5
6B19
 10
660.698
 20
-7.65624
 30
1.69471e-15
  70
    32
  0
VERTEX
  8
0
  5
6B1A
 10
660.679
 20
-7.65750
 30
1.69518e-15
  70
    32
  0
VERTEX
  8
0
  5
6B1B
 10
660.660
 20
-7.65870
 30
1.69562e-15
  70
    32
  0
VERTEX
  8
0
  5
6B1C
 10
660.641
 20
-7.65985
 30
1.69605e-15
  70
    32
  0
VERTEX
  8
0
  5
6B1D
 10
660.622
 20
-7.66093
 30
1.69645e-15
  70
    32
  0
VERTEX
  8
0
  5
6B1E
 10
660.603
 20
-7.66196
 30
1.69683e-15
  70
    32
  0
VERTEX
  8
0
  5
6B1F
 10
660.584
 20
-7.66293
 30
1.69719e-15
  70
    32
  0
VERTEX
  8
0
  5
6B20
 10
660.565
 20
-7.66385
 30
1.69753e-15
  70
    32
  0
VERTEX
  8
0
  5
6B21
 10
660.547
 20
-7.66470
 30
1.69785e-15
  70
    32
  0
VERTEX
  8
0
  5
6B22
 10
660.528
 20
-7.66550
 30
1.69814e-15
  70
    32
  0
VERTEX
  8
0
  5
6B23
 10
660.509
 20
-7.66623
 30
1.69842e-15
  70
    32
  0
VERTEX
  8
0
  5
6B24
 10
660.490
 20
-7.66691
 30
1.69867e-15
  70
    32
  0
VERTEX
  8
0
  5
6B25
 10
660.471
 20
-7.66753
 30
1.69890e-15
  70
    32
  0
VERTEX
  8
0
  5
6B26
 10
660.452
 20
-7.66809
 30
1.69911e-15
  70
    32
  0
VERTEX
  8
0
  5
6B27
 10
660.433
 20
-7.66860
 30
1.69929e-15
  70
    32
  0
VERTEX
  8
0
  5
6B28
 10
660.414
 20
-7.66904
 30
1.69946e-15
  70
    32
  0
VERTEX
  8
0
  5
6B29
 10
660.395
 20
-7.66943
 30
1.69960e-15
  70
    32
  0
VERTEX
  8
0
  5
6B2A
 10
660.376
 20
-7.66975
 30
1.69972e-15
  70
    32
  0
VERTEX
  8
0
  5
6B2B
 10
660.357
 20
-7.67002
 30
1.69982e-15
  70
    32
  0
VERTEX
  8
0
  5
6B2C
 10
660.338
 20
-7.67023
 30
1.69990e-15
  70
    32
  0
VERTEX
  8
0
  5
6B2D
 10
660.319
 20
-7.67038
 30
1.69996e-15
  70
    32
  0
VERTEX
  8
0
  5
6B2E
 10
660.300
 20
-7.67047
 30
1.69999e-15
  70
    32
  0
VERTEX
  8
0
  5
6B2F
 10
660.281
 20
-7.67050
 30
1.70000e-15
  70
    32
  0
SEQEND
  8
0
  5
6B30
  0
LINE
  5
62A7
  8
0
  6
CONTINUOUS
 62
     3
 10
662.157548618029864
 20
-7.4010583512594517
 30
0.0000000000000016
 11
662.157548618029864
 21
-1.2163556534980551
 31
0.0000000000000003
210
0.0
220
1.0
230
-0.0000000000000002
  0
LINE
  5
62A8
  8
0
  6
CONTINUOUS
 62
     3
 10
649.0228299939660701
 20
-7.6704955993873796
 30
0.0000000000000017
 11
648.1519951185655373
 21
-7.6704955993873813
 31
0.0000000000000017
210
0.0
220
1.0
230
-0.0000000000000002
  0
LINE
  5
62A9
  8
0
  6
CONTINUOUS
 62
     3
 10
654.6519951185655373
 20
-7.6704955993873796
 30
0.0000000000000017
 11
649.0228299939662975
 21
-7.6704955993873796
 31
0.0000000000000017
210
0.0
220
1.0
230
-0.0000000000000002
  0
LINE
  5
62AA
  8
0
  6
CONTINUOUS
 62
     3
 10
660.2811602431650044
 20
-7.6704955993873796
 30
0.0000000000000017
 11
654.6519951185655373
 21
-7.6704955993873796
 31
0.0000000000000017
210
0.0
220
1.0
230
-0.0000000000000002
  0
LINE
  5
62AB
  8
0
  6
CONTINUOUS
 62
     3
 10
661.1519951185654236
 20
-7.6704955993873813
 30
0.0000000000000017
 11
660.2811602431646634
 21
-7.6704955993873796
 31
0.0000000000000017
210
0.0
220
1.0
230
-0.0000000000000002
  0
LINE
  5
62AC
  8
0
  6
CONTINUOUS
 62
     3
 10
646.3019951185633545
 20
0.3295044006125068
 30
-0.0000000000000001
 11
663.0019951185640821
 21
0.3295044006125068
 31
-0.0000000000000001
210
0.0
220
1.0
230
-0.0000000000000002
  0
LINE
  5
62AD
  8
0
  6
CONTINUOUS
 62
     3
 10
648.151995118565651
 20
-7.6704955993875972
 30
0.0000000000000017
 11
647.1464416190992779
 21
-7.4010583512592198
 31
0.0000000000000016
210
0.0
220
1.0
230
-0.0000000000000002
  0
LINE
  5
62AE
  8
0
  6
CONTINUOUS
 62
     3
 10
661.1519951185653099
 20
-7.6704955993875901
 30
0.0000000000000017
 11
662.1575486180300913
 21
-7.4010583512596684
 31
0.0000000000000016
210
0.0
220
1.0
230
-0.0000000000000002
  0
LINE
  5
62AF
  8
0
  6
CONTINUOUS
 62
     3
 10
647.1464416190992779
 20
-1.2163556534978059
 30
0.0000000000000003
 11
646.0967830325702153
 21
-0.834311171859165
 31
0.0000000000000002
210
0.0
220
1.0
230
-0.0000000000000002
  0
LINE
  5
62B0
  8
0
  6
CONTINUOUS
 62
     3
 10
662.1575486180300913
 20
-1.216355653498371
 30
0.0000000000000003
 11
663.2072072045612003
 21
-0.8343111718590476
 31
0.0000000000000002
210
0.0
220
1.0
230
-0.0000000000000002
  0
ARC
  5
62B1
  8
0
  6
CONTINUOUS
 62
     3
 10
-663.0019951185636273
 20
-0.2704955993875903
 30
0.0
 40
0.5999999999999664
210
0.0
220
-0.0000000000000002
230
-1.0
 50
90.0000000002171134
 51
249.9999999998049134
  0
ARC
  5
62B2
  8
0
  6
CONTINUOUS
 62
     3
 10
-646.3019951185635819
 20
-0.2704955993876432
 30
0.0
 40
0.5999999999999525
210
0.0
220
-0.0000000000000002
230
-1.0
 50
289.9999999998179874
 51
90.0000000000217142
  0
LINE
  5
62B3
  8
0
  6
CONTINUOUS
 62
     3
 10
679.6519951185636046
 20
-21.9999999999999503
 30
0.0000000000000049
 11
629.6519951185636046
 21
-21.9999999999999503
 31
0.0000000000000049
210
0.0
220
1.0
230
-0.0000000000000002
  0
LINE
  5
62B4
  8
0
  6
CONTINUOUS
 62
     3
 10
679.6519951185636046
 20
-24.9999999999999503
 30
0.0000000000000056
 11
629.6519951185636046
 21
-24.9999999999999503
 31
0.0000000000000056
210
0.0
220
1.0
230
-0.0000000000000002
  0
LINE
  5
62B5
  8
0
  6
CONTINUOUS
 62
     3
 10
629.6519951185636046
 20
-24.9999999999999503
 30
0.0000000000000056
 11
629.6519951185636046
 21
-21.9999999999999503
 31
0.0000000000000049
210
0.0
220
1.0
230
-0.0000000000000002
  0
LINE
  5
62B6
  8
0
  6
CONTINUOUS
 62
     3
 10
679.6519951185636046
 20
-24.9999999999999503
 30
0.0000000000000056
 11
679.6519951185636046
 21
-21.9999999999999503
 31
0.0000000000000049
210
0.0
220
1.0
230
-0.0000000000000002
  0
LINE
  5
62B7
  8
0
  6
CONTINUOUS
 62
     3
 10
650.6519951185637183
 20
-13.9999999999999503
 30
0.0000000000000031
 11
654.6519951185636046
 21
-13.9999999999999503
 31
0.0000000000000031
210
0.0
220
1.0
230
-0.0000000000000002
  0
LINE
  5
62B8
  8
0
  6
CONTINUOUS
 62
     3
 10
654.6519951185636046
 20
-13.9999999999999503
 30
0.0000000000000031
 11
658.6519951185636046
 21
-13.9999999999999503
 31
0.0000000000000031
210
0.0
220
1.0
230
-0.0000000000000002
  0
LINE
  5
62B9
  8
0
  6
CONTINUOUS
 62
     3
 10
649.6519951185637183
 20
-12.9999999999999396
 30
0.0000000000000029
 11
654.6519951185636046
 21
-12.9999999999999396
 31
0.0000000000000029
210
0.0
220
1.0
230
-0.0000000000000002
  0
LINE
  5
62BA
  8
0
  6
CONTINUOUS
 62
     3
 10
654.6519951185636046
 20
-12.9999999999999396
 30
0.0000000000000029
 11
659.6519951185637183
 21
-12.9999999999999396
 31
0.0000000000000029
210
0.0
220
1.0
230
-0.0000000000000002
  0
LINE
  5
62BB
  8
0
  6
CONTINUOUS
 62
     3
 10
649.6519951185637183
 20
-14.9999999999999396
 30
0.0000000000000033
 11
654.6519951185636046
 21
-14.9999999999999503
 31
0.0000000000000033
210
0.0
220
1.0
230
-0.0000000000000002
  0
LINE
  5
62BC
  8
0
  6
CONTINUOUS
 62
     3
 10
654.6519951185636046
 20
-14.9999999999999396
 30
0.0000000000000033
 11
659.6519951185637183
 21
-14.9999999999999396
 31
0.0000000000000033
210
0.0
220
1.0
230
-0.0000000000000002
  0
LINE
  5
62BD
  8
0
  6
CONTINUOUS
 62
     3
 10
650.6519951185637183
 20
-15.9999999999999503
 30
0.0000000000000036
 11
654.6519951185636046
 21
-15.9999999999999503
 31
0.0000000000000036
210
0.0
220
1.0
230
-0.0000000000000002
  0
LINE
  5
62BE
  8
0
  6
CONTINUOUS
 62
     3
 10
654.6519951185636046
 20
-15.9999999999999503
 30
0.0000000000000036
 11
658.6519951185636046
 21
-15.9999999999999503
 31
0.0000000000000036
210
0.0
220
1.0
230
-0.0000000000000002
  0
LINE
  5
62BF
  8
0
  6
CONTINUOUS
 62
     3
 10
649.6519951185637183
 20
-16.9999999999999503
 30
0.0000000000000038
 11
654.6519951185636046
 21
-16.9999999999999503
 31
0.0000000000000038
210
0.0
220
1.0
230
-0.0000000000000002
  0
LINE
  5
62C0
  8
0
  6
CONTINUOUS
 62
     3
 10
654.6519951185636046
 20
-16.9999999999999503
 30
0.0000000000000038
 11
659.6519951185637183
 21
-16.9999999999999503
 31
0.0000000000000038
210
0.0
220
1.0
230
-0.0000000000000002
  0
LINE
  5
62C1
  8
0
  6
CONTINUOUS
 62
     3
 10
650.6519951185637183
 20
-17.9999999999999396
 30
0.000000000000004
 11
654.6519951185636046
 21
-17.9999999999999396
 31
0.000000000000004
210
0.0
220
1.0
230
-0.0000000000000002
  0
LINE
  5
62C2
  8
0
  6
CONTINUOUS
 62
     3
 10
654.6519951185636046
 20
-17.9999999999999396
 30
0.000000000000004
 11
658.6519951185636046
 21
-17.9999999999999396
 31
0.000000000000004
210
0.0
220
1.0
230
-0.0000000000000002
  0
LINE
  5
62C3
  8
0
  6
CONTINUOUS
 62
     3
 10
649.6519951185637183
 20
-18.9999999999999503
 30
0.0000000000000042
 11
654.6519951185636046
 21
-18.9999999999999503
 31
0.0000000000000042
210
0.0
220
1.0
230
-0.0000000000000002
  0
LINE
  5
62C4
  8
0
  6
CONTINUOUS
 62
     3
 10
654.6519951185636046
 20
-18.9999999999999503
 30
0.0000000000000042
 11
659.6519951185637183
 21
-18.9999999999999503
 31
0.0000000000000042
210
0.0
220
1.0
230
-0.0000000000000002
  0
LINE
  5
62C5
  8
0
  6
CONTINUOUS
 62
     3
 10
650.6519951185637183
 20
-19.9999999999999396
 30
0.0000000000000044
 11
654.6519951185636046
 21
-19.9999999999999396
 31
0.0000000000000044
210
0.0
220
1.0
230
-0.0000000000000002
  0
LINE
  5
62C6
  8
0
  6
CONTINUOUS
 62
     3
 10
654.6519951185636046
 20
-19.9999999999999396
 30
0.0000000000000044
 11
658.6519951185636046
 21
-19.9999999999999396
 31
0.0000000000000044
210
0.0
220
1.0
230
-0.0000000000000002
  0
LINE
  5
62C7
  8
0
  6
CONTINUOUS
 62
     3
 10
649.6519951185637183
 20
-20.9999999999999503
 30
0.0000000000000047
 11
654.6519951185636046
 21
-20.9999999999999503
 31
0.0000000000000047
210
0.0
220
1.0
230
-0.0000000000000002
  0
LINE
  5
62C8
  8
0
  6
CONTINUOUS
 62
     3
 10
654.6519951185636046
 20
-20.9999999999999503
 30
0.0000000000000047
 11
659.6519951185637183
 21
-20.9999999999999503
 31
0.0000000000000047
210
0.0
220
1.0
230
-0.0000000000000002
  0
LINE
  5
62C9
  8
0
  6
CONTINUOUS
 62
     3
 10
650.6519951185637183
 20
-11.9999999999999396
 30
0.0000000000000027
 11
654.6519951185636046
 21
-11.9999999999999396
 31
0.0000000000000027
210
0.0
220
1.0
230
-0.0000000000000002
  0
LINE
  5
62CA
  8
0
  6
CONTINUOUS
 62
     3
 10
654.6519951185636046
 20
-11.9999999999999396
 30
0.0000000000000027
 11
658.6519951185636046
 21
-11.9999999999999396
 31
0.0000000000000027
210
0.0
220
1.0
230
-0.0000000000000002
  0
LINE
  5
62CB
  8
0
  6
CONTINUOUS
 62
     3
 10
650.6519951185637183
 20
24.0000000000000711
 30
-0.0000000000000053
 11
654.6519951185636046
 21
24.0000000000000711
 31
-0.0000000000000053
210
0.0
220
1.0
230
-0.0000000000000002
  0
LINE
  5
62CC
  8
0
  6
CONTINUOUS
 62
     3
 10
654.6519951185636046
 20
24.0000000000000711
 30
-0.0000000000000053
 11
658.6519951185636046
 21
24.0000000000000711
 31
-0.0000000000000053
210
0.0
220
1.0
230
-0.0000000000000002
  0
LINE
  5
62CD
  8
0
  6
CONTINUOUS
 62
     3
 10
653.8729010466219052
 20
25.0000000000000711
 30
-0.0000000000000056
 11
655.4310891905055314
 21
25.0000000000000711
 31
-0.0000000000000056
210
0.0
220
1.0
230
-0.0000000000000002
  0
LINE
  5
62CE
  8
0
  6
CONTINUOUS
 62
     3
 10
649.6519951185637183
 20
25.0000000000000711
 30
-0.0000000000000056
 11
653.8729010466219052
 21
25.0000000000000711
 31
-0.0000000000000056
210
0.0
220
1.0
230
-0.0000000000000002
  0
LINE
  5
62CF
  8
0
  6
CONTINUOUS
 62
     3
 10
655.4310891905056451
 20
25.0000000000000711
 30
-0.0000000000000056
 11
659.6519951185637183
 21
25.0000000000000711
 31
-0.0000000000000056
210
0.0
220
1.0
230
-0.0000000000000002
  0
LINE
  5
62D0
  8
0
  6
CONTINUOUS
 62
     3
 10
649.6519951185637183
 20
23.0000000000000604
 30
-0.0000000000000051
 11
654.6519951185636046
 21
23.0000000000000604
 31
-0.0000000000000051
210
0.0
220
1.0
230
-0.0000000000000002
  0
LINE
  5
62D1
  8
0
  6
CONTINUOUS
 62
     3
 10
654.6519951185636046
 20
23.0000000000000604
 30
-0.0000000000000051
 11
659.6519951185637183
 21
23.0000000000000604
 31
-0.0000000000000051
210
0.0
220
1.0
230
-0.0000000000000002
  0
LINE
  5
62D2
  8
0
  6
CONTINUOUS
 62
     3
 10
650.6519951185637183
 20
22.0000000000000604
 30
-0.0000000000000049
 11
654.6519951185636046
 21
22.0000000000000604
 31
-0.0000000000000049
210
0.0
220
1.0
230
-0.0000000000000002
  0
LINE
  5
62D3
  8
0
  6
CONTINUOUS
 62
     3
 10
654.6519951185636046
 20
22.0000000000000604
 30
-0.0000000000000049
 11
658.6519951185636046
 21
22.0000000000000604
 31
-0.0000000000000049
210
0.0
220
1.0
230
-0.0000000000000002
  0
LINE
  5
62D4
  8
0
  6
CONTINUOUS
 62
     3
 10
649.6519951185637183
 20
21.0000000000000604
 30
-0.0000000000000047
 11
654.6519951185636046
 21
21.0000000000000604
 31
-0.0000000000000047
210
0.0
220
1.0
230
-0.0000000000000002
  0
LINE
  5
62D5
  8
0
  6
CONTINUOUS
 62
     3
 10
654.6519951185636046
 20
21.0000000000000604
 30
-0.0000000000000047
 11
659.6519951185637183
 21
21.0000000000000604
 31
-0.0000000000000047
210
0.0
220
1.0
230
-0.0000000000000002
  0
LINE
  5
62D6
  8
0
  6
CONTINUOUS
 62
     3
 10
650.6519951185637183
 20
20.0000000000000711
 30
-0.0000000000000044
 11
654.6519951185636046
 21
20.0000000000000711
 31
-0.0000000000000044
210
0.0
220
1.0
230
-0.0000000000000002
  0
LINE
  5
62D7
  8
0
  6
CONTINUOUS
 62
     3
 10
654.6519951185636046
 20
20.0000000000000711
 30
-0.0000000000000044
 11
658.6519951185636046
 21
20.0000000000000711
 31
-0.0000000000000044
210
0.0
220
1.0
230
-0.0000000000000002
  0
LINE
  5
62D8
  8
0
  6
CONTINUOUS
 62
     3
 10
649.6519951185637183
 20
19.0000000000000604
 30
-0.0000000000000042
 11
654.6519951185636046
 21
19.0000000000000604
 31
-0.0000000000000042
210
0.0
220
1.0
230
-0.0000000000000002
  0
LINE
  5
62D9
  8
0
  6
CONTINUOUS
 62
     3
 10
654.6519951185636046
 20
19.0000000000000604
 30
-0.0000000000000042
 11
659.6519951185637183
 21
19.0000000000000604
 31
-0.0000000000000042
210
0.0
220
1.0
230
-0.0000000000000002
  0
LINE
  5
62DA
  8
0
  6
CONTINUOUS
 62
     3
 10
650.6519951185637183
 20
18.0000000000000604
 30
-0.000000000000004
 11
654.6519951185636046
 21
18.0000000000000604
 31
-0.000000000000004
210
0.0
220
1.0
230
-0.0000000000000002
  0
LINE
  5
62DB
  8
0
  6
CONTINUOUS
 62
     3
 10
654.6519951185636046
 20
18.0000000000000604
 30
-0.000000000000004
 11
658.6519951185636046
 21
18.0000000000000604
 31
-0.000000000000004
210
0.0
220
1.0
230
-0.0000000000000002
  0
LINE
  5
62DC
  8
0
  6
CONTINUOUS
 62
     3
 10
649.6519951185637183
 20
17.0000000000000604
 30
-0.0000000000000038
 11
654.6519951185636046
 21
17.0000000000000604
 31
-0.0000000000000038
210
0.0
220
1.0
230
-0.0000000000000002
  0
LINE
  5
62DD
  8
0
  6
CONTINUOUS
 62
     3
 10
654.6519951185636046
 20
17.0000000000000604
 30
-0.0000000000000038
 11
659.6519951185637183
 21
17.0000000000000604
 31
-0.0000000000000038
210
0.0
220
1.0
230
-0.0000000000000002
  0
LINE
  5
62DE
  8
0
  6
CONTINUOUS
 62
     3
 10
650.6519951185637183
 20
16.0000000000000604
 30
-0.0000000000000036
 11
654.6519951185636046
 21
16.0000000000000604
 31
-0.0000000000000036
210
0.0
220
1.0
230
-0.0000000000000002
  0
LINE
  5
62DF
  8
0
  6
CONTINUOUS
 62
     3
 10
654.6519951185636046
 20
16.0000000000000604
 30
-0.0000000000000036
 11
658.6519951185636046
 21
16.0000000000000604
 31
-0.0000000000000036
210
0.0
220
1.0
230
-0.0000000000000002
  0
LINE
  5
62E0
  8
0
  6
CONTINUOUS
 62
     3
 10
649.6519951185637183
 20
15.0000000000000604
 30
-0.0000000000000033
 11
654.6519951185636046
 21
15.0000000000000604
 31
-0.0000000000000033
210
0.0
220
1.0
230
-0.0000000000000002
  0
LINE
  5
62E1
  8
0
  6
CONTINUOUS
 62
     3
 10
654.6519951185636046
 20
15.0000000000000604
 30
-0.0000000000000033
 11
659.6519951185637183
 21
15.0000000000000604
 31
-0.0000000000000033
210
0.0
220
1.0
230
-0.0000000000000002
  0
LINE
  5
62E2
  8
0
  6
CONTINUOUS
 62
     3
 10
650.6519951185637183
 20
14.0000000000000604
 30
-0.0000000000000031
 11
654.6519951185636046
 21
14.0000000000000604
 31
-0.0000000000000031
210
0.0
220
1.0
230
-0.0000000000000002
  0
LINE
  5
62E3
  8
0
  6
CONTINUOUS
 62
     3
 10
654.6519951185636046
 20
14.0000000000000604
 30
-0.0000000000000031
 11
658.6519951185636046
 21
14.0000000000000604
 31
-0.0000000000000031
210
0.0
220
1.0
230
-0.0000000000000002
  0
LINE
  5
62E4
  8
0
  6
CONTINUOUS
 62
     3
 10
649.6519951185637183
 20
13.0000000000000604
 30
-0.0000000000000029
 11
654.6519951185636046
 21
13.0000000000000604
 31
-0.0000000000000029
210
0.0
220
1.0
230
-0.0000000000000002
  0
LINE
  5
62E5
  8
0
  6
CONTINUOUS
 62
     3
 10
654.6519951185636046
 20
13.0000000000000604
 30
-0.0000000000000029
 11
659.6519951185637183
 21
13.0000000000000604
 31
-0.0000000000000029
210
0.0
220
1.0
230
-0.0000000000000002
  0
LINE
  5
62E6
  8
0
  6
CONTINUOUS
 62
     3
 10
650.6519951185637183
 20
12.0000000000000604
 30
-0.0000000000000027
 11
654.6519951185636046
 21
12.0000000000000604
 31
-0.0000000000000027
210
0.0
220
1.0
230
-0.0000000000000002
  0
LINE
  5
62E7
  8
0
  6
CONTINUOUS
 62
     3
 10
654.6519951185636046
 20
12.0000000000000604
 30
-0.0000000000000027
 11
658.6519951185636046
 21
12.0000000000000604
 31
-0.0000000000000027
210
0.0
220
1.0
230
-0.0000000000000002
  0
LINE
  5
62E8
  8
0
  6
CONTINUOUS
 62
     3
 10
649.6519951185637183
 20
11.0000000000000604
 30
-0.0000000000000024
 11
654.6519951185636046
 21
11.0000000000000604
 31
-0.0000000000000024
210
0.0
220
1.0
230
-0.0000000000000002
  0
LINE
  5
62E9
  8
0
  6
CONTINUOUS
 62
     3
 10
654.6519951185636046
 20
11.0000000000000604
 30
-0.0000000000000024
 11
659.6519951185637183
 21
11.0000000000000604
 31
-0.0000000000000024
210
0.0
220
1.0
230
-0.0000000000000002
  0
LINE
  5
62EA
  8
0
  6
CONTINUOUS
 62
     3
 10
650.6519951185637183
 20
10.0000000000000604
 30
-0.0000000000000022
 11
654.6519951185636046
 21
10.0000000000000604
 31
-0.0000000000000022
210
0.0
220
1.0
230
-0.0000000000000002
  0
LINE
  5
62EB
  8
0
  6
CONTINUOUS
 62
     3
 10
654.6519951185636046
 20
10.0000000000000604
 30
-0.0000000000000022
 11
658.6519951185636046
 21
10.0000000000000604
 31
-0.0000000000000022
210
0.0
220
1.0
230
-0.0000000000000002
  0
LINE
  5
62EC
  8
0
  6
CONTINUOUS
 62
     3
 10
649.6519951185637183
 20
9.0000000000000622
 30
-0.000000000000002
 11
654.6519951185636046
 21
9.0000000000000622
 31
-0.000000000000002
210
0.0
220
1.0
230
-0.0000000000000002
  0
LINE
  5
62ED
  8
0
  6
CONTINUOUS
 62
     3
 10
654.6519951185636046
 20
9.0000000000000622
 30
-0.000000000000002
 11
659.6519951185637183
 21
9.0000000000000622
 31
-0.000000000000002
210
0.0
220
1.0
230
-0.0000000000000002
  0
LINE
  5
62EE
  8
0
  6
CONTINUOUS
 62
     3
 10
650.6519951185637183
 20
8.0000000000000622
 30
-0.0000000000000018
 11
654.6519951185636046
 21
8.0000000000000622
 31
-0.0000000000000018
210
0.0
220
1.0
230
-0.0000000000000002
  0
LINE
  5
62EF
  8
0
  6
CONTINUOUS
 62
     3
 10
654.6519951185636046
 20
8.0000000000000622
 30
-0.0000000000000018
 11
658.6519951185636046
 21
8.0000000000000622
 31
-0.0000000000000018
210
0.0
220
1.0
230
-0.0000000000000002
  0
LINE
  5
62F0
  8
0
  6
CONTINUOUS
 62
     3
 10
649.6519951185637183
 20
7.0000000000000622
 30
-0.0000000000000016
 11
654.6519951185636046
 21
7.0000000000000622
 31
-0.0000000000000016
210
0.0
220
1.0
230
-0.0000000000000002
  0
LINE
  5
62F1
  8
0
  6
CONTINUOUS
 62
     3
 10
654.6519951185636046
 20
7.0000000000000622
 30
-0.0000000000000016
 11
659.6519951185637183
 21
7.0000000000000622
 31
-0.0000000000000016
210
0.0
220
1.0
230
-0.0000000000000002
  0
LINE
  5
62F2
  8
0
  6
CONTINUOUS
 62
     3
 10
650.6519951185637183
 20
6.0000000000000622
 30
-0.0000000000000013
 11
654.6519951185636046
 21
6.0000000000000622
 31
-0.0000000000000013
210
0.0
220
1.0
230
-0.0000000000000002
  0
LINE
  5
62F3
  8
0
  6
CONTINUOUS
 62
     3
 10
654.6519951185636046
 20
6.0000000000000622
 30
-0.0000000000000013
 11
658.6519951185636046
 21
6.0000000000000622
 31
-0.0000000000000013
210
0.0
220
1.0
230
-0.0000000000000002
  0
LINE
  5
62F4
  8
0
  6
CONTINUOUS
 62
     3
 10
649.6519951185637183
 20
5.0000000000000613
 30
-0.0000000000000011
 11
654.6519951185636046
 21
5.0000000000000613
 31
-0.0000000000000011
210
0.0
220
1.0
230
-0.0000000000000002
  0
LINE
  5
62F5
  8
0
  6
CONTINUOUS
 62
     3
 10
654.6519951185636046
 20
5.0000000000000613
 30
-0.0000000000000011
 11
659.6519951185637183
 21
5.0000000000000613
 31
-0.0000000000000011
210
0.0
220
1.0
230
-0.0000000000000002
  0
LINE
  5
62F6
  8
0
  6
CONTINUOUS
 62
     3
 10
650.6519951185637183
 20
4.0000000000000613
 30
-0.0000000000000009
 11
654.6519951185636046
 21
4.0000000000000613
 31
-0.0000000000000009
210
0.0
220
1.0
230
-0.0000000000000002
  0
LINE
  5
62F7
  8
0
  6
CONTINUOUS
 62
     3
 10
654.6519951185636046
 20
4.0000000000000613
 30
-0.0000000000000009
 11
658.6519951185636046
 21
4.0000000000000613
 31
-0.0000000000000009
210
0.0
220
1.0
230
-0.0000000000000002
  0
LINE
  5
62F8
  8
0
  6
CONTINUOUS
 62
     3
 10
649.6519951185637183
 20
3.0000000000000608
 30
-0.0000000000000007
 11
654.6519951185636046
 21
3.0000000000000608
 31
-0.0000000000000007
210
0.0
220
1.0
230
-0.0000000000000002
  0
LINE
  5
62F9
  8
0
  6
CONTINUOUS
 62
     3
 10
654.6519951185636046
 20
3.0000000000000608
 30
-0.0000000000000007
 11
659.6519951185637183
 21
3.0000000000000608
 31
-0.0000000000000007
210
0.0
220
1.0
230
-0.0000000000000002
  0
LINE
  5
62FA
  8
0
  6
CONTINUOUS
 62
     3
 10
650.6519951185637183
 20
2.00000000000006
 30
-0.0000000000000004
 11
654.6519951185636046
 21
2.00000000000006
 31
-0.0000000000000004
210
0.0
220
1.0
230
-0.0000000000000002
  0
LINE
  5
62FB
  8
0
  6
CONTINUOUS
 62
     3
 10
654.6519951185636046
 20
2.00000000000006
 30
-0.0000000000000004
 11
658.6519951185636046
 21
2.00000000000006
 31
-0.0000000000000004
210
0.0
220
1.0
230
-0.0000000000000002
  0
LINE
  5
62FC
  8
0
  6
CONTINUOUS
 62
     3
 10
649.6519951185637183
 20
1.00000000000006
 30
-0.0000000000000002
 11
654.6519951185636046
 21
1.00000000000006
 31
-0.0000000000000002
210
0.0
220
1.0
230
-0.0000000000000002
  0
LINE
  5
62FD
  8
0
  6
CONTINUOUS
 62
     3
 10
654.6519951185636046
 20
1.00000000000006
 30
-0.0000000000000002
 11
659.6519951185637183
 21
1.00000000000006
 31
-0.0000000000000002
210
0.0
220
1.0
230
-0.0000000000000002
  0
LINE
  5
62FE
  8
0
  6
CONTINUOUS
 62
     3
 10
650.6519951185637183
 20
-7.9999999999999414
 30
0.0000000000000018
 11
654.6519951185636046
 21
-7.9999999999999414
 31
0.0000000000000018
210
0.0
220
1.0
230
-0.0000000000000002
  0
LINE
  5
62FF
  8
0
  6
CONTINUOUS
 62
     3
 10
654.6519951185636046
 20
-7.9999999999999414
 30
0.0000000000000018
 11
658.6519951185636046
 21
-7.9999999999999414
 31
0.0000000000000018
210
0.0
220
1.0
230
-0.0000000000000002
  0
LINE
  5
6300
  8
0
  6
CONTINUOUS
 62
     3
 10
649.6519951185637183
 20
-8.9999999999999414
 30
0.000000000000002
 11
654.6519951185636046
 21
-8.9999999999999414
 31
0.000000000000002
210
0.0
220
1.0
230
-0.0000000000000002
  0
LINE
  5
6301
  8
0
  6
CONTINUOUS
 62
     3
 10
654.6519951185636046
 20
-8.9999999999999414
 30
0.000000000000002
 11
659.6519951185637183
 21
-8.9999999999999414
 31
0.000000000000002
210
0.0
220
1.0
230
-0.0000000000000002
  0
LINE
  5
6302
  8
0
  6
CONTINUOUS
 62
     3
 10
650.6519951185637183
 20
-9.9999999999999414
 30
0.0000000000000022
 11
654.6519951185636046
 21
-9.9999999999999414
 31
0.0000000000000022
210
0.0
220
1.0
230
-0.0000000000000002
  0
LINE
  5
6303
  8
0
  6
CONTINUOUS
 62
     3
 10
654.6519951185636046
 20
-9.9999999999999414
 30
0.0000000000000022
 11
658.6519951185636046
 21
-9.9999999999999414
 31
0.0000000000000022
210
0.0
220
1.0
230
-0.0000000000000002
  0
LINE
  5
6304
  8
0
  6
CONTINUOUS
 62
     3
 10
649.6519951185637183
 20
-10.9999999999999396
 30
0.0000000000000024
 11
654.6519951185636046
 21
-10.9999999999999396
 31
0.0000000000000024
210
0.0
220
1.0
230
-0.0000000000000002
  0
LINE
  5
6305
  8
0
  6
CONTINUOUS
 62
     3
 10
654.6519951185636046
 20
-10.9999999999999396
 30
0.0000000000000024
 11
659.6519951185637183
 21
-10.9999999999999396
 31
0.0000000000000024
210
0.0
220
1.0
230
-0.0000000000000002
  0
LINE
  5
6306
  8
0
  6
CONTINUOUS
 62
     3
 10
655.4310891905056451
 20
28.0000000000000711
 30
-0.0000000000000062
 11
658.6519951185636046
 21
28.0000000000000711
 31
-0.0000000000000062
210
0.0
220
1.0
230
-0.0000000000000002
  0
LINE
  5
6307
  8
0
  6
CONTINUOUS
 62
     3
 10
650.6519951185637183
 20
28.0000000000000711
 30
-0.0000000000000062
 11
653.8729010466219052
 21
28.0000000000000711
 31
-0.0000000000000062
210
0.0
220
1.0
230
-0.0000000000000002
  0
POLYLINE
  8
0
  5
6B31
  62
3
  66
     1
 10
0.000000
 20
0.000000
 30
0.000000
  70
     8
  0
VERTEX
  8
0
  5
6B32
 10
655.431
 20
28.0000
 30
-6.20000e-15
  70
    32
  0
VERTEX
  8
0
  5
6B33
 10
655.431
 20
27.9906
 30
-6.19788e-15
  70
    32
  0
VERTEX
  8
0
  5
6B34
 10
655.431
 20
27.9812
 30
-6.19576e-15
  70
    32
  0
VERTEX
  8
0
  5
6B35
 10
655.431
 20
27.9718
 30
-6.19365e-15
  70
    32
  0
VERTEX
  8
0
  5
6B36
 10
655.431
 20
27.9623
 30
-6.19153e-15
  70
    32
  0
VERTEX
  8
0
  5
6B37
 10
655.431
 20
27.9528
 30
-6.18942e-15
  70
    32
  0
VERTEX
  8
0
  5
6B38
 10
655.431
 20
27.9433
 30
-6.18730e-15
  70
    32
  0
VERTEX
  8
0
  5
6B39
 10
655.431
 20
27.9338
 30
-6.18519e-15
  70
    32
  0
VERTEX
  8
0
  5
6B3A
 10
655.431
 20
27.9243
 30
-6.18308e-15
  70
    32
  0
VERTEX
  8
0
  5
6B3B
 10
655.431
 20
27.9147
 30
-6.18096e-15
  70
    32
  0
VERTEX
  8
0
  5
6B3C
 10
655.431
 20
27.9051
 30
-6.17885e-15
  70
    32
  0
VERTEX
  8
0
  5
6B3D
 10
655.431
 20
27.8955
 30
-6.17674e-15
  70
    32
  0
VERTEX
  8
0
  5
6B3E
 10
655.431
 20
27.8859
 30
-6.17463e-15
  70
    32
  0
VERTEX
  8
0
  5
6B3F
 10
655.431
 20
27.8762
 30
-6.17252e-15
  70
    32
  0
VERTEX
  8
0
  5
6B40
 10
655.431
 20
27.8665
 30
-6.17041e-15
  70
    32
  0
VERTEX
  8
0
  5
6B41
 10
655.431
 20
27.8568
 30
-6.16830e-15
  70
    32
  0
VERTEX
  8
0
  5
6B42
 10
655.431
 20
27.8471
 30
-6.16620e-15
  70
    32
  0
VERTEX
  8
0
  5
6B43
 10
655.431
 20
27.8374
 30
-6.16409e-15
  70
    32
  0
VERTEX
  8
0
  5
6B44
 10
655.431
 20
27.8276
 30
-6.16198e-15
  70
    32
  0
VERTEX
  8
0
  5
6B45
 10
655.431
 20
27.8178
 30
-6.15988e-15
  70
    32
  0
VERTEX
  8
0
  5
6B46
 10
655.431
 20
27.8080
 30
-6.15777e-15
  70
    32
  0
VERTEX
  8
0
  5
6B47
 10
655.431
 20
27.7981
 30
-6.15567e-15
  70
    32
  0
VERTEX
  8
0
  5
6B48
 10
655.431
 20
27.7883
 30
-6.15356e-15
  70
    32
  0
VERTEX
  8
0
  5
6B49
 10
655.431
 20
27.7784
 30
-6.15146e-15
  70
    32
  0
VERTEX
  8
0
  5
6B4A
 10
655.431
 20
27.7685
 30
-6.14935e-15
  70
    32
  0
VERTEX
  8
0
  5
6B4B
 10
655.431
 20
27.7586
 30
-6.14725e-15
  70
    32
  0
VERTEX
  8
0
  5
6B4C
 10
655.431
 20
27.7486
 30
-6.14515e-15
  70
    32
  0
VERTEX
  8
0
  5
6B4D
 10
655.431
 20
27.7386
 30
-6.14305e-15
  70
    32
  0
VERTEX
  8
0
  5
6B4E
 10
655.431
 20
27.7286
 30
-6.14094e-15
  70
    32
  0
VERTEX
  8
0
  5
6B4F
 10
655.431
 20
27.7186
 30
-6.13884e-15
  70
    32
  0
VERTEX
  8
0
  5
6B50
 10
655.431
 20
27.7085
 30
-6.13674e-15
  70
    32
  0
VERTEX
  8
0
  5
6B51
 10
655.431
 20
27.6985
 30
-6.13464e-15
  70
    32
  0
VERTEX
  8
0
  5
6B52
 10
655.431
 20
27.6884
 30
-6.13254e-15
  70
    32
  0
VERTEX
  8
0
  5
6B53
 10
655.431
 20
27.6783
 30
-6.13044e-15
  70
    32
  0
VERTEX
  8
0
  5
6B54
 10
655.431
 20
27.6681
 30
-6.12834e-15
  70
    32
  0
VERTEX
  8
0
  5
6B55
 10
655.431
 20
27.6579
 30
-6.12624e-15
  70
    32
  0
VERTEX
  8
0
  5
6B56
 10
655.431
 20
27.6477
 30
-6.12414e-15
  70
    32
  0
VERTEX
  8
0
  5
6B57
 10
655.431
 20
27.6375
 30
-6.12204e-15
  70
    32
  0
VERTEX
  8
0
  5
6B58
 10
655.431
 20
27.6273
 30
-6.11994e-15
  70
    32
  0
VERTEX
  8
0
  5
6B59
 10
655.431
 20
27.6170
 30
-6.11784e-15
  70
    32
  0
VERTEX
  8
0
  5
6B5A
 10
655.431
 20
27.6067
 30
-6.11574e-15
  70
    32
  0
VERTEX
  8
0
  5
6B5B
 10
655.431
 20
27.5964
 30
-6.11364e-15
  70
    32
  0
VERTEX
  8
0
  5
6B5C
 10
655.431
 20
27.5861
 30
-6.11154e-15
  70
    32
  0
VERTEX
  8
0
  5
6B5D
 10
655.431
 20
27.5757
 30
-6.10944e-15
  70
    32
  0
VERTEX
  8
0
  5
6B5E
 10
655.431
 20
27.5653
 30
-6.10734e-15
  70
    32
  0
VERTEX
  8
0
  5
6B5F
 10
655.431
 20
27.5549
 30
-6.10525e-15
  70
    32
  0
VERTEX
  8
0
  5
6B60
 10
655.431
 20
27.5444
 30
-6.10315e-15
  70
    32
  0
VERTEX
  8
0
  5
6B61
 10
655.431
 20
27.5340
 30
-6.10105e-15
  70
    32
  0
VERTEX
  8
0
  5
6B62
 10
655.431
 20
27.5235
 30
-6.09895e-15
  70
    32
  0
VERTEX
  8
0
  5
6B63
 10
655.431
 20
27.5130
 30
-6.09685e-15
  70
    32
  0
VERTEX
  8
0
  5
6B64
 10
655.431
 20
27.5024
 30
-6.09475e-15
  70
    32
  0
VERTEX
  8
0
  5
6B65
 10
655.431
 20
27.4919
 30
-6.09266e-15
  70
    32
  0
VERTEX
  8
0
  5
6B66
 10
655.431
 20
27.4813
 30
-6.09056e-15
  70
    32
  0
VERTEX
  8
0
  5
6B67
 10
655.431
 20
27.4706
 30
-6.08846e-15
  70
    32
  0
VERTEX
  8
0
  5
6B68
 10
655.431
 20
27.4600
 30
-6.08636e-15
  70
    32
  0
VERTEX
  8
0
  5
6B69
 10
655.431
 20
27.4493
 30
-6.08426e-15
  70
    32
  0
VERTEX
  8
0
  5
6B6A
 10
655.431
 20
27.4386
 30
-6.08216e-15
  70
    32
  0
VERTEX
  8
0
  5
6B6B
 10
655.431
 20
27.4279
 30
-6.08006e-15
  70
    32
  0
VERTEX
  8
0
  5
6B6C
 10
655.431
 20
27.4171
 30
-6.07796e-15
  70
    32
  0
VERTEX
  8
0
  5
6B6D
 10
655.431
 20
27.4064
 30
-6.07586e-15
  70
    32
  0
VERTEX
  8
0
  5
6B6E
 10
655.431
 20
27.3956
 30
-6.07376e-15
  70
    32
  0
VERTEX
  8
0
  5
6B6F
 10
655.431
 20
27.3847
 30
-6.07166e-15
  70
    32
  0
VERTEX
  8
0
  5
6B70
 10
655.431
 20
27.3739
 30
-6.06956e-15
  70
    32
  0
VERTEX
  8
0
  5
6B71
 10
655.431
 20
27.3630
 30
-6.06746e-15
  70
    32
  0
VERTEX
  8
0
  5
6B72
 10
655.431
 20
27.3521
 30
-6.06536e-15
  70
    32
  0
VERTEX
  8
0
  5
6B73
 10
655.431
 20
27.3411
 30
-6.06326e-15
  70
    32
  0
VERTEX
  8
0
  5
6B74
 10
655.431
 20
27.3302
 30
-6.06116e-15
  70
    32
  0
VERTEX
  8
0
  5
6B75
 10
655.431
 20
27.3192
 30
-6.05906e-15
  70
    32
  0
VERTEX
  8
0
  5
6B76
 10
655.431
 20
27.3082
 30
-6.05695e-15
  70
    32
  0
VERTEX
  8
0
  5
6B77
 10
655.431
 20
27.2971
 30
-6.05485e-15
  70
    32
  0
VERTEX
  8
0
  5
6B78
 10
655.431
 20
27.2861
 30
-6.05275e-15
  70
    32
  0
VERTEX
  8
0
  5
6B79
 10
655.431
 20
27.2750
 30
-6.05065e-15
  70
    32
  0
VERTEX
  8
0
  5
6B7A
 10
655.431
 20
27.2638
 30
-6.04854e-15
  70
    32
  0
VERTEX
  8
0
  5
6B7B
 10
655.431
 20
27.2527
 30
-6.04644e-15
  70
    32
  0
VERTEX
  8
0
  5
6B7C
 10
655.431
 20
27.2415
 30
-6.04433e-15
  70
    32
  0
VERTEX
  8
0
  5
6B7D
 10
655.431
 20
27.2303
 30
-6.04223e-15
  70
    32
  0
VERTEX
  8
0
  5
6B7E
 10
655.431
 20
27.2190
 30
-6.04012e-15
  70
    32
  0
VERTEX
  8
0
  5
6B7F
 10
655.431
 20
27.2078
 30
-6.03802e-15
  70
    32
  0
VERTEX
  8
0
  5
6B80
 10
655.431
 20
27.1965
 30
-6.03591e-15
  70
    32
  0
VERTEX
  8
0
  5
6B81
 10
655.431
 20
27.1851
 30
-6.03380e-15
  70
    32
  0
VERTEX
  8
0
  5
6B82
 10
655.431
 20
27.1738
 30
-6.03170e-15
  70
    32
  0
VERTEX
  8
0
  5
6B83
 10
655.431
 20
27.1624
 30
-6.02959e-15
  70
    32
  0
VERTEX
  8
0
  5
6B84
 10
655.431
 20
27.1510
 30
-6.02748e-15
  70
    32
  0
VERTEX
  8
0
  5
6B85
 10
655.431
 20
27.1396
 30
-6.02537e-15
  70
    32
  0
VERTEX
  8
0
  5
6B86
 10
655.431
 20
27.1281
 30
-6.02326e-15
  70
    32
  0
VERTEX
  8
0
  5
6B87
 10
655.431
 20
27.1166
 30
-6.02115e-15
  70
    32
  0
VERTEX
  8
0
  5
6B88
 10
655.431
 20
27.1051
 30
-6.01904e-15
  70
    32
  0
VERTEX
  8
0
  5
6B89
 10
655.431
 20
27.0935
 30
-6.01692e-15
  70
    32
  0
VERTEX
  8
0
  5
6B8A
 10
655.431
 20
27.0819
 30
-6.01481e-15
  70
    32
  0
VERTEX
  8
0
  5
6B8B
 10
655.431
 20
27.0703
 30
-6.01270e-15
  70
    32
  0
VERTEX
  8
0
  5
6B8C
 10
655.431
 20
27.0587
 30
-6.01058e-15
  70
    32
  0
VERTEX
  8
0
  5
6B8D
 10
655.431
 20
27.0470
 30
-6.00847e-15
  70
    32
  0
VERTEX
  8
0
  5
6B8E
 10
655.431
 20
27.0353
 30
-6.00635e-15
  70
    32
  0
VERTEX
  8
0
  5
6B8F
 10
655.431
 20
27.0236
 30
-6.00424e-15
  70
    32
  0
VERTEX
  8
0
  5
6B90
 10
655.431
 20
27.0118
 30
-6.00212e-15
  70
    32
  0
VERTEX
  8
0
  5
6B91
 10
655.431
 20
27.0000
 30
-6.00000e-15
  70
    32
  0
SEQEND
  8
0
  5
6B92
  0
LINE
  5
6309
  8
0
  6
CONTINUOUS
 62
     3
 10
655.4310891905056451
 20
27.0000000000000711
 30
-0.000000000000006
 11
659.6519951185637183
 21
27.0000000000000711
 31
-0.000000000000006
210
0.0
220
1.0
230
-0.0000000000000002
  0
LINE
  5
630A
  8
0
  6
CONTINUOUS
 62
     3
 10
649.6519951185637183
 20
27.0000000000000711
 30
-0.000000000000006
 11
653.8729010466219052
 21
27.0000000000000711
 31
-0.000000000000006
210
0.0
220
1.0
230
-0.0000000000000002
  0
POLYLINE
  8
0
  5
6B93
  62
3
  66
     1
 10
0.000000
 20
0.000000
 30
0.000000
  70
     8
  0
VERTEX
  8
0
  5
6B94
 10
653.873
 20
27.0000
 30
-6.00000e-15
  70
    32
  0
VERTEX
  8
0
  5
6B95
 10
653.873
 20
27.0118
 30
-6.00212e-15
  70
    32
  0
VERTEX
  8
0
  5
6B96
 10
653.873
 20
27.0236
 30
-6.00424e-15
  70
    32
  0
VERTEX
  8
0
  5
6B97
 10
653.873
 20
27.0353
 30
-6.00635e-15
  70
    32
  0
VERTEX
  8
0
  5
6B98
 10
653.873
 20
27.0470
 30
-6.00847e-15
  70
    32
  0
VERTEX
  8
0
  5
6B99
 10
653.873
 20
27.0587
 30
-6.01058e-15
  70
    32
  0
VERTEX
  8
0
  5
6B9A
 10
653.873
 20
27.0703
 30
-6.01270e-15
  70
    32
  0
VERTEX
  8
0
  5
6B9B
 10
653.873
 20
27.0819
 30
-6.01481e-15
  70
    32
  0
VERTEX
  8
0
  5
6B9C
 10
653.873
 20
27.0935
 30
-6.01692e-15
  70
    32
  0
VERTEX
  8
0
  5
6B9D
 10
653.873
 20
27.1051
 30
-6.01904e-15
  70
    32
  0
VERTEX
  8
0
  5
6B9E
 10
653.873
 20
27.1166
 30
-6.02115e-15
  70
    32
  0
VERTEX
  8
0
  5
6B9F
 10
653.873
 20
27.1281
 30
-6.02326e-15
  70
    32
  0
VERTEX
  8
0
  5
6BA0
 10
653.873
 20
27.1396
 30
-6.02537e-15
  70
    32
  0
VERTEX
  8
0
  5
6BA1
 10
653.873
 20
27.1510
 30
-6.02748e-15
  70
    32
  0
VERTEX
  8
0
  5
6BA2
 10
653.873
 20
27.1624
 30
-6.02959e-15
  70
    32
  0
VERTEX
  8
0
  5
6BA3
 10
653.873
 20
27.1738
 30
-6.03170e-15
  70
    32
  0
VERTEX
  8
0
  5
6BA4
 10
653.873
 20
27.1851
 30
-6.03380e-15
  70
    32
  0
VERTEX
  8
0
  5
6BA5
 10
653.873
 20
27.1965
 30
-6.03591e-15
  70
    32
  0
VERTEX
  8
0
  5
6BA6
 10
653.873
 20
27.2078
 30
-6.03802e-15
  70
    32
  0
VERTEX
  8
0
  5
6BA7
 10
653.873
 20
27.2190
 30
-6.04012e-15
  70
    32
  0
VERTEX
  8
0
  5
6BA8
 10
653.873
 20
27.2303
 30
-6.04223e-15
  70
    32
  0
VERTEX
  8
0
  5
6BA9
 10
653.873
 20
27.2415
 30
-6.04433e-15
  70
    32
  0
VERTEX
  8
0
  5
6BAA
 10
653.873
 20
27.2527
 30
-6.04644e-15
  70
    32
  0
VERTEX
  8
0
  5
6BAB
 10
653.873
 20
27.2638
 30
-6.04854e-15
  70
    32
  0
VERTEX
  8
0
  5
6BAC
 10
653.873
 20
27.2750
 30
-6.05065e-15
  70
    32
  0
VERTEX
  8
0
  5
6BAD
 10
653.873
 20
27.2861
 30
-6.05275e-15
  70
    32
  0
VERTEX
  8
0
  5
6BAE
 10
653.873
 20
27.2971
 30
-6.05485e-15
  70
    32
  0
VERTEX
  8
0
  5
6BAF
 10
653.873
 20
27.3082
 30
-6.05695e-15
  70
    32
  0
VERTEX
  8
0
  5
6BB0
 10
653.873
 20
27.3192
 30
-6.05906e-15
  70
    32
  0
VERTEX
  8
0
  5
6BB1
 10
653.873
 20
27.3302
 30
-6.06116e-15
  70
    32
  0
VERTEX
  8
0
  5
6BB2
 10
653.873
 20
27.3411
 30
-6.06326e-15
  70
    32
  0
VERTEX
  8
0
  5
6BB3
 10
653.873
 20
27.3521
 30
-6.06536e-15
  70
    32
  0
VERTEX
  8
0
  5
6BB4
 10
653.873
 20
27.3630
 30
-6.06746e-15
  70
    32
  0
VERTEX
  8
0
  5
6BB5
 10
653.873
 20
27.3739
 30
-6.06956e-15
  70
    32
  0
VERTEX
  8
0
  5
6BB6
 10
653.873
 20
27.3847
 30
-6.07166e-15
  70
    32
  0
VERTEX
  8
0
  5
6BB7
 10
653.873
 20
27.3956
 30
-6.07376e-15
  70
    32
  0
VERTEX
  8
0
  5
6BB8
 10
653.873
 20
27.4064
 30
-6.07586e-15
  70
    32
  0
VERTEX
  8
0
  5
6BB9
 10
653.873
 20
27.4171
 30
-6.07796e-15
  70
    32
  0
VERTEX
  8
0
  5
6BBA
 10
653.873
 20
27.4279
 30
-6.08006e-15
  70
    32
  0
VERTEX
  8
0
  5
6BBB
 10
653.873
 20
27.4386
 30
-6.08216e-15
  70
    32
  0
VERTEX
  8
0
  5
6BBC
 10
653.873
 20
27.4493
 30
-6.08426e-15
  70
    32
  0
VERTEX
  8
0
  5
6BBD
 10
653.873
 20
27.4600
 30
-6.08636e-15
  70
    32
  0
VERTEX
  8
0
  5
6BBE
 10
653.873
 20
27.4706
 30
-6.08846e-15
  70
    32
  0
VERTEX
  8
0
  5
6BBF
 10
653.873
 20
27.4813
 30
-6.09056e-15
  70
    32
  0
VERTEX
  8
0
  5
6BC0
 10
653.873
 20
27.4919
 30
-6.09266e-15
  70
    32
  0
VERTEX
  8
0
  5
6BC1
 10
653.873
 20
27.5024
 30
-6.09475e-15
  70
    32
  0
VERTEX
  8
0
  5
6BC2
 10
653.873
 20
27.5130
 30
-6.09685e-15
  70
    32
  0
VERTEX
  8
0
  5
6BC3
 10
653.873
 20
27.5235
 30
-6.09895e-15
  70
    32
  0
VERTEX
  8
0
  5
6BC4
 10
653.873
 20
27.5340
 30
-6.10105e-15
  70
    32
  0
VERTEX
  8
0
  5
6BC5
 10
653.873
 20
27.5444
 30
-6.10315e-15
  70
    32
  0
VERTEX
  8
0
  5
6BC6
 10
653.873
 20
27.5549
 30
-6.10525e-15
  70
    32
  0
VERTEX
  8
0
  5
6BC7
 10
653.873
 20
27.5653
 30
-6.10734e-15
  70
    32
  0
VERTEX
  8
0
  5
6BC8
 10
653.873
 20
27.5757
 30
-6.10944e-15
  70
    32
  0
VERTEX
  8
0
  5
6BC9
 10
653.873
 20
27.5861
 30
-6.11154e-15
  70
    32
  0
VERTEX
  8
0
  5
6BCA
 10
653.873
 20
27.5964
 30
-6.11364e-15
  70
    32
  0
VERTEX
  8
0
  5
6BCB
 10
653.873
 20
27.6067
 30
-6.11574e-15
  70
    32
  0
VERTEX
  8
0
  5
6BCC
 10
653.873
 20
27.6170
 30
-6.11784e-15
  70
    32
  0
VERTEX
  8
0
  5
6BCD
 10
653.873
 20
27.6273
 30
-6.11994e-15
  70
    32
  0
VERTEX
  8
0
  5
6BCE
 10
653.873
 20
27.6375
 30
-6.12204e-15
  70
    32
  0
VERTEX
  8
0
  5
6BCF
 10
653.873
 20
27.6477
 30
-6.12414e-15
  70
    32
  0
VERTEX
  8
0
  5
6BD0
 10
653.873
 20
27.6579
 30
-6.12624e-15
  70
    32
  0
VERTEX
  8
0
  5
6BD1
 10
653.873
 20
27.6681
 30
-6.12834e-15
  70
    32
  0
VERTEX
  8
0
  5
6BD2
 10
653.873
 20
27.6783
 30
-6.13044e-15
  70
    32
  0
VERTEX
  8
0
  5
6BD3
 10
653.873
 20
27.6884
 30
-6.13254e-15
  70
    32
  0
VERTEX
  8
0
  5
6BD4
 10
653.873
 20
27.6985
 30
-6.13464e-15
  70
    32
  0
VERTEX
  8
0
  5
6BD5
 10
653.873
 20
27.7085
 30
-6.13674e-15
  70
    32
  0
VERTEX
  8
0
  5
6BD6
 10
653.873
 20
27.7186
 30
-6.13884e-15
  70
    32
  0
VERTEX
  8
0
  5
6BD7
 10
653.873
 20
27.7286
 30
-6.14094e-15
  70
    32
  0
VERTEX
  8
0
  5
6BD8
 10
653.873
 20
27.7386
 30
-6.14305e-15
  70
    32
  0
VERTEX
  8
0
  5
6BD9
 10
653.873
 20
27.7486
 30
-6.14515e-15
  70
    32
  0
VERTEX
  8
0
  5
6BDA
 10
653.873
 20
27.7586
 30
-6.14725e-15
  70
    32
  0
VERTEX
  8
0
  5
6BDB
 10
653.873
 20
27.7685
 30
-6.14935e-15
  70
    32
  0
VERTEX
  8
0
  5
6BDC
 10
653.873
 20
27.7784
 30
-6.15146e-15
  70
    32
  0
VERTEX
  8
0
  5
6BDD
 10
653.873
 20
27.7883
 30
-6.15356e-15
  70
    32
  0
VERTEX
  8
0
  5
6BDE
 10
653.873
 20
27.7981
 30
-6.15567e-15
  70
    32
  0
VERTEX
  8
0
  5
6BDF
 10
653.873
 20
27.8080
 30
-6.15777e-15
  70
    32
  0
VERTEX
  8
0
  5
6BE0
 10
653.873
 20
27.8178
 30
-6.15988e-15
  70
    32
  0
VERTEX
  8
0
  5
6BE1
 10
653.873
 20
27.8276
 30
-6.16198e-15
  70
    32
  0
VERTEX
  8
0
  5
6BE2
 10
653.873
 20
27.8374
 30
-6.16409e-15
  70
    32
  0
VERTEX
  8
0
  5
6BE3
 10
653.873
 20
27.8471
 30
-6.16620e-15
  70
    32
  0
VERTEX
  8
0
  5
6BE4
 10
653.873
 20
27.8568
 30
-6.16830e-15
  70
    32
  0
VERTEX
  8
0
  5
6BE5
 10
653.873
 20
27.8665
 30
-6.17041e-15
  70
    32
  0
VERTEX
  8
0
  5
6BE6
 10
653.873
 20
27.8762
 30
-6.17252e-15
  70
    32
  0
VERTEX
  8
0
  5
6BE7
 10
653.873
 20
27.8859
 30
-6.17463e-15
  70
    32
  0
VERTEX
  8
0
  5
6BE8
 10
653.873
 20
27.8955
 30
-6.17674e-15
  70
    32
  0
VERTEX
  8
0
  5
6BE9
 10
653.873
 20
27.9051
 30
-6.17885e-15
  70
    32
  0
VERTEX
  8
0
  5
6BEA
 10
653.873
 20
27.9147
 30
-6.18096e-15
  70
    32
  0
VERTEX
  8
0
  5
6BEB
 10
653.873
 20
27.9243
 30
-6.18308e-15
  70
    32
  0
VERTEX
  8
0
  5
6BEC
 10
653.873
 20
27.9338
 30
-6.18519e-15
  70
    32
  0
VERTEX
  8
0
  5
6BED
 10
653.873
 20
27.9433
 30
-6.18730e-15
  70
    32
  0
VERTEX
  8
0
  5
6BEE
 10
653.873
 20
27.9528
 30
-6.18942e-15
  70
    32
  0
VERTEX
  8
0
  5
6BEF
 10
653.873
 20
27.9623
 30
-6.19153e-15
  70
    32
  0
VERTEX
  8
0
  5
6BF0
 10
653.873
 20
27.9718
 30
-6.19365e-15
  70
    32
  0
VERTEX
  8
0
  5
6BF1
 10
653.873
 20
27.9812
 30
-6.19576e-15
  70
    32
  0
VERTEX
  8
0
  5
6BF2
 10
653.873
 20
27.9906
 30
-6.19788e-15
  70
    32
  0
VERTEX
  8
0
  5
6BF3
 10
653.873
 20
28.0000
 30
-6.20000e-15
  70
    32
  0
SEQEND
  8
0
  5
6BF4
  0
POLYLINE
  8
0
  5
6BF5
  62
3
  66
     1
 10
0.000000
 20
0.000000
 30
0.000000
  70
     8
  0
VERTEX
  8
0
  5
6BF6
 10
655.431
 20
27.0000
 30
-6.00000e-15
  70
    32
  0
VERTEX
  8
0
  5
6BF7
 10
655.431
 20
26.9882
 30
-5.99788e-15
  70
    32
  0
VERTEX
  8
0
  5
6BF8
 10
655.431
 20
26.9764
 30
-5.99576e-15
  70
    32
  0
VERTEX
  8
0
  5
6BF9
 10
655.431
 20
26.9647
 30
-5.99365e-15
  70
    32
  0
VERTEX
  8
0
  5
6BFA
 10
655.431
 20
26.9530
 30
-5.99153e-15
  70
    32
  0
VERTEX
  8
0
  5
6BFB
 10
655.431
 20
26.9413
 30
-5.98942e-15
  70
    32
  0
VERTEX
  8
0
  5
6BFC
 10
655.431
 20
26.9297
 30
-5.98730e-15
  70
    32
  0
VERTEX
  8
0
  5
6BFD
 10
655.431
 20
26.9181
 30
-5.98519e-15
  70
    32
  0
VERTEX
  8
0
  5
6BFE
 10
655.431
 20
26.9065
 30
-5.98308e-15
  70
    32
  0
VERTEX
  8
0
  5
6BFF
 10
655.431
 20
26.8949
 30
-5.98096e-15
  70
    32
  0
VERTEX
  8
0
  5
6C00
 10
655.431
 20
26.8834
 30
-5.97885e-15
  70
    32
  0
VERTEX
  8
0
  5
6C01
 10
655.431
 20
26.8719
 30
-5.97674e-15
  70
    32
  0
VERTEX
  8
0
  5
6C02
 10
655.431
 20
26.8604
 30
-5.97463e-15
  70
    32
  0
VERTEX
  8
0
  5
6C03
 10
655.431
 20
26.8490
 30
-5.97252e-15
  70
    32
  0
VERTEX
  8
0
  5
6C04
 10
655.431
 20
26.8376
 30
-5.97041e-15
  70
    32
  0
VERTEX
  8
0
  5
6C05
 10
655.431
 20
26.8262
 30
-5.96830e-15
  70
    32
  0
VERTEX
  8
0
  5
6C06
 10
655.431
 20
26.8149
 30
-5.96620e-15
  70
    32
  0
VERTEX
  8
0
  5
6C07
 10
655.431
 20
26.8035
 30
-5.96409e-15
  70
    32
  0
VERTEX
  8
0
  5
6C08
 10
655.431
 20
26.7922
 30
-5.96198e-15
  70
    32
  0
VERTEX
  8
0
  5
6C09
 10
655.431
 20
26.7810
 30
-5.95988e-15
  70
    32
  0
VERTEX
  8
0
  5
6C0A
 10
655.431
 20
26.7697
 30
-5.95777e-15
  70
    32
  0
VERTEX
  8
0
  5
6C0B
 10
655.431
 20
26.7585
 30
-5.95567e-15
  70
    32
  0
VERTEX
  8
0
  5
6C0C
 10
655.431
 20
26.7473
 30
-5.95356e-15
  70
    32
  0
VERTEX
  8
0
  5
6C0D
 10
655.431
 20
26.7362
 30
-5.95146e-15
  70
    32
  0
VERTEX
  8
0
  5
6C0E
 10
655.431
 20
26.7250
 30
-5.94935e-15
  70
    32
  0
VERTEX
  8
0
  5
6C0F
 10
655.431
 20
26.7139
 30
-5.94725e-15
  70
    32
  0
VERTEX
  8
0
  5
6C10
 10
655.431
 20
26.7029
 30
-5.94515e-15
  70
    32
  0
VERTEX
  8
0
  5
6C11
 10
655.431
 20
26.6918
 30
-5.94305e-15
  70
    32
  0
VERTEX
  8
0
  5
6C12
 10
655.431
 20
26.6808
 30
-5.94094e-15
  70
    32
  0
VERTEX
  8
0
  5
6C13
 10
655.431
 20
26.6698
 30
-5.93884e-15
  70
    32
  0
VERTEX
  8
0
  5
6C14
 10
655.431
 20
26.6589
 30
-5.93674e-15
  70
    32
  0
VERTEX
  8
0
  5
6C15
 10
655.431
 20
26.6479
 30
-5.93464e-15
  70
    32
  0
VERTEX
  8
0
  5
6C16
 10
655.431
 20
26.6370
 30
-5.93254e-15
  70
    32
  0
VERTEX
  8
0
  5
6C17
 10
655.431
 20
26.6261
 30
-5.93044e-15
  70
    32
  0
VERTEX
  8
0
  5
6C18
 10
655.431
 20
26.6153
 30
-5.92834e-15
  70
    32
  0
VERTEX
  8
0
  5
6C19
 10
655.431
 20
26.6044
 30
-5.92624e-15
  70
    32
  0
VERTEX
  8
0
  5
6C1A
 10
655.431
 20
26.5936
 30
-5.92414e-15
  70
    32
  0
VERTEX
  8
0
  5
6C1B
 10
655.431
 20
26.5829
 30
-5.92204e-15
  70
    32
  0
VERTEX
  8
0
  5
6C1C
 10
655.431
 20
26.5721
 30
-5.91994e-15
  70
    32
  0
VERTEX
  8
0
  5
6C1D
 10
655.431
 20
26.5614
 30
-5.91784e-15
  70
    32
  0
VERTEX
  8
0
  5
6C1E
 10
655.431
 20
26.5507
 30
-5.91574e-15
  70
    32
  0
VERTEX
  8
0
  5
6C1F
 10
655.431
 20
26.5400
 30
-5.91364e-15
  70
    32
  0
VERTEX
  8
0
  5
6C20
 10
655.431
 20
26.5294
 30
-5.91154e-15
  70
    32
  0
VERTEX
  8
0
  5
6C21
 10
655.431
 20
26.5187
 30
-5.90944e-15
  70
    32
  0
VERTEX
  8
0
  5
6C22
 10
655.431
 20
26.5081
 30
-5.90734e-15
  70
    32
  0
VERTEX
  8
0
  5
6C23
 10
655.431
 20
26.4976
 30
-5.90525e-15
  70
    32
  0
VERTEX
  8
0
  5
6C24
 10
655.431
 20
26.4870
 30
-5.90315e-15
  70
    32
  0
VERTEX
  8
0
  5
6C25
 10
655.431
 20
26.4765
 30
-5.90105e-15
  70
    32
  0
VERTEX
  8
0
  5
6C26
 10
655.431
 20
26.4660
 30
-5.89895e-15
  70
    32
  0
VERTEX
  8
0
  5
6C27
 10
655.431
 20
26.4556
 30
-5.89685e-15
  70
    32
  0
VERTEX
  8
0
  5
6C28
 10
655.431
 20
26.4451
 30
-5.89475e-15
  70
    32
  0
VERTEX
  8
0
  5
6C29
 10
655.431
 20
26.4347
 30
-5.89266e-15
  70
    32
  0
VERTEX
  8
0
  5
6C2A
 10
655.431
 20
26.4243
 30
-5.89056e-15
  70
    32
  0
VERTEX
  8
0
  5
6C2B
 10
655.431
 20
26.4139
 30
-5.88846e-15
  70
    32
  0
VERTEX
  8
0
  5
6C2C
 10
655.431
 20
26.4036
 30
-5.88636e-15
  70
    32
  0
VERTEX
  8
0
  5
6C2D
 10
655.431
 20
26.3933
 30
-5.88426e-15
  70
    32
  0
VERTEX
  8
0
  5
6C2E
 10
655.431
 20
26.3830
 30
-5.88216e-15
  70
    32
  0
VERTEX
  8
0
  5
6C2F
 10
655.431
 20
26.3727
 30
-5.88006e-15
  70
    32
  0
VERTEX
  8
0
  5
6C30
 10
655.431
 20
26.3625
 30
-5.87796e-15
  70
    32
  0
VERTEX
  8
0
  5
6C31
 10
655.431
 20
26.3523
 30
-5.87586e-15
  70
    32
  0
VERTEX
  8
0
  5
6C32
 10
655.431
 20
26.3421
 30
-5.87376e-15
  70
    32
  0
VERTEX
  8
0
  5
6C33
 10
655.431
 20
26.3319
 30
-5.87166e-15
  70
    32
  0
VERTEX
  8
0
  5
6C34
 10
655.431
 20
26.3217
 30
-5.86956e-15
  70
    32
  0
VERTEX
  8
0
  5
6C35
 10
655.431
 20
26.3116
 30
-5.86746e-15
  70
    32
  0
VERTEX
  8
0
  5
6C36
 10
655.431
 20
26.3015
 30
-5.86536e-15
  70
    32
  0
VERTEX
  8
0
  5
6C37
 10
655.431
 20
26.2915
 30
-5.86326e-15
  70
    32
  0
VERTEX
  8
0
  5
6C38
 10
655.431
 20
26.2814
 30
-5.86116e-15
  70
    32
  0
VERTEX
  8
0
  5
6C39
 10
655.431
 20
26.2714
 30
-5.85906e-15
  70
    32
  0
VERTEX
  8
0
  5
6C3A
 10
655.431
 20
26.2614
 30
-5.85695e-15
  70
    32
  0
VERTEX
  8
0
  5
6C3B
 10
655.431
 20
26.2514
 30
-5.85485e-15
  70
    32
  0
VERTEX
  8
0
  5
6C3C
 10
655.431
 20
26.2414
 30
-5.85275e-15
  70
    32
  0
VERTEX
  8
0
  5
6C3D
 10
655.431
 20
26.2315
 30
-5.85065e-15
  70
    32
  0
VERTEX
  8
0
  5
6C3E
 10
655.431
 20
26.2216
 30
-5.84854e-15
  70
    32
  0
VERTEX
  8
0
  5
6C3F
 10
655.431
 20
26.2117
 30
-5.84644e-15
  70
    32
  0
VERTEX
  8
0
  5
6C40
 10
655.431
 20
26.2019
 30
-5.84433e-15
  70
    32
  0
VERTEX
  8
0
  5
6C41
 10
655.431
 20
26.1920
 30
-5.84223e-15
  70
    32
  0
VERTEX
  8
0
  5
6C42
 10
655.431
 20
26.1822
 30
-5.84012e-15
  70
    32
  0
VERTEX
  8
0
  5
6C43
 10
655.431
 20
26.1724
 30
-5.83802e-15
  70
    32
  0
VERTEX
  8
0
  5
6C44
 10
655.431
 20
26.1626
 30
-5.83591e-15
  70
    32
  0
VERTEX
  8
0
  5
6C45
 10
655.431
 20
26.1529
 30
-5.83380e-15
  70
    32
  0
VERTEX
  8
0
  5
6C46
 10
655.431
 20
26.1432
 30
-5.83170e-15
  70
    32
  0
VERTEX
  8
0
  5
6C47
 10
655.431
 20
26.1335
 30
-5.82959e-15
  70
    32
  0
VERTEX
  8
0
  5
6C48
 10
655.431
 20
26.1238
 30
-5.82748e-15
  70
    32
  0
VERTEX
  8
0
  5
6C49
 10
655.431
 20
26.1141
 30
-5.82537e-15
  70
    32
  0
VERTEX
  8
0
  5
6C4A
 10
655.431
 20
26.1045
 30
-5.82326e-15
  70
    32
  0
VERTEX
  8
0
  5
6C4B
 10
655.431
 20
26.0949
 30
-5.82115e-15
  70
    32
  0
VERTEX
  8
0
  5
6C4C
 10
655.431
 20
26.0853
 30
-5.81904e-15
  70
    32
  0
VERTEX
  8
0
  5
6C4D
 10
655.431
 20
26.0757
 30
-5.81692e-15
  70
    32
  0
VERTEX
  8
0
  5
6C4E
 10
655.431
 20
26.0662
 30
-5.81481e-15
  70
    32
  0
VERTEX
  8
0
  5
6C4F
 10
655.431
 20
26.0567
 30
-5.81270e-15
  70
    32
  0
VERTEX
  8
0
  5
6C50
 10
655.431
 20
26.0472
 30
-5.81058e-15
  70
    32
  0
VERTEX
  8
0
  5
6C51
 10
655.431
 20
26.0377
 30
-5.80847e-15
  70
    32
  0
VERTEX
  8
0
  5
6C52
 10
655.431
 20
26.0282
 30
-5.80635e-15
  70
    32
  0
VERTEX
  8
0
  5
6C53
 10
655.431
 20
26.0188
 30
-5.80424e-15
  70
    32
  0
VERTEX
  8
0
  5
6C54
 10
655.431
 20
26.0094
 30
-5.80212e-15
  70
    32
  0
VERTEX
  8
0
  5
6C55
 10
655.431
 20
26.0000
 30
-5.80000e-15
  70
    32
  0
SEQEND
  8
0
  5
6C56
  0
LINE
  5
630D
  8
0
  6
CONTINUOUS
 62
     3
 10
655.4310891905056451
 20
26.0000000000000711
 30
-0.0000000000000058
 11
658.6519951185636046
 21
26.0000000000000711
 31
-0.0000000000000058
210
0.0
220
1.0
230
-0.0000000000000002
  0
LINE
  5
630E
  8
0
  6
CONTINUOUS
 62
     3
 10
650.6519951185637183
 20
26.0000000000000711
 30
-0.0000000000000058
 11
653.8729010466219052
 21
26.0000000000000711
 31
-0.0000000000000058
210
0.0
220
1.0
230
-0.0000000000000002
  0
POLYLINE
  8
0
  5
6C57
  62
3
  66
     1
 10
0.000000
 20
0.000000
 30
0.000000
  70
     8
  0
VERTEX
  8
0
  5
6C58
 10
653.873
 20
26.0000
 30
-5.80000e-15
  70
    32
  0
VERTEX
  8
0
  5
6C59
 10
653.873
 20
26.0094
 30
-5.80212e-15
  70
    32
  0
VERTEX
  8
0
  5
6C5A
 10
653.873
 20
26.0188
 30
-5.80424e-15
  70
    32
  0
VERTEX
  8
0
  5
6C5B
 10
653.873
 20
26.0282
 30
-5.80635e-15
  70
    32
  0
VERTEX
  8
0
  5
6C5C
 10
653.873
 20
26.0377
 30
-5.80847e-15
  70
    32
  0
VERTEX
  8
0
  5
6C5D
 10
653.873
 20
26.0472
 30
-5.81058e-15
  70
    32
  0
VERTEX
  8
0
  5
6C5E
 10
653.873
 20
26.0567
 30
-5.81270e-15
  70
    32
  0
VERTEX
  8
0
  5
6C5F
 10
653.873
 20
26.0662
 30
-5.81481e-15
  70
    32
  0
VERTEX
  8
0
  5
6C60
 10
653.873
 20
26.0757
 30
-5.81692e-15
  70
    32
  0
VERTEX
  8
0
  5
6C61
 10
653.873
 20
26.0853
 30
-5.81904e-15
  70
    32
  0
VERTEX
  8
0
  5
6C62
 10
653.873
 20
26.0949
 30
-5.82115e-15
  70
    32
  0
VERTEX
  8
0
  5
6C63
 10
653.873
 20
26.1045
 30
-5.82326e-15
  70
    32
  0
VERTEX
  8
0
  5
6C64
 10
653.873
 20
26.1141
 30
-5.82537e-15
  70
    32
  0
VERTEX
  8
0
  5
6C65
 10
653.873
 20
26.1238
 30
-5.82748e-15
  70
    32
  0
VERTEX
  8
0
  5
6C66
 10
653.873
 20
26.1335
 30
-5.82959e-15
  70
    32
  0
VERTEX
  8
0
  5
6C67
 10
653.873
 20
26.1432
 30
-5.83170e-15
  70
    32
  0
VERTEX
  8
0
  5
6C68
 10
653.873
 20
26.1529
 30
-5.83380e-15
  70
    32
  0
VERTEX
  8
0
  5
6C69
 10
653.873
 20
26.1626
 30
-5.83591e-15
  70
    32
  0
VERTEX
  8
0
  5
6C6A
 10
653.873
 20
26.1724
 30
-5.83802e-15
  70
    32
  0
VERTEX
  8
0
  5
6C6B
 10
653.873
 20
26.1822
 30
-5.84012e-15
  70
    32
  0
VERTEX
  8
0
  5
6C6C
 10
653.873
 20
26.1920
 30
-5.84223e-15
  70
    32
  0
VERTEX
  8
0
  5
6C6D
 10
653.873
 20
26.2019
 30
-5.84433e-15
  70
    32
  0
VERTEX
  8
0
  5
6C6E
 10
653.873
 20
26.2117
 30
-5.84644e-15
  70
    32
  0
VERTEX
  8
0
  5
6C6F
 10
653.873
 20
26.2216
 30
-5.84854e-15
  70
    32
  0
VERTEX
  8
0
  5
6C70
 10
653.873
 20
26.2315
 30
-5.85065e-15
  70
    32
  0
VERTEX
  8
0
  5
6C71
 10
653.873
 20
26.2414
 30
-5.85275e-15
  70
    32
  0
VERTEX
  8
0
  5
6C72
 10
653.873
 20
26.2514
 30
-5.85485e-15
  70
    32
  0
VERTEX
  8
0
  5
6C73
 10
653.873
 20
26.2614
 30
-5.85695e-15
  70
    32
  0
VERTEX
  8
0
  5
6C74
 10
653.873
 20
26.2714
 30
-5.85906e-15
  70
    32
  0
VERTEX
  8
0
  5
6C75
 10
653.873
 20
26.2814
 30
-5.86116e-15
  70
    32
  0
VERTEX
  8
0
  5
6C76
 10
653.873
 20
26.2915
 30
-5.86326e-15
  70
    32
  0
VERTEX
  8
0
  5
6C77
 10
653.873
 20
26.3015
 30
-5.86536e-15
  70
    32
  0
VERTEX
  8
0
  5
6C78
 10
653.873
 20
26.3116
 30
-5.86746e-15
  70
    32
  0
VERTEX
  8
0
  5
6C79
 10
653.873
 20
26.3217
 30
-5.86956e-15
  70
    32
  0
VERTEX
  8
0
  5
6C7A
 10
653.873
 20
26.3319
 30
-5.87166e-15
  70
    32
  0
VERTEX
  8
0
  5
6C7B
 10
653.873
 20
26.3421
 30
-5.87376e-15
  70
    32
  0
VERTEX
  8
0
  5
6C7C
 10
653.873
 20
26.3523
 30
-5.87586e-15
  70
    32
  0
VERTEX
  8
0
  5
6C7D
 10
653.873
 20
26.3625
 30
-5.87796e-15
  70
    32
  0
VERTEX
  8
0
  5
6C7E
 10
653.873
 20
26.3727
 30
-5.88006e-15
  70
    32
  0
VERTEX
  8
0
  5
6C7F
 10
653.873
 20
26.3830
 30
-5.88216e-15
  70
    32
  0
VERTEX
  8
0
  5
6C80
 10
653.873
 20
26.3933
 30
-5.88426e-15
  70
    32
  0
VERTEX
  8
0
  5
6C81
 10
653.873
 20
26.4036
 30
-5.88636e-15
  70
    32
  0
VERTEX
  8
0
  5
6C82
 10
653.873
 20
26.4139
 30
-5.88846e-15
  70
    32
  0
VERTEX
  8
0
  5
6C83
 10
653.873
 20
26.4243
 30
-5.89056e-15
  70
    32
  0
VERTEX
  8
0
  5
6C84
 10
653.873
 20
26.4347
 30
-5.89266e-15
  70
    32
  0
VERTEX
  8
0
  5
6C85
 10
653.873
 20
26.4451
 30
-5.89475e-15
  70
    32
  0
VERTEX
  8
0
  5
6C86
 10
653.873
 20
26.4556
 30
-5.89685e-15
  70
    32
  0
VERTEX
  8
0
  5
6C87
 10
653.873
 20
26.4660
 30
-5.89895e-15
  70
    32
  0
VERTEX
  8
0
  5
6C88
 10
653.873
 20
26.4765
 30
-5.90105e-15
  70
    32
  0
VERTEX
  8
0
  5
6C89
 10
653.873
 20
26.4870
 30
-5.90315e-15
  70
    32
  0
VERTEX
  8
0
  5
6C8A
 10
653.873
 20
26.4976
 30
-5.90525e-15
  70
    32
  0
VERTEX
  8
0
  5
6C8B
 10
653.873
 20
26.5081
 30
-5.90734e-15
  70
    32
  0
VERTEX
  8
0
  5
6C8C
 10
653.873
 20
26.5187
 30
-5.90944e-15
  70
    32
  0
VERTEX
  8
0
  5
6C8D
 10
653.873
 20
26.5294
 30
-5.91154e-15
  70
    32
  0
VERTEX
  8
0
  5
6C8E
 10
653.873
 20
26.5400
 30
-5.91364e-15
  70
    32
  0
VERTEX
  8
0
  5
6C8F
 10
653.873
 20
26.5507
 30
-5.91574e-15
  70
    32
  0
VERTEX
  8
0
  5
6C90
 10
653.873
 20
26.5614
 30
-5.91784e-15
  70
    32
  0
VERTEX
  8
0
  5
6C91
 10
653.873
 20
26.5721
 30
-5.91994e-15
  70
    32
  0
VERTEX
  8
0
  5
6C92
 10
653.873
 20
26.5829
 30
-5.92204e-15
  70
    32
  0
VERTEX
  8
0
  5
6C93
 10
653.873
 20
26.5936
 30
-5.92414e-15
  70
    32
  0
VERTEX
  8
0
  5
6C94
 10
653.873
 20
26.6044
 30
-5.92624e-15
  70
    32
  0
VERTEX
  8
0
  5
6C95
 10
653.873
 20
26.6153
 30
-5.92834e-15
  70
    32
  0
VERTEX
  8
0
  5
6C96
 10
653.873
 20
26.6261
 30
-5.93044e-15
  70
    32
  0
VERTEX
  8
0
  5
6C97
 10
653.873
 20
26.6370
 30
-5.93254e-15
  70
    32
  0
VERTEX
  8
0
  5
6C98
 10
653.873
 20
26.6479
 30
-5.93464e-15
  70
    32
  0
VERTEX
  8
0
  5
6C99
 10
653.873
 20
26.6589
 30
-5.93674e-15
  70
    32
  0
VERTEX
  8
0
  5
6C9A
 10
653.873
 20
26.6698
 30
-5.93884e-15
  70
    32
  0
VERTEX
  8
0
  5
6C9B
 10
653.873
 20
26.6808
 30
-5.94094e-15
  70
    32
  0
VERTEX
  8
0
  5
6C9C
 10
653.873
 20
26.6918
 30
-5.94305e-15
  70
    32
  0
VERTEX
  8
0
  5
6C9D
 10
653.873
 20
26.7029
 30
-5.94515e-15
  70
    32
  0
VERTEX
  8
0
  5
6C9E
 10
653.873
 20
26.7139
 30
-5.94725e-15
  70
    32
  0
VERTEX
  8
0
  5
6C9F
 10
653.873
 20
26.7250
 30
-5.94935e-15
  70
    32
  0
VERTEX
  8
0
  5
6CA0
 10
653.873
 20
26.7362
 30
-5.95146e-15
  70
    32
  0
VERTEX
  8
0
  5
6CA1
 10
653.873
 20
26.7473
 30
-5.95356e-15
  70
    32
  0
VERTEX
  8
0
  5
6CA2
 10
653.873
 20
26.7585
 30
-5.95567e-15
  70
    32
  0
VERTEX
  8
0
  5
6CA3
 10
653.873
 20
26.7697
 30
-5.95777e-15
  70
    32
  0
VERTEX
  8
0
  5
6CA4
 10
653.873
 20
26.7810
 30
-5.95988e-15
  70
    32
  0
VERTEX
  8
0
  5
6CA5
 10
653.873
 20
26.7922
 30
-5.96198e-15
  70
    32
  0
VERTEX
  8
0
  5
6CA6
 10
653.873
 20
26.8035
 30
-5.96409e-15
  70
    32
  0
VERTEX
  8
0
  5
6CA7
 10
653.873
 20
26.8149
 30
-5.96620e-15
  70
    32
  0
VERTEX
  8
0
  5
6CA8
 10
653.873
 20
26.8262
 30
-5.96830e-15
  70
    32
  0
VERTEX
  8
0
  5
6CA9
 10
653.873
 20
26.8376
 30
-5.97041e-15
  70
    32
  0
VERTEX
  8
0
  5
6CAA
 10
653.873
 20
26.8490
 30
-5.97252e-15
  70
    32
  0
VERTEX
  8
0
  5
6CAB
 10
653.873
 20
26.8604
 30
-5.97463e-15
  70
    32
  0
VERTEX
  8
0
  5
6CAC
 10
653.873
 20
26.8719
 30
-5.97674e-15
  70
    32
  0
VERTEX
  8
0
  5
6CAD
 10
653.873
 20
26.8834
 30
-5.97885e-15
  70
    32
  0
VERTEX
  8
0
  5
6CAE
 10
653.873
 20
26.8949
 30
-5.98096e-15
  70
    32
  0
VERTEX
  8
0
  5
6CAF
 10
653.873
 20
26.9065
 30
-5.98308e-15
  70
    32
  0
VERTEX
  8
0
  5
6CB0
 10
653.873
 20
26.9181
 30
-5.98519e-15
  70
    32
  0
VERTEX
  8
0
  5
6CB1
 10
653.873
 20
26.9297
 30
-5.98730e-15
  70
    32
  0
VERTEX
  8
0
  5
6CB2
 10
653.873
 20
26.9413
 30
-5.98942e-15
  70
    32
  0
VERTEX
  8
0
  5
6CB3
 10
653.873
 20
26.9530
 30
-5.99153e-15
  70
    32
  0
VERTEX
  8
0
  5
6CB4
 10
653.873
 20
26.9647
 30
-5.99365e-15
  70
    32
  0
VERTEX
  8
0
  5
6CB5
 10
653.873
 20
26.9764
 30
-5.99576e-15
  70
    32
  0
VERTEX
  8
0
  5
6CB6
 10
653.873
 20
26.9882
 30
-5.99788e-15
  70
    32
  0
VERTEX
  8
0
  5
6CB7
 10
653.873
 20
27.0000
 30
-6.00000e-15
  70
    32
  0
SEQEND
  8
0
  5
6CB8
  0
POLYLINE
  8
0
  5
6CB9
  62
3
  66
     1
 10
0.000000
 20
0.000000
 30
0.000000
  70
     8
  0
VERTEX
  8
0
  5
6CBA
 10
655.431
 20
26.0000
 30
-5.80000e-15
  70
    32
  0
VERTEX
  8
0
  5
6CBB
 10
655.431
 20
25.9906
 30
-5.79788e-15
  70
    32
  0
VERTEX
  8
0
  5
6CBC
 10
655.431
 20
25.9812
 30
-5.79576e-15
  70
    32
  0
VERTEX
  8
0
  5
6CBD
 10
655.431
 20
25.9718
 30
-5.79365e-15
  70
    32
  0
VERTEX
  8
0
  5
6CBE
 10
655.431
 20
25.9623
 30
-5.79153e-15
  70
    32
  0
VERTEX
  8
0
  5
6CBF
 10
655.431
 20
25.9528
 30
-5.78942e-15
  70
    32
  0
VERTEX
  8
0
  5
6CC0
 10
655.431
 20
25.9433
 30
-5.78730e-15
  70
    32
  0
VERTEX
  8
0
  5
6CC1
 10
655.431
 20
25.9338
 30
-5.78519e-15
  70
    32
  0
VERTEX
  8
0
  5
6CC2
 10
655.431
 20
25.9243
 30
-5.78308e-15
  70
    32
  0
VERTEX
  8
0
  5
6CC3
 10
655.431
 20
25.9147
 30
-5.78096e-15
  70
    32
  0
VERTEX
  8
0
  5
6CC4
 10
655.431
 20
25.9051
 30
-5.77885e-15
  70
    32
  0
VERTEX
  8
0
  5
6CC5
 10
655.431
 20
25.8955
 30
-5.77674e-15
  70
    32
  0
VERTEX
  8
0
  5
6CC6
 10
655.431
 20
25.8859
 30
-5.77463e-15
  70
    32
  0
VERTEX
  8
0
  5
6CC7
 10
655.431
 20
25.8762
 30
-5.77252e-15
  70
    32
  0
VERTEX
  8
0
  5
6CC8
 10
655.431
 20
25.8665
 30
-5.77041e-15
  70
    32
  0
VERTEX
  8
0
  5
6CC9
 10
655.431
 20
25.8568
 30
-5.76830e-15
  70
    32
  0
VERTEX
  8
0
  5
6CCA
 10
655.431
 20
25.8471
 30
-5.76620e-15
  70
    32
  0
VERTEX
  8
0
  5
6CCB
 10
655.431
 20
25.8374
 30
-5.76409e-15
  70
    32
  0
VERTEX
  8
0
  5
6CCC
 10
655.431
 20
25.8276
 30
-5.76198e-15
  70
    32
  0
VERTEX
  8
0
  5
6CCD
 10
655.431
 20
25.8178
 30
-5.75988e-15
  70
    32
  0
VERTEX
  8
0
  5
6CCE
 10
655.431
 20
25.8080
 30
-5.75777e-15
  70
    32
  0
VERTEX
  8
0
  5
6CCF
 10
655.431
 20
25.7981
 30
-5.75567e-15
  70
    32
  0
VERTEX
  8
0
  5
6CD0
 10
655.431
 20
25.7883
 30
-5.75356e-15
  70
    32
  0
VERTEX
  8
0
  5
6CD1
 10
655.431
 20
25.7784
 30
-5.75146e-15
  70
    32
  0
VERTEX
  8
0
  5
6CD2
 10
655.431
 20
25.7685
 30
-5.74935e-15
  70
    32
  0
VERTEX
  8
0
  5
6CD3
 10
655.431
 20
25.7586
 30
-5.74725e-15
  70
    32
  0
VERTEX
  8
0
  5
6CD4
 10
655.431
 20
25.7486
 30
-5.74515e-15
  70
    32
  0
VERTEX
  8
0
  5
6CD5
 10
655.431
 20
25.7386
 30
-5.74305e-15
  70
    32
  0
VERTEX
  8
0
  5
6CD6
 10
655.431
 20
25.7286
 30
-5.74094e-15
  70
    32
  0
VERTEX
  8
0
  5
6CD7
 10
655.431
 20
25.7186
 30
-5.73884e-15
  70
    32
  0
VERTEX
  8
0
  5
6CD8
 10
655.431
 20
25.7085
 30
-5.73674e-15
  70
    32
  0
VERTEX
  8
0
  5
6CD9
 10
655.431
 20
25.6985
 30
-5.73464e-15
  70
    32
  0
VERTEX
  8
0
  5
6CDA
 10
655.431
 20
25.6884
 30
-5.73254e-15
  70
    32
  0
VERTEX
  8
0
  5
6CDB
 10
655.431
 20
25.6783
 30
-5.73044e-15
  70
    32
  0
VERTEX
  8
0
  5
6CDC
 10
655.431
 20
25.6681
 30
-5.72834e-15
  70
    32
  0
VERTEX
  8
0
  5
6CDD
 10
655.431
 20
25.6579
 30
-5.72624e-15
  70
    32
  0
VERTEX
  8
0
  5
6CDE
 10
655.431
 20
25.6477
 30
-5.72414e-15
  70
    32
  0
VERTEX
  8
0
  5
6CDF
 10
655.431
 20
25.6375
 30
-5.72204e-15
  70
    32
  0
VERTEX
  8
0
  5
6CE0
 10
655.431
 20
25.6273
 30
-5.71994e-15
  70
    32
  0
VERTEX
  8
0
  5
6CE1
 10
655.431
 20
25.6170
 30
-5.71784e-15
  70
    32
  0
VERTEX
  8
0
  5
6CE2
 10
655.431
 20
25.6067
 30
-5.71574e-15
  70
    32
  0
VERTEX
  8
0
  5
6CE3
 10
655.431
 20
25.5964
 30
-5.71364e-15
  70
    32
  0
VERTEX
  8
0
  5
6CE4
 10
655.431
 20
25.5861
 30
-5.71154e-15
  70
    32
  0
VERTEX
  8
0
  5
6CE5
 10
655.431
 20
25.5757
 30
-5.70944e-15
  70
    32
  0
VERTEX
  8
0
  5
6CE6
 10
655.431
 20
25.5653
 30
-5.70734e-15
  70
    32
  0
VERTEX
  8
0
  5
6CE7
 10
655.431
 20
25.5549
 30
-5.70525e-15
  70
    32
  0
VERTEX
  8
0
  5
6CE8
 10
655.431
 20
25.5444
 30
-5.70315e-15
  70
    32
  0
VERTEX
  8
0
  5
6CE9
 10
655.431
 20
25.5340
 30
-5.70105e-15
  70
    32
  0
VERTEX
  8
0
  5
6CEA
 10
655.431
 20
25.5235
 30
-5.69895e-15
  70
    32
  0
VERTEX
  8
0
  5
6CEB
 10
655.431
 20
25.5130
 30
-5.69685e-15
  70
    32
  0
VERTEX
  8
0
  5
6CEC
 10
655.431
 20
25.5024
 30
-5.69475e-15
  70
    32
  0
VERTEX
  8
0
  5
6CED
 10
655.431
 20
25.4919
 30
-5.69266e-15
  70
    32
  0
VERTEX
  8
0
  5
6CEE
 10
655.431
 20
25.4813
 30
-5.69056e-15
  70
    32
  0
VERTEX
  8
0
  5
6CEF
 10
655.431
 20
25.4706
 30
-5.68846e-15
  70
    32
  0
VERTEX
  8
0
  5
6CF0
 10
655.431
 20
25.4600
 30
-5.68636e-15
  70
    32
  0
VERTEX
  8
0
  5
6CF1
 10
655.431
 20
25.4493
 30
-5.68426e-15
  70
    32
  0
VERTEX
  8
0
  5
6CF2
 10
655.431
 20
25.4386
 30
-5.68216e-15
  70
    32
  0
VERTEX
  8
0
  5
6CF3
 10
655.431
 20
25.4279
 30
-5.68006e-15
  70
    32
  0
VERTEX
  8
0
  5
6CF4
 10
655.431
 20
25.4171
 30
-5.67796e-15
  70
    32
  0
VERTEX
  8
0
  5
6CF5
 10
655.431
 20
25.4064
 30
-5.67586e-15
  70
    32
  0
VERTEX
  8
0
  5
6CF6
 10
655.431
 20
25.3956
 30
-5.67376e-15
  70
    32
  0
VERTEX
  8
0
  5
6CF7
 10
655.431
 20
25.3847
 30
-5.67166e-15
  70
    32
  0
VERTEX
  8
0
  5
6CF8
 10
655.431
 20
25.3739
 30
-5.66956e-15
  70
    32
  0
VERTEX
  8
0
  5
6CF9
 10
655.431
 20
25.3630
 30
-5.66746e-15
  70
    32
  0
VERTEX
  8
0
  5
6CFA
 10
655.431
 20
25.3521
 30
-5.66536e-15
  70
    32
  0
VERTEX
  8
0
  5
6CFB
 10
655.431
 20
25.3411
 30
-5.66326e-15
  70
    32
  0
VERTEX
  8
0
  5
6CFC
 10
655.431
 20
25.3302
 30
-5.66116e-15
  70
    32
  0
VERTEX
  8
0
  5
6CFD
 10
655.431
 20
25.3192
 30
-5.65906e-15
  70
    32
  0
VERTEX
  8
0
  5
6CFE
 10
655.431
 20
25.3082
 30
-5.65695e-15
  70
    32
  0
VERTEX
  8
0
  5
6CFF
 10
655.431
 20
25.2971
 30
-5.65485e-15
  70
    32
  0
VERTEX
  8
0
  5
6D00
 10
655.431
 20
25.2861
 30
-5.65275e-15
  70
    32
  0
VERTEX
  8
0
  5
6D01
 10
655.431
 20
25.2750
 30
-5.65065e-15
  70
    32
  0
VERTEX
  8
0
  5
6D02
 10
655.431
 20
25.2638
 30
-5.64854e-15
  70
    32
  0
VERTEX
  8
0
  5
6D03
 10
655.431
 20
25.2527
 30
-5.64644e-15
  70
    32
  0
VERTEX
  8
0
  5
6D04
 10
655.431
 20
25.2415
 30
-5.64433e-15
  70
    32
  0
VERTEX
  8
0
  5
6D05
 10
655.431
 20
25.2303
 30
-5.64223e-15
  70
    32
  0
VERTEX
  8
0
  5
6D06
 10
655.431
 20
25.2190
 30
-5.64012e-15
  70
    32
  0
VERTEX
  8
0
  5
6D07
 10
655.431
 20
25.2078
 30
-5.63802e-15
  70
    32
  0
VERTEX
  8
0
  5
6D08
 10
655.431
 20
25.1965
 30
-5.63591e-15
  70
    32
  0
VERTEX
  8
0
  5
6D09
 10
655.431
 20
25.1851
 30
-5.63380e-15
  70
    32
  0
VERTEX
  8
0
  5
6D0A
 10
655.431
 20
25.1738
 30
-5.63170e-15
  70
    32
  0
VERTEX
  8
0
  5
6D0B
 10
655.431
 20
25.1624
 30
-5.62959e-15
  70
    32
  0
VERTEX
  8
0
  5
6D0C
 10
655.431
 20
25.1510
 30
-5.62748e-15
  70
    32
  0
VERTEX
  8
0
  5
6D0D
 10
655.431
 20
25.1396
 30
-5.62537e-15
  70
    32
  0
VERTEX
  8
0
  5
6D0E
 10
655.431
 20
25.1281
 30
-5.62326e-15
  70
    32
  0
VERTEX
  8
0
  5
6D0F
 10
655.431
 20
25.1166
 30
-5.62115e-15
  70
    32
  0
VERTEX
  8
0
  5
6D10
 10
655.431
 20
25.1051
 30
-5.61904e-15
  70
    32
  0
VERTEX
  8
0
  5
6D11
 10
655.431
 20
25.0935
 30
-5.61692e-15
  70
    32
  0
VERTEX
  8
0
  5
6D12
 10
655.431
 20
25.0819
 30
-5.61481e-15
  70
    32
  0
VERTEX
  8
0
  5
6D13
 10
655.431
 20
25.0703
 30
-5.61270e-15
  70
    32
  0
VERTEX
  8
0
  5
6D14
 10
655.431
 20
25.0587
 30
-5.61058e-15
  70
    32
  0
VERTEX
  8
0
  5
6D15
 10
655.431
 20
25.0470
 30
-5.60847e-15
  70
    32
  0
VERTEX
  8
0
  5
6D16
 10
655.431
 20
25.0353
 30
-5.60635e-15
  70
    32
  0
VERTEX
  8
0
  5
6D17
 10
655.431
 20
25.0236
 30
-5.60424e-15
  70
    32
  0
VERTEX
  8
0
  5
6D18
 10
655.431
 20
25.0118
 30
-5.60212e-15
  70
    32
  0
VERTEX
  8
0
  5
6D19
 10
655.431
 20
25.0000
 30
-5.60000e-15
  70
    32
  0
SEQEND
  8
0
  5
6D1A
  0
POLYLINE
  8
0
  5
6D1B
  62
3
  66
     1
 10
0.000000
 20
0.000000
 30
0.000000
  70
     8
  0
VERTEX
  8
0
  5
6D1C
 10
653.873
 20
25.0000
 30
-5.60000e-15
  70
    32
  0
VERTEX
  8
0
  5
6D1D
 10
653.873
 20
25.0118
 30
-5.60212e-15
  70
    32
  0
VERTEX
  8
0
  5
6D1E
 10
653.873
 20
25.0236
 30
-5.60424e-15
  70
    32
  0
VERTEX
  8
0
  5
6D1F
 10
653.873
 20
25.0353
 30
-5.60635e-15
  70
    32
  0
VERTEX
  8
0
  5
6D20
 10
653.873
 20
25.0470
 30
-5.60847e-15
  70
    32
  0
VERTEX
  8
0
  5
6D21
 10
653.873
 20
25.0587
 30
-5.61058e-15
  70
    32
  0
VERTEX
  8
0
  5
6D22
 10
653.873
 20
25.0703
 30
-5.61270e-15
  70
    32
  0
VERTEX
  8
0
  5
6D23
 10
653.873
 20
25.0819
 30
-5.61481e-15
  70
    32
  0
VERTEX
  8
0
  5
6D24
 10
653.873
 20
25.0935
 30
-5.61692e-15
  70
    32
  0
VERTEX
  8
0
  5
6D25
 10
653.873
 20
25.1051
 30
-5.61904e-15
  70
    32
  0
VERTEX
  8
0
  5
6D26
 10
653.873
 20
25.1166
 30
-5.62115e-15
  70
    32
  0
VERTEX
  8
0
  5
6D27
 10
653.873
 20
25.1281
 30
-5.62326e-15
  70
    32
  0
VERTEX
  8
0
  5
6D28
 10
653.873
 20
25.1396
 30
-5.62537e-15
  70
    32
  0
VERTEX
  8
0
  5
6D29
 10
653.873
 20
25.1510
 30
-5.62748e-15
  70
    32
  0
VERTEX
  8
0
  5
6D2A
 10
653.873
 20
25.1624
 30
-5.62959e-15
  70
    32
  0
VERTEX
  8
0
  5
6D2B
 10
653.873
 20
25.1738
 30
-5.63170e-15
  70
    32
  0
VERTEX
  8
0
  5
6D2C
 10
653.873
 20
25.1851
 30
-5.63380e-15
  70
    32
  0
VERTEX
  8
0
  5
6D2D
 10
653.873
 20
25.1965
 30
-5.63591e-15
  70
    32
  0
VERTEX
  8
0
  5
6D2E
 10
653.873
 20
25.2078
 30
-5.63802e-15
  70
    32
  0
VERTEX
  8
0
  5
6D2F
 10
653.873
 20
25.2190
 30
-5.64012e-15
  70
    32
  0
VERTEX
  8
0
  5
6D30
 10
653.873
 20
25.2303
 30
-5.64223e-15
  70
    32
  0
VERTEX
  8
0
  5
6D31
 10
653.873
 20
25.2415
 30
-5.64433e-15
  70
    32
  0
VERTEX
  8
0
  5
6D32
 10
653.873
 20
25.2527
 30
-5.64644e-15
  70
    32
  0
VERTEX
  8
0
  5
6D33
 10
653.873
 20
25.2638
 30
-5.64854e-15
  70
    32
  0
VERTEX
  8
0
  5
6D34
 10
653.873
 20
25.2750
 30
-5.65065e-15
  70
    32
  0
VERTEX
  8
0
  5
6D35
 10
653.873
 20
25.2861
 30
-5.65275e-15
  70
    32
  0
VERTEX
  8
0
  5
6D36
 10
653.873
 20
25.2971
 30
-5.65485e-15
  70
    32
  0
VERTEX
  8
0
  5
6D37
 10
653.873
 20
25.3082
 30
-5.65695e-15
  70
    32
  0
VERTEX
  8
0
  5
6D38
 10
653.873
 20
25.3192
 30
-5.65906e-15
  70
    32
  0
VERTEX
  8
0
  5
6D39
 10
653.873
 20
25.3302
 30
-5.66116e-15
  70
    32
  0
VERTEX
  8
0
  5
6D3A
 10
653.873
 20
25.3411
 30
-5.66326e-15
  70
    32
  0
VERTEX
  8
0
  5
6D3B
 10
653.873
 20
25.3521
 30
-5.66536e-15
  70
    32
  0
VERTEX
  8
0
  5
6D3C
 10
653.873
 20
25.3630
 30
-5.66746e-15
  70
    32
  0
VERTEX
  8
0
  5
6D3D
 10
653.873
 20
25.3739
 30
-5.66956e-15
  70
    32
  0
VERTEX
  8
0
  5
6D3E
 10
653.873
 20
25.3847
 30
-5.67166e-15
  70
    32
  0
VERTEX
  8
0
  5
6D3F
 10
653.873
 20
25.3956
 30
-5.67376e-15
  70
    32
  0
VERTEX
  8
0
  5
6D40
 10
653.873
 20
25.4064
 30
-5.67586e-15
  70
    32
  0
VERTEX
  8
0
  5
6D41
 10
653.873
 20
25.4171
 30
-5.67796e-15
  70
    32
  0
VERTEX
  8
0
  5
6D42
 10
653.873
 20
25.4279
 30
-5.68006e-15
  70
    32
  0
VERTEX
  8
0
  5
6D43
 10
653.873
 20
25.4386
 30
-5.68216e-15
  70
    32
  0
VERTEX
  8
0
  5
6D44
 10
653.873
 20
25.4493
 30
-5.68426e-15
  70
    32
  0
VERTEX
  8
0
  5
6D45
 10
653.873
 20
25.4600
 30
-5.68636e-15
  70
    32
  0
VERTEX
  8
0
  5
6D46
 10
653.873
 20
25.4706
 30
-5.68846e-15
  70
    32
  0
VERTEX
  8
0
  5
6D47
 10
653.873
 20
25.4813
 30
-5.69056e-15
  70
    32
  0
VERTEX
  8
0
  5
6D48
 10
653.873
 20
25.4919
 30
-5.69266e-15
  70
    32
  0
VERTEX
  8
0
  5
6D49
 10
653.873
 20
25.5024
 30
-5.69475e-15
  70
    32
  0
VERTEX
  8
0
  5
6D4A
 10
653.873
 20
25.5130
 30
-5.69685e-15
  70
    32
  0
VERTEX
  8
0
  5
6D4B
 10
653.873
 20
25.5235
 30
-5.69895e-15
  70
    32
  0
VERTEX
  8
0
  5
6D4C
 10
653.873
 20
25.5340
 30
-5.70105e-15
  70
    32
  0
VERTEX
  8
0
  5
6D4D
 10
653.873
 20
25.5444
 30
-5.70315e-15
  70
    32
  0
VERTEX
  8
0
  5
6D4E
 10
653.873
 20
25.5549
 30
-5.70525e-15
  70
    32
  0
VERTEX
  8
0
  5
6D4F
 10
653.873
 20
25.5653
 30
-5.70734e-15
  70
    32
  0
VERTEX
  8
0
  5
6D50
 10
653.873
 20
25.5757
 30
-5.70944e-15
  70
    32
  0
VERTEX
  8
0
  5
6D51
 10
653.873
 20
25.5861
 30
-5.71154e-15
  70
    32
  0
VERTEX
  8
0
  5
6D52
 10
653.873
 20
25.5964
 30
-5.71364e-15
  70
    32
  0
VERTEX
  8
0
  5
6D53
 10
653.873
 20
25.6067
 30
-5.71574e-15
  70
    32
  0
VERTEX
  8
0
  5
6D54
 10
653.873
 20
25.6170
 30
-5.71784e-15
  70
    32
  0
VERTEX
  8
0
  5
6D55
 10
653.873
 20
25.6273
 30
-5.71994e-15
  70
    32
  0
VERTEX
  8
0
  5
6D56
 10
653.873
 20
25.6375
 30
-5.72204e-15
  70
    32
  0
VERTEX
  8
0
  5
6D57
 10
653.873
 20
25.6477
 30
-5.72414e-15
  70
    32
  0
VERTEX
  8
0
  5
6D58
 10
653.873
 20
25.6579
 30
-5.72624e-15
  70
    32
  0
VERTEX
  8
0
  5
6D59
 10
653.873
 20
25.6681
 30
-5.72834e-15
  70
    32
  0
VERTEX
  8
0
  5
6D5A
 10
653.873
 20
25.6783
 30
-5.73044e-15
  70
    32
  0
VERTEX
  8
0
  5
6D5B
 10
653.873
 20
25.6884
 30
-5.73254e-15
  70
    32
  0
VERTEX
  8
0
  5
6D5C
 10
653.873
 20
25.6985
 30
-5.73464e-15
  70
    32
  0
VERTEX
  8
0
  5
6D5D
 10
653.873
 20
25.7085
 30
-5.73674e-15
  70
    32
  0
VERTEX
  8
0
  5
6D5E
 10
653.873
 20
25.7186
 30
-5.73884e-15
  70
    32
  0
VERTEX
  8
0
  5
6D5F
 10
653.873
 20
25.7286
 30
-5.74094e-15
  70
    32
  0
VERTEX
  8
0
  5
6D60
 10
653.873
 20
25.7386
 30
-5.74305e-15
  70
    32
  0
VERTEX
  8
0
  5
6D61
 10
653.873
 20
25.7486
 30
-5.74515e-15
  70
    32
  0
VERTEX
  8
0
  5
6D62
 10
653.873
 20
25.7586
 30
-5.74725e-15
  70
    32
  0
VERTEX
  8
0
  5
6D63
 10
653.873
 20
25.7685
 30
-5.74935e-15
  70
    32
  0
VERTEX
  8
0
  5
6D64
 10
653.873
 20
25.7784
 30
-5.75146e-15
  70
    32
  0
VERTEX
  8
0
  5
6D65
 10
653.873
 20
25.7883
 30
-5.75356e-15
  70
    32
  0
VERTEX
  8
0
  5
6D66
 10
653.873
 20
25.7981
 30
-5.75567e-15
  70
    32
  0
VERTEX
  8
0
  5
6D67
 10
653.873
 20
25.8080
 30
-5.75777e-15
  70
    32
  0
VERTEX
  8
0
  5
6D68
 10
653.873
 20
25.8178
 30
-5.75988e-15
  70
    32
  0
VERTEX
  8
0
  5
6D69
 10
653.873
 20
25.8276
 30
-5.76198e-15
  70
    32
  0
VERTEX
  8
0
  5
6D6A
 10
653.873
 20
25.8374
 30
-5.76409e-15
  70
    32
  0
VERTEX
  8
0
  5
6D6B
 10
653.873
 20
25.8471
 30
-5.76620e-15
  70
    32
  0
VERTEX
  8
0
  5
6D6C
 10
653.873
 20
25.8568
 30
-5.76830e-15
  70
    32
  0
VERTEX
  8
0
  5
6D6D
 10
653.873
 20
25.8665
 30
-5.77041e-15
  70
    32
  0
VERTEX
  8
0
  5
6D6E
 10
653.873
 20
25.8762
 30
-5.77252e-15
  70
    32
  0
VERTEX
  8
0
  5
6D6F
 10
653.873
 20
25.8859
 30
-5.77463e-15
  70
    32
  0
VERTEX
  8
0
  5
6D70
 10
653.873
 20
25.8955
 30
-5.77674e-15
  70
    32
  0
VERTEX
  8
0
  5
6D71
 10
653.873
 20
25.9051
 30
-5.77885e-15
  70
    32
  0
VERTEX
  8
0
  5
6D72
 10
653.873
 20
25.9147
 30
-5.78096e-15
  70
    32
  0
VERTEX
  8
0
  5
6D73
 10
653.873
 20
25.9243
 30
-5.78308e-15
  70
    32
  0
VERTEX
  8
0
  5
6D74
 10
653.873
 20
25.9338
 30
-5.78519e-15
  70
    32
  0
VERTEX
  8
0
  5
6D75
 10
653.873
 20
25.9433
 30
-5.78730e-15
  70
    32
  0
VERTEX
  8
0
  5
6D76
 10
653.873
 20
25.9528
 30
-5.78942e-15
  70
    32
  0
VERTEX
  8
0
  5
6D77
 10
653.873
 20
25.9623
 30
-5.79153e-15
  70
    32
  0
VERTEX
  8
0
  5
6D78
 10
653.873
 20
25.9718
 30
-5.79365e-15
  70
    32
  0
VERTEX
  8
0
  5
6D79
 10
653.873
 20
25.9812
 30
-5.79576e-15
  70
    32
  0
VERTEX
  8
0
  5
6D7A
 10
653.873
 20
25.9906
 30
-5.79788e-15
  70
    32
  0
VERTEX
  8
0
  5
6D7B
 10
653.873
 20
26.0000
 30
-5.80000e-15
  70
    32
  0
SEQEND
  8
0
  5
6D7C
  0
LINE
  5
6312
  8
0
  6
CONTINUOUS
 62
     3
 10
650.6519951185637183
 20
-13.9999999999999503
 30
0.0000000000000031
 11
649.6519951185637183
 21
-12.9999999999999396
 31
0.0000000000000029
210
0.0
220
1.0
230
-0.0000000000000002
  0
LINE
  5
6313
  8
0
  6
CONTINUOUS
 62
     3
 10
658.6519951185636046
 20
-13.9999999999999503
 30
0.0000000000000031
 11
659.6519951185637183
 21
-12.9999999999999396
 31
0.0000000000000029
210
0.0
220
1.0
230
-0.0000000000000002
  0
LINE
  5
6314
  8
0
  6
CONTINUOUS
 62
     3
 10
658.6519951185636046
 20
-13.9999999999999503
 30
0.0000000000000031
 11
659.6519951185637183
 21
-14.9999999999999396
 31
0.0000000000000033
210
0.0
220
1.0
230
-0.0000000000000002
  0
LINE
  5
6315
  8
0
  6
CONTINUOUS
 62
     3
 10
650.6519951185637183
 20
-13.9999999999999503
 30
0.0000000000000031
 11
649.6519951185637183
 21
-14.9999999999999396
 31
0.0000000000000033
210
0.0
220
1.0
230
-0.0000000000000002
  0
LINE
  5
6316
  8
0
  6
CONTINUOUS
 62
     3
 10
650.6519951185637183
 20
-15.9999999999999503
 30
0.0000000000000036
 11
649.6519951185637183
 21
-14.9999999999999396
 31
0.0000000000000033
210
0.0
220
1.0
230
-0.0000000000000002
  0
LINE
  5
6317
  8
0
  6
CONTINUOUS
 62
     3
 10
658.6519951185636046
 20
-15.9999999999999503
 30
0.0000000000000036
 11
659.6519951185637183
 21
-14.9999999999999396
 31
0.0000000000000033
210
0.0
220
1.0
230
-0.0000000000000002
  0
LINE
  5
6318
  8
0
  6
CONTINUOUS
 62
     3
 10
658.6519951185636046
 20
-15.9999999999999503
 30
0.0000000000000036
 11
659.6519951185637183
 21
-16.9999999999999503
 31
0.0000000000000038
210
0.0
220
1.0
230
-0.0000000000000002
  0
LINE
  5
6319
  8
0
  6
CONTINUOUS
 62
     3
 10
650.6519951185637183
 20
-15.9999999999999503
 30
0.0000000000000036
 11
649.6519951185637183
 21
-16.9999999999999503
 31
0.0000000000000038
210
0.0
220
1.0
230
-0.0000000000000002
  0
LINE
  5
631A
  8
0
  6
CONTINUOUS
 62
     3
 10
650.6519951185637183
 20
-17.9999999999999396
 30
0.000000000000004
 11
649.6519951185637183
 21
-16.9999999999999503
 31
0.0000000000000038
210
0.0
220
1.0
230
-0.0000000000000002
  0
LINE
  5
631B
  8
0
  6
CONTINUOUS
 62
     3
 10
658.6519951185636046
 20
-17.9999999999999396
 30
0.000000000000004
 11
659.6519951185637183
 21
-16.9999999999999503
 31
0.0000000000000038
210
0.0
220
1.0
230
-0.0000000000000002
  0
LINE
  5
631C
  8
0
  6
CONTINUOUS
 62
     3
 10
658.6519951185636046
 20
-17.9999999999999396
 30
0.000000000000004
 11
659.6519951185637183
 21
-18.9999999999999503
 31
0.0000000000000042
210
0.0
220
1.0
230
-0.0000000000000002
  0
LINE
  5
631D
  8
0
  6
CONTINUOUS
 62
     3
 10
650.6519951185637183
 20
-17.9999999999999396
 30
0.000000000000004
 11
649.6519951185637183
 21
-18.9999999999999503
 31
0.0000000000000042
210
0.0
220
1.0
230
-0.0000000000000002
  0
LINE
  5
631E
  8
0
  6
CONTINUOUS
 62
     3
 10
650.6519951185637183
 20
-19.9999999999999396
 30
0.0000000000000044
 11
649.6519951185637183
 21
-18.9999999999999503
 31
0.0000000000000042
210
0.0
220
1.0
230
-0.0000000000000002
  0
LINE
  5
631F
  8
0
  6
CONTINUOUS
 62
     3
 10
658.6519951185636046
 20
-19.9999999999999396
 30
0.0000000000000044
 11
659.6519951185637183
 21
-18.9999999999999503
 31
0.0000000000000042
210
0.0
220
1.0
230
-0.0000000000000002
  0
LINE
  5
6320
  8
0
  6
CONTINUOUS
 62
     3
 10
658.6519951185636046
 20
-19.9999999999999396
 30
0.0000000000000044
 11
659.6519951185637183
 21
-20.9999999999999503
 31
0.0000000000000047
210
0.0
220
1.0
230
-0.0000000000000002
  0
LINE
  5
6321
  8
0
  6
CONTINUOUS
 62
     3
 10
650.6519951185637183
 20
-19.9999999999999396
 30
0.0000000000000044
 11
649.6519951185637183
 21
-20.9999999999999503
 31
0.0000000000000047
210
0.0
220
1.0
230
-0.0000000000000002
  0
LINE
  5
6322
  8
0
  6
CONTINUOUS
 62
     3
 10
650.6519951185637183
 20
-21.9999999999999503
 30
0.0000000000000049
 11
649.6519951185637183
 21
-20.9999999999999503
 31
0.0000000000000047
210
0.0
220
1.0
230
-0.0000000000000002
  0
LINE
  5
6323
  8
0
  6
CONTINUOUS
 62
     3
 10
658.6519951185636046
 20
-21.9999999999999503
 30
0.0000000000000049
 11
659.6519951185637183
 21
-20.9999999999999503
 31
0.0000000000000047
210
0.0
220
1.0
230
-0.0000000000000002
  0
LINE
  5
6324
  8
0
  6
CONTINUOUS
 62
     3
 10
658.6519951185636046
 20
-11.9999999999999396
 30
0.0000000000000027
 11
659.6519951185637183
 21
-12.9999999999999396
 31
0.0000000000000029
210
0.0
220
1.0
230
-0.0000000000000002
  0
LINE
  5
6325
  8
0
  6
CONTINUOUS
 62
     3
 10
650.6519951185637183
 20
-11.9999999999999396
 30
0.0000000000000027
 11
649.6519951185637183
 21
-12.9999999999999396
 31
0.0000000000000029
210
0.0
220
1.0
230
-0.0000000000000002
  0
LINE
  5
6326
  8
0
  6
CONTINUOUS
 62
     3
 10
650.6519951185637183
 20
24.0000000000000711
 30
-0.0000000000000053
 11
649.6519951185637183
 21
25.0000000000000711
 31
-0.0000000000000056
210
0.0
220
1.0
230
-0.0000000000000002
  0
LINE
  5
6327
  8
0
  6
CONTINUOUS
 62
     3
 10
658.6519951185636046
 20
24.0000000000000711
 30
-0.0000000000000053
 11
659.6519951185637183
 21
25.0000000000000711
 31
-0.0000000000000056
210
0.0
220
1.0
230
-0.0000000000000002
  0
LINE
  5
6328
  8
0
  6
CONTINUOUS
 62
     3
 10
658.6519951185636046
 20
24.0000000000000711
 30
-0.0000000000000053
 11
659.6519951185637183
 21
23.0000000000000604
 31
-0.0000000000000051
210
0.0
220
1.0
230
-0.0000000000000002
  0
LINE
  5
6329
  8
0
  6
CONTINUOUS
 62
     3
 10
650.6519951185637183
 20
24.0000000000000711
 30
-0.0000000000000053
 11
649.6519951185637183
 21
23.0000000000000604
 31
-0.0000000000000051
210
0.0
220
1.0
230
-0.0000000000000002
  0
LINE
  5
632A
  8
0
  6
CONTINUOUS
 62
     3
 10
650.6519951185637183
 20
22.0000000000000604
 30
-0.0000000000000049
 11
649.6519951185637183
 21
23.0000000000000604
 31
-0.0000000000000051
210
0.0
220
1.0
230
-0.0000000000000002
  0
LINE
  5
632B
  8
0
  6
CONTINUOUS
 62
     3
 10
658.6519951185636046
 20
22.0000000000000604
 30
-0.0000000000000049
 11
659.6519951185637183
 21
23.0000000000000604
 31
-0.0000000000000051
210
0.0
220
1.0
230
-0.0000000000000002
  0
LINE
  5
632C
  8
0
  6
CONTINUOUS
 62
     3
 10
658.6519951185636046
 20
22.0000000000000604
 30
-0.0000000000000049
 11
659.6519951185637183
 21
21.0000000000000604
 31
-0.0000000000000047
210
0.0
220
1.0
230
-0.0000000000000002
  0
LINE
  5
632D
  8
0
  6
CONTINUOUS
 62
     3
 10
650.6519951185637183
 20
22.0000000000000604
 30
-0.0000000000000049
 11
649.6519951185637183
 21
21.0000000000000604
 31
-0.0000000000000047
210
0.0
220
1.0
230
-0.0000000000000002
  0
LINE
  5
632E
  8
0
  6
CONTINUOUS
 62
     3
 10
650.6519951185637183
 20
20.0000000000000711
 30
-0.0000000000000044
 11
649.6519951185637183
 21
21.0000000000000604
 31
-0.0000000000000047
210
0.0
220
1.0
230
-0.0000000000000002
  0
LINE
  5
632F
  8
0
  6
CONTINUOUS
 62
     3
 10
658.6519951185636046
 20
20.0000000000000711
 30
-0.0000000000000044
 11
659.6519951185637183
 21
21.0000000000000604
 31
-0.0000000000000047
210
0.0
220
1.0
230
-0.0000000000000002
  0
LINE
  5
6330
  8
0
  6
CONTINUOUS
 62
     3
 10
658.6519951185636046
 20
20.0000000000000711
 30
-0.0000000000000044
 11
659.6519951185637183
 21
19.0000000000000604
 31
-0.0000000000000042
210
0.0
220
1.0
230
-0.0000000000000002
  0
LINE
  5
6331
  8
0
  6
CONTINUOUS
 62
     3
 10
650.6519951185637183
 20
20.0000000000000711
 30
-0.0000000000000044
 11
649.6519951185637183
 21
19.0000000000000604
 31
-0.0000000000000042
210
0.0
220
1.0
230
-0.0000000000000002
  0
LINE
  5
6332
  8
0
  6
CONTINUOUS
 62
     3
 10
650.6519951185637183
 20
18.0000000000000604
 30
-0.000000000000004
 11
649.6519951185637183
 21
19.0000000000000604
 31
-0.0000000000000042
210
0.0
220
1.0
230
-0.0000000000000002
  0
LINE
  5
6333
  8
0
  6
CONTINUOUS
 62
     3
 10
658.6519951185636046
 20
18.0000000000000604
 30
-0.000000000000004
 11
659.6519951185637183
 21
19.0000000000000604
 31
-0.0000000000000042
210
0.0
220
1.0
230
-0.0000000000000002
  0
LINE
  5
6334
  8
0
  6
CONTINUOUS
 62
     3
 10
658.6519951185636046
 20
18.0000000000000604
 30
-0.000000000000004
 11
659.6519951185637183
 21
17.0000000000000604
 31
-0.0000000000000038
210
0.0
220
1.0
230
-0.0000000000000002
  0
LINE
  5
6335
  8
0
  6
CONTINUOUS
 62
     3
 10
650.6519951185637183
 20
18.0000000000000604
 30
-0.000000000000004
 11
649.6519951185637183
 21
17.0000000000000604
 31
-0.0000000000000038
210
0.0
220
1.0
230
-0.0000000000000002
  0
LINE
  5
6336
  8
0
  6
CONTINUOUS
 62
     3
 10
650.6519951185637183
 20
16.0000000000000604
 30
-0.0000000000000036
 11
649.6519951185637183
 21
17.0000000000000604
 31
-0.0000000000000038
210
0.0
220
1.0
230
-0.0000000000000002
  0
LINE
  5
6337
  8
0
  6
CONTINUOUS
 62
     3
 10
658.6519951185636046
 20
16.0000000000000604
 30
-0.0000000000000036
 11
659.6519951185637183
 21
17.0000000000000604
 31
-0.0000000000000038
210
0.0
220
1.0
230
-0.0000000000000002
  0
LINE
  5
6338
  8
0
  6
CONTINUOUS
 62
     3
 10
658.6519951185636046
 20
16.0000000000000604
 30
-0.0000000000000036
 11
659.6519951185637183
 21
15.0000000000000604
 31
-0.0000000000000033
210
0.0
220
1.0
230
-0.0000000000000002
  0
LINE
  5
6339
  8
0
  6
CONTINUOUS
 62
     3
 10
650.6519951185637183
 20
16.0000000000000604
 30
-0.0000000000000036
 11
649.6519951185637183
 21
15.0000000000000604
 31
-0.0000000000000033
210
0.0
220
1.0
230
-0.0000000000000002
  0
LINE
  5
633A
  8
0
  6
CONTINUOUS
 62
     3
 10
650.6519951185637183
 20
14.0000000000000604
 30
-0.0000000000000031
 11
649.6519951185637183
 21
15.0000000000000604
 31
-0.0000000000000033
210
0.0
220
1.0
230
-0.0000000000000002
  0
LINE
  5
633B
  8
0
  6
CONTINUOUS
 62
     3
 10
658.6519951185636046
 20
14.0000000000000604
 30
-0.0000000000000031
 11
659.6519951185637183
 21
15.0000000000000604
 31
-0.0000000000000033
210
0.0
220
1.0
230
-0.0000000000000002
  0
LINE
  5
633C
  8
0
  6
CONTINUOUS
 62
     3
 10
658.6519951185636046
 20
14.0000000000000604
 30
-0.0000000000000031
 11
659.6519951185637183
 21
13.0000000000000604
 31
-0.0000000000000029
210
0.0
220
1.0
230
-0.0000000000000002
  0
LINE
  5
633D
  8
0
  6
CONTINUOUS
 62
     3
 10
650.6519951185637183
 20
14.0000000000000604
 30
-0.0000000000000031
 11
649.6519951185637183
 21
13.0000000000000604
 31
-0.0000000000000029
210
0.0
220
1.0
230
-0.0000000000000002
  0
LINE
  5
633E
  8
0
  6
CONTINUOUS
 62
     3
 10
650.6519951185637183
 20
12.0000000000000604
 30
-0.0000000000000027
 11
649.6519951185637183
 21
13.0000000000000604
 31
-0.0000000000000029
210
0.0
220
1.0
230
-0.0000000000000002
  0
LINE
  5
633F
  8
0
  6
CONTINUOUS
 62
     3
 10
658.6519951185636046
 20
12.0000000000000604
 30
-0.0000000000000027
 11
659.6519951185637183
 21
13.0000000000000604
 31
-0.0000000000000029
210
0.0
220
1.0
230
-0.0000000000000002
  0
LINE
  5
6340
  8
0
  6
CONTINUOUS
 62
     3
 10
658.6519951185636046
 20
12.0000000000000604
 30
-0.0000000000000027
 11
659.6519951185637183
 21
11.0000000000000604
 31
-0.0000000000000024
210
0.0
220
1.0
230
-0.0000000000000002
  0
LINE
  5
6341
  8
0
  6
CONTINUOUS
 62
     3
 10
650.6519951185637183
 20
12.0000000000000604
 30
-0.0000000000000027
 11
649.6519951185637183
 21
11.0000000000000604
 31
-0.0000000000000024
210
0.0
220
1.0
230
-0.0000000000000002
  0
LINE
  5
6342
  8
0
  6
CONTINUOUS
 62
     3
 10
650.6519951185637183
 20
10.0000000000000604
 30
-0.0000000000000022
 11
649.6519951185637183
 21
11.0000000000000604
 31
-0.0000000000000024
210
0.0
220
1.0
230
-0.0000000000000002
  0
LINE
  5
6343
  8
0
  6
CONTINUOUS
 62
     3
 10
658.6519951185636046
 20
10.0000000000000604
 30
-0.0000000000000022
 11
659.6519951185637183
 21
11.0000000000000604
 31
-0.0000000000000024
210
0.0
220
1.0
230
-0.0000000000000002
  0
LINE
  5
6344
  8
0
  6
CONTINUOUS
 62
     3
 10
658.6519951185636046
 20
10.0000000000000604
 30
-0.0000000000000022
 11
659.6519951185637183
 21
9.0000000000000622
 31
-0.000000000000002
210
0.0
220
1.0
230
-0.0000000000000002
  0
LINE
  5
6345
  8
0
  6
CONTINUOUS
 62
     3
 10
650.6519951185637183
 20
10.0000000000000604
 30
-0.0000000000000022
 11
649.6519951185637183
 21
9.0000000000000622
 31
-0.000000000000002
210
0.0
220
1.0
230
-0.0000000000000002
  0
LINE
  5
6346
  8
0
  6
CONTINUOUS
 62
     3
 10
650.6519951185637183
 20
8.0000000000000622
 30
-0.0000000000000018
 11
649.6519951185637183
 21
9.0000000000000622
 31
-0.000000000000002
210
0.0
220
1.0
230
-0.0000000000000002
  0
LINE
  5
6347
  8
0
  6
CONTINUOUS
 62
     3
 10
658.6519951185636046
 20
8.0000000000000622
 30
-0.0000000000000018
 11
659.6519951185637183
 21
9.0000000000000622
 31
-0.000000000000002
210
0.0
220
1.0
230
-0.0000000000000002
  0
LINE
  5
6348
  8
0
  6
CONTINUOUS
 62
     3
 10
658.6519951185636046
 20
8.0000000000000622
 30
-0.0000000000000018
 11
659.6519951185637183
 21
7.0000000000000622
 31
-0.0000000000000016
210
0.0
220
1.0
230
-0.0000000000000002
  0
LINE
  5
6349
  8
0
  6
CONTINUOUS
 62
     3
 10
650.6519951185637183
 20
8.0000000000000622
 30
-0.0000000000000018
 11
649.6519951185637183
 21
7.0000000000000622
 31
-0.0000000000000016
210
0.0
220
1.0
230
-0.0000000000000002
  0
LINE
  5
634A
  8
0
  6
CONTINUOUS
 62
     3
 10
650.6519951185637183
 20
6.0000000000000622
 30
-0.0000000000000013
 11
649.6519951185637183
 21
7.0000000000000622
 31
-0.0000000000000016
210
0.0
220
1.0
230
-0.0000000000000002
  0
LINE
  5
634B
  8
0
  6
CONTINUOUS
 62
     3
 10
658.6519951185636046
 20
6.0000000000000622
 30
-0.0000000000000013
 11
659.6519951185637183
 21
7.0000000000000622
 31
-0.0000000000000016
210
0.0
220
1.0
230
-0.0000000000000002
  0
LINE
  5
634C
  8
0
  6
CONTINUOUS
 62
     3
 10
658.6519951185636046
 20
6.0000000000000622
 30
-0.0000000000000013
 11
659.6519951185637183
 21
5.0000000000000613
 31
-0.0000000000000011
210
0.0
220
1.0
230
-0.0000000000000002
  0
LINE
  5
634D
  8
0
  6
CONTINUOUS
 62
     3
 10
650.6519951185637183
 20
6.0000000000000622
 30
-0.0000000000000013
 11
649.6519951185637183
 21
5.0000000000000613
 31
-0.0000000000000011
210
0.0
220
1.0
230
-0.0000000000000002
  0
LINE
  5
634E
  8
0
  6
CONTINUOUS
 62
     3
 10
650.6519951185637183
 20
4.0000000000000613
 30
-0.0000000000000009
 11
649.6519951185637183
 21
5.0000000000000613
 31
-0.0000000000000011
210
0.0
220
1.0
230
-0.0000000000000002
  0
LINE
  5
634F
  8
0
  6
CONTINUOUS
 62
     3
 10
658.6519951185636046
 20
4.0000000000000613
 30
-0.0000000000000009
 11
659.6519951185637183
 21
5.0000000000000613
 31
-0.0000000000000011
210
0.0
220
1.0
230
-0.0000000000000002
  0
LINE
  5
6350
  8
0
  6
CONTINUOUS
 62
     3
 10
658.6519951185636046
 20
4.0000000000000613
 30
-0.0000000000000009
 11
659.6519951185637183
 21
3.0000000000000608
 31
-0.0000000000000007
210
0.0
220
1.0
230
-0.0000000000000002
  0
LINE
  5
6351
  8
0
  6
CONTINUOUS
 62
     3
 10
650.6519951185637183
 20
4.0000000000000613
 30
-0.0000000000000009
 11
649.6519951185637183
 21
3.00000000000006
 31
-0.0000000000000007
210
0.0
220
1.0
230
-0.0000000000000002
  0
LINE
  5
6352
  8
0
  6
CONTINUOUS
 62
     3
 10
650.6519951185637183
 20
2.00000000000006
 30
-0.0000000000000004
 11
649.6519951185637183
 21
3.00000000000006
 31
-0.0000000000000007
210
0.0
220
1.0
230
-0.0000000000000002
  0
LINE
  5
6353
  8
0
  6
CONTINUOUS
 62
     3
 10
658.6519951185636046
 20
2.0000000000000608
 30
-0.0000000000000004
 11
659.6519951185637183
 21
3.0000000000000608
 31
-0.0000000000000007
210
0.0
220
1.0
230
-0.0000000000000002
  0
LINE
  5
6354
  8
0
  6
CONTINUOUS
 62
     3
 10
658.6519951185636046
 20
2.0000000000000608
 30
-0.0000000000000004
 11
659.6519951185637183
 21
1.0000000000000611
 31
-0.0000000000000002
210
0.0
220
1.0
230
-0.0000000000000002
  0
LINE
  5
6355
  8
0
  6
CONTINUOUS
 62
     3
 10
650.6519951185637183
 20
2.00000000000006
 30
-0.0000000000000004
 11
649.6519951185637183
 21
1.00000000000006
 31
-0.0000000000000002
210
0.0
220
1.0
230
-0.0000000000000002
  0
LINE
  5
6356
  8
0
  6
CONTINUOUS
 62
     3
 10
650.3224907179512684
 20
0.3295044006125099
 30
-0.0000000000000001
 11
649.6519951185637183
 21
1.00000000000006
 31
-0.0000000000000002
210
0.0
220
1.0
230
-0.0000000000000002
  0
LINE
  5
6357
  8
0
  6
CONTINUOUS
 62
     3
 10
658.9814995191760545
 20
0.3295044006125112
 30
-0.0000000000000001
 11
659.6519951185637183
 21
1.00000000000006
 31
-0.0000000000000002
210
0.0
220
1.0
230
-0.0000000000000002
  0
LINE
  5
6358
  8
0
  6
CONTINUOUS
 62
     3
 10
650.6519951185637183
 20
-7.9999999999999414
 30
0.0000000000000018
 11
650.3224907179512684
 21
-7.6704955993874631
 31
0.0000000000000017
210
0.0
220
1.0
230
-0.0000000000000002
  0
LINE
  5
6359
  8
0
  6
CONTINUOUS
 62
     3
 10
658.6519951185636046
 20
-7.9999999999999414
 30
0.0000000000000018
 11
658.9814995191762819
 21
-7.6704955993874062
 31
0.0000000000000017
210
0.0
220
1.0
230
-0.0000000000000002
  0
LINE
  5
635A
  8
0
  6
CONTINUOUS
 62
     3
 10
658.6519951185636046
 20
-7.9999999999999414
 30
0.0000000000000018
 11
659.6519951185637183
 21
-8.9999999999999414
 31
0.000000000000002
210
0.0
220
1.0
230
-0.0000000000000002
  0
LINE
  5
635B
  8
0
  6
CONTINUOUS
 62
     3
 10
650.6519951185637183
 20
-7.9999999999999414
 30
0.0000000000000018
 11
649.6519951185637183
 21
-8.9999999999999414
 31
0.000000000000002
210
0.0
220
1.0
230
-0.0000000000000002
  0
LINE
  5
635C
  8
0
  6
CONTINUOUS
 62
     3
 10
650.6519951185637183
 20
-9.9999999999999414
 30
0.0000000000000022
 11
649.6519951185637183
 21
-8.9999999999999414
 31
0.000000000000002
210
0.0
220
1.0
230
-0.0000000000000002
  0
LINE
  5
635D
  8
0
  6
CONTINUOUS
 62
     3
 10
658.6519951185636046
 20
-9.9999999999999414
 30
0.0000000000000022
 11
659.6519951185637183
 21
-8.9999999999999414
 31
0.000000000000002
210
0.0
220
1.0
230
-0.0000000000000002
  0
LINE
  5
635E
  8
0
  6
CONTINUOUS
 62
     3
 10
658.6519951185636046
 20
-9.9999999999999414
 30
0.0000000000000022
 11
659.6519951185637183
 21
-10.9999999999999396
 31
0.0000000000000024
210
0.0
220
1.0
230
-0.0000000000000002
  0
LINE
  5
635F
  8
0
  6
CONTINUOUS
 62
     3
 10
650.6519951185637183
 20
-9.9999999999999414
 30
0.0000000000000022
 11
649.6519951185637183
 21
-10.9999999999999396
 31
0.0000000000000024
210
0.0
220
1.0
230
-0.0000000000000002
  0
LINE
  5
6360
  8
0
  6
CONTINUOUS
 62
     3
 10
650.6519951185637183
 20
-11.9999999999999396
 30
0.0000000000000027
 11
649.6519951185637183
 21
-10.9999999999999396
 31
0.0000000000000024
210
0.0
220
1.0
230
-0.0000000000000002
  0
LINE
  5
6361
  8
0
  6
CONTINUOUS
 62
     3
 10
658.6519951185636046
 20
-11.9999999999999396
 30
0.0000000000000027
 11
659.6519951185637183
 21
-10.9999999999999396
 31
0.0000000000000024
210
0.0
220
1.0
230
-0.0000000000000002
  0
LINE
  5
6362
  8
0
  6
CONTINUOUS
 62
     3
 10
658.6519951185636046
 20
28.0000000000000711
 30
-0.0000000000000062
 11
659.6519951185637183
 21
27.0000000000000711
 31
-0.000000000000006
210
0.0
220
1.0
230
-0.0000000000000002
  0
LINE
  5
6363
  8
0
  6
CONTINUOUS
 62
     3
 10
650.6519951185637183
 20
28.0000000000000711
 30
-0.0000000000000062
 11
649.6519951185637183
 21
27.0000000000000711
 31
-0.000000000000006
210
0.0
220
1.0
230
-0.0000000000000002
  0
LINE
  5
6364
  8
0
  6
CONTINUOUS
 62
     3
 10
658.6519951185636046
 20
26.0000000000000711
 30
-0.0000000000000058
 11
659.6519951185637183
 21
27.0000000000000711
 31
-0.000000000000006
210
0.0
220
1.0
230
-0.0000000000000002
  0
LINE
  5
6365
  8
0
  6
CONTINUOUS
 62
     3
 10
650.6519951185637183
 20
26.0000000000000711
 30
-0.0000000000000058
 11
649.6519951185637183
 21
27.0000000000000711
 31
-0.000000000000006
210
0.0
220
1.0
230
-0.0000000000000002
  0
LINE
  5
6366
  8
0
  6
CONTINUOUS
 62
     3
 10
658.6519951185636046
 20
26.0000000000000711
 30
-0.0000000000000058
 11
659.6519951185637183
 21
25.0000000000000711
 31
-0.0000000000000056
210
0.0
220
1.0
230
-0.0000000000000002
  0
LINE
  5
6367
  8
0
  6
CONTINUOUS
 62
     3
 10
650.6519951185637183
 20
26.0000000000000711
 30
-0.0000000000000058
 11
649.6519951185637183
 21
25.0000000000000711
 31
-0.0000000000000056
210
0.0
220
1.0
230
-0.0000000000000002
  0
LINE
  5
6368
  8
0
  6
CONTINUOUS
 62
     3
 10
629.6519951185636046
 20
-29.9999999999999503
 30
0.0000000000000067
 11
679.6519951185636046
 21
-29.9999999999999503
 31
0.0000000000000067
210
0.0
220
1.0
230
-0.0000000000000002
  0
LINE
  5
6369
  8
0
  6
CONTINUOUS
 62
     3
 10
629.651995118563832
 20
-24.9999999999999503
 30
0.0000000000000056
 11
654.651995118563832
 21
-24.9999999999999609
 31
0.0000000000000056
210
0.0
220
1.0
230
-0.0000000000000002
  0
LINE
  5
636A
  8
0
  6
CONTINUOUS
 62
     3
 10
654.651995118563832
 20
-24.9999999999999609
 30
0.0000000000000056
 11
679.651995118563832
 21
-24.9999999999999503
 31
0.0000000000000056
210
0.0
220
1.0
230
-0.0000000000000002
  0
LINE
  5
636B
  8
0
  6
CONTINUOUS
 62
     3
 10
679.6519951185636046
 20
-24.9999999999999503
 30
0.0000000000000056
 11
679.6519951185636046
 21
-29.9999999999999503
 31
0.0000000000000067
210
0.0
220
1.0
230
-0.0000000000000002
  0
LINE
  5
636C
  8
0
  6
CONTINUOUS
 62
     3
 10
629.6519951185636046
 20
-24.9999999999999503
 30
0.0000000000000056
 11
629.6519951185636046
 21
-29.9999999999999503
 31
0.0000000000000067
210
0.0
220
1.0
230
-0.0000000000000002
  0
LINE
  5
636D
  8
0
  6
VERDECKT
 62
     1
 10
659.6519351185656888
 20
0.3295044006125068
 30
-0.0000000000000001
 11
659.6519351185656888
 21
-7.6704955993873813
 31
0.0000000000000017
210
0.0
220
1.0
230
-0.0000000000000002
  0
LINE
  5
636E
  8
0
  6
VERDECKT
 62
     1
 10
649.6520551185652721
 20
0.3295044006125046
 30
-0.0000000000000001
 11
649.6520551185652721
 21
-7.6704955993874959
 31
0.0000000000000017
210
0.0
220
1.0
230
-0.0000000000000002
  0
LINE
  5
636F
  8
0
  6
VERDECKT
 62
     1
 10
650.6519951185637183
 20
0.0000000000000604
 30
0.0
 11
654.6519951185636046
 21
0.0000000000000604
 31
0.0
210
0.0
220
1.0
230
-0.0000000000000002
  0
LINE
  5
6370
  8
0
  6
VERDECKT
 62
     1
 10
654.6519951185636046
 20
0.0000000000000604
 30
0.0
 11
658.6519951185636046
 21
0.0000000000000604
 31
0.0
210
0.0
220
1.0
230
-0.0000000000000002
  0
LINE
  5
6371
  8
0
  6
VERDECKT
 62
     1
 10
649.6519951185637183
 20
-0.9999999999999397
 30
0.0000000000000002
 11
654.6519951185636046
 21
-0.9999999999999397
 31
0.0000000000000002
210
0.0
220
1.0
230
-0.0000000000000002
  0
LINE
  5
6372
  8
0
  6
VERDECKT
 62
     1
 10
654.6519951185636046
 20
-0.9999999999999397
 30
0.0000000000000002
 11
659.6519951185637183
 21
-0.9999999999999397
 31
0.0000000000000002
210
0.0
220
1.0
230
-0.0000000000000002
  0
LINE
  5
6373
  8
0
  6
VERDECKT
 62
     1
 10
650.6519951185637183
 20
-1.9999999999999389
 30
0.0000000000000004
 11
654.6519951185636046
 21
-1.9999999999999389
 31
0.0000000000000004
210
0.0
220
1.0
230
-0.0000000000000002
  0
LINE
  5
6374
  8
0
  6
VERDECKT
 62
     1
 10
654.6519951185636046
 20
-1.9999999999999389
 30
0.0000000000000004
 11
658.6519951185636046
 21
-1.9999999999999389
 31
0.0000000000000004
210
0.0
220
1.0
230
-0.0000000000000002
  0
LINE
  5
6375
  8
0
  6
VERDECKT
 62
     1
 10
649.6519951185637183
 20
-2.9999999999999392
 30
0.0000000000000007
 11
654.6519951185636046
 21
-2.9999999999999392
 31
0.0000000000000007
210
0.0
220
1.0
230
-0.0000000000000002
  0
LINE
  5
6376
  8
0
  6
VERDECKT
 62
     1
 10
654.6519951185636046
 20
-2.9999999999999392
 30
0.0000000000000007
 11
659.6519951185637183
 21
-2.9999999999999392
 31
0.0000000000000007
210
0.0
220
1.0
230
-0.0000000000000002
  0
LINE
  5
6377
  8
0
  6
VERDECKT
 62
     1
 10
650.6519951185637183
 20
-3.99999999999994
 30
0.0000000000000009
 11
654.6519951185636046
 21
-3.99999999999994
 31
0.0000000000000009
210
0.0
220
1.0
230
-0.0000000000000002
  0
LINE
  5
6378
  8
0
  6
VERDECKT
 62
     1
 10
654.6519951185636046
 20
-3.99999999999994
 30
0.0000000000000009
 11
658.6519951185636046
 21
-3.99999999999994
 31
0.0000000000000009
210
0.0
220
1.0
230
-0.0000000000000002
  0
LINE
  5
6379
  8
0
  6
VERDECKT
 62
     1
 10
649.6519951185637183
 20
-4.9999999999999396
 30
0.0000000000000011
 11
654.6519951185636046
 21
-4.9999999999999396
 31
0.0000000000000011
210
0.0
220
1.0
230
-0.0000000000000002
  0
LINE
  5
637A
  8
0
  6
VERDECKT
 62
     1
 10
654.6519951185636046
 20
-4.9999999999999396
 30
0.0000000000000011
 11
659.6519951185637183
 21
-4.9999999999999396
 31
0.0000000000000011
210
0.0
220
1.0
230
-0.0000000000000002
  0
LINE
  5
637B
  8
0
  6
VERDECKT
 62
     1
 10
650.6519951185637183
 20
-5.9999999999999396
 30
0.0000000000000013
 11
654.6519951185636046
 21
-5.9999999999999396
 31
0.0000000000000013
210
0.0
220
1.0
230
-0.0000000000000002
  0
LINE
  5
637C
  8
0
  6
VERDECKT
 62
     1
 10
654.6519951185636046
 20
-5.9999999999999396
 30
0.0000000000000013
 11
658.6519951185636046
 21
-5.9999999999999396
 31
0.0000000000000013
210
0.0
220
1.0
230
-0.0000000000000002
  0
LINE
  5
637D
  8
0
  6
VERDECKT
 62
     1
 10
649.6519951185637183
 20
-6.9999999999999414
 30
0.0000000000000016
 11
654.6519951185636046
 21
-6.9999999999999414
 31
0.0000000000000016
210
0.0
220
1.0
230
-0.0000000000000002
  0
LINE
  5
637E
  8
0
  6
VERDECKT
 62
     1
 10
654.6519951185636046
 20
-6.9999999999999414
 30
0.0000000000000016
 11
659.6519951185637183
 21
-6.9999999999999414
 31
0.0000000000000016
210
0.0
220
1.0
230
-0.0000000000000002
  0
LINE
  5
637F
  8
0
  6
VERDECKT
 62
     1
 10
650.6519951185637183
 20
0.0000000000000603
 30
0.0
 11
650.3224907179512684
 21
0.3295044006125099
 31
-0.0000000000000001
210
0.0
220
1.0
230
-0.0000000000000002
  0
LINE
  5
6380
  8
0
  6
VERDECKT
 62
     1
 10
658.6519951185636046
 20
0.0000000000000607
 30
0.0
 11
658.9814995191760545
 21
0.3295044006125112
 31
-0.0000000000000001
210
0.0
220
1.0
230
-0.0000000000000002
  0
LINE
  5
6381
  8
0
  6
VERDECKT
 62
     1
 10
658.6519951185636046
 20
0.0000000000000606
 30
0.0
 11
659.6519951185637183
 21
-0.9999999999999394
 31
0.0000000000000002
210
0.0
220
1.0
230
-0.0000000000000002
  0
LINE
  5
6382
  8
0
  6
VERDECKT
 62
     1
 10
650.6519951185637183
 20
0.00000000000006
 30
0.0
 11
649.6519951185637183
 21
-0.9999999999999399
 31
0.0000000000000002
210
0.0
220
1.0
230
-0.0000000000000002
  0
LINE
  5
6383
  8
0
  6
VERDECKT
 62
     1
 10
650.6519951185637183
 20
-1.9999999999999389
 30
0.0000000000000004
 11
649.6519951185637183
 21
-0.99999999999994
 31
0.0000000000000002
210
0.0
220
1.0
230
-0.0000000000000002
  0
LINE
  5
6384
  8
0
  6
VERDECKT
 62
     1
 10
658.6519951185636046
 20
-1.9999999999999389
 30
0.0000000000000004
 11
659.6519951185637183
 21
-0.9999999999999396
 31
0.0000000000000002
210
0.0
220
1.0
230
-0.0000000000000002
  0
LINE
  5
6385
  8
0
  6
VERDECKT
 62
     1
 10
658.6519951185636046
 20
-1.9999999999999389
 30
0.0000000000000004
 11
659.6519951185637183
 21
-2.9999999999999392
 31
0.0000000000000007
210
0.0
220
1.0
230
-0.0000000000000002
  0
LINE
  5
6386
  8
0
  6
VERDECKT
 62
     1
 10
650.6519951185637183
 20
-1.99999999999994
 30
0.0000000000000004
 11
649.6519951185637183
 21
-2.99999999999994
 31
0.0000000000000007
210
0.0
220
1.0
230
-0.0000000000000002
  0
LINE
  5
6387
  8
0
  6
VERDECKT
 62
     1
 10
650.6519951185637183
 20
-3.9999999999999409
 30
0.0000000000000009
 11
649.6519951185637183
 21
-2.99999999999994
 31
0.0000000000000007
210
0.0
220
1.0
230
-0.0000000000000002
  0
LINE
  5
6388
  8
0
  6
VERDECKT
 62
     1
 10
658.6519951185636046
 20
-3.9999999999999392
 30
0.0000000000000009
 11
659.6519951185637183
 21
-2.9999999999999392
 31
0.0000000000000007
210
0.0
220
1.0
230
-0.0000000000000002
  0
LINE
  5
6389
  8
0
  6
VERDECKT
 62
     1
 10
658.6519951185636046
 20
-3.99999999999994
 30
0.0000000000000009
 11
659.6519951185637183
 21
-4.9999999999999396
 31
0.0000000000000011
210
0.0
220
1.0
230
-0.0000000000000002
  0
LINE
  5
638A
  8
0
  6
VERDECKT
 62
     1
 10
650.6519951185637183
 20
-3.99999999999994
 30
0.0000000000000009
 11
649.6519951185637183
 21
-4.9999999999999396
 31
0.0000000000000011
210
0.0
220
1.0
230
-0.0000000000000002
  0
LINE
  5
638B
  8
0
  6
VERDECKT
 62
     1
 10
650.6519951185637183
 20
-5.9999999999999396
 30
0.0000000000000013
 11
649.6519951185637183
 21
-4.9999999999999396
 31
0.0000000000000011
210
0.0
220
1.0
230
-0.0000000000000002
  0
LINE
  5
638C
  8
0
  6
VERDECKT
 62
     1
 10
658.6519951185636046
 20
-5.9999999999999396
 30
0.0000000000000013
 11
659.6519951185637183
 21
-4.9999999999999396
 31
0.0000000000000011
210
0.0
220
1.0
230
-0.0000000000000002
  0
LINE
  5
638D
  8
0
  6
VERDECKT
 62
     1
 10
658.6519951185636046
 20
-5.9999999999999396
 30
0.0000000000000013
 11
659.6519951185637183
 21
-6.9999999999999414
 31
0.0000000000000016
210
0.0
220
1.0
230
-0.0000000000000002
  0
LINE
  5
638E
  8
0
  6
VERDECKT
 62
     1
 10
650.6519951185637183
 20
-5.9999999999999396
 30
0.0000000000000013
 11
649.6519951185637183
 21
-6.9999999999999414
 31
0.0000000000000016
210
0.0
220
1.0
230
-0.0000000000000002
  0
LINE
  5
638F
  8
0
  6
VERDECKT
 62
     1
 10
650.3224907179512684
 20
-7.6704955993874631
 30
0.0000000000000017
 11
649.6519951185637183
 21
-6.9999999999999414
 31
0.0000000000000016
210
0.0
220
1.0
230
-0.0000000000000002
  0
LINE
  5
6390
  8
0
  6
VERDECKT
 62
     1
 10
658.9814995191762819
 20
-7.6704955993874062
 30
0.0000000000000017
 11
659.6519951185637183
 21
-6.9999999999999414
 31
0.0000000000000016
210
0.0
220
1.0
230
-0.0000000000000002
  0
ENDBLK
  5
6392
  8
0
  0
ENDSEC
  0
SECTION
  2
ENTITIES
  0
TEXT
  5
3D7
  8
VOLL
 10
78.076754716981128
 20
31.025947764705851
 30
0.0
 40
1.8
  1

  7
GREEKS
  0
INSERT
  5
2103
  8
ADSK_ASSOC_ENTITY_BACKUPS
  2
*S3
 10
0.0
 20
0.0
 30
0.0
  0
INSERT
  5
6298
  8
HILF
  2
A$CAB6F6204
 10
632.0467440786760562
 20
-91.4882778548319635
 30
61.5150985925036267
  0
INSERT
  5
6393
  8
HILF
  2
A$C10B65BC9
 10
632.0467440786760562
 20
-38.158862640235931
 30
61.5150985925036196
  0
VIEWPORT
  5
1571
 67
     1
  8
0
 10
126.9688271763085936
 20
146.2583862716168994
 30
0.0
 40
612.1172652513063213
 41
375.8439885989291724
 68
     1
 69
     1
1001
ACAD
1000
MVIEW
1002
{
1070
    16
1010
0.0
1020
0.0
1030
0.0
1010
0.0
1020
0.0
1030
1.0
1040
0.0
1040
375.8439885989291724
1040
126.9688271763085936
1040
146.2583862716168994
1040
50.0
1040
0.0
1040
0.0
1070
     0
1070
  1500
1070
     1
1070
     1
1070
     0
1070
     0
1070
     0
1070
     0
1040
0.0
1040
0.0
1040
0.0
1040
10.0
1040
10.0
1040
10.0
1040
10.0
1070
     0
1002
{
1002
}
1002
}
1001
GENIUS_GENOBJ-N-SDF_13
1002
{
1000
OWNER
1000
GEN
1002
}
1001
GENIUS_GENODEF_13
1002
{
1000
HIER
1070
     0
1002
}
1002
{
1000
MANEDIT
1070
     0
1002
}
1002
{
1000
NOSEL
1070
     0
1002
}
1002
{
1000
BEHIND
1070
     0
1002
}
1002
{
1000
OTHER
1070
     0
1002
}
1002
{
1000
REACTOR
1002
}
1001
GENIUS_GENSCREG_15
1000
PF
1040
1.0
1000
DF
1040
1.0
1000
MIN
1011
-98.3237311841076007
1021
0.0
1031
0.0
1021
-84.5929851452383446
1031
0.0
1000
MAX
1011
756.7695330154733711
1021
0.0
1031
0.0
1021
339.8977580961391141
1031
0.0
1000
FLAGS
1070
     4
  0
ENDSEC
  0
EOF
