  0
SECTION
  2
HEADER
  9
$ACADVER
  1
AC1009
  9
$INSBASE
 10
0.0
 20
0.0
 30
0.0
  9
$EXTMIN
 10
-200.0000000000003979
 20
-78.5000000000000284
 30
-0.0000000000000453
  9
$EXTMAX
 10
406.9999999999992042
 20
180.5
 30
0.0000000000000462
  9
$LIMMIN
 10
0.0
 20
0.0
  9
$LIMMAX
 10
595.0
 20
421.0
  9
$ORTHOMODE
 70
     1
  9
$REGENMODE
 70
     1
  9
$FILLMODE
 70
     1
  9
$QTEXTMODE
 70
     0
  9
$MIRRTEXT
 70
     0
  9
$DRAGMODE
 70
     2
  9
$LTSCALE
 40
10.0
  9
$OSMODE
 70
   511
  9
$ATTMODE
 70
     1
  9
$TEXTSIZE
 40
3.5
  9
$TRACEWID
 40
1.0
  9
$TEXTSTYLE
  7
STANDARD
  9
$CLAYER
  8
STEMPEL
  9
$CELTYPE
  6
BYLAYER
  9
$CECOLOR
 62
   256
  9
$DIMSCALE
 40
1.0
  9
$DIMASZ
 40
3.5
  9
$DIMEXO
 40
1.0
  9
$DIMDLI
 40
0.38
  9
$DIMRND
 40
0.0
  9
$DIMDLE
 40
0.0
  9
$DIMEXE
 40
1.0
  9
$DIMTP
 40
0.0
  9
$DIMTM
 40
0.000000001
  9
$DIMTXT
 40
3.5
  9
$DIMCEN
 40
0.09
  9
$DIMTSZ
 40
0.0
  9
$DIMTOL
 70
     0
  9
$DIMLIM
 70
     0
  9
$DIMTIH
 70
     0
  9
$DIMTOH
 70
     0
  9
$DIMSE1
 70
     0
  9
$DIMSE2
 70
     0
  9
$DIMTAD
 70
     1
  9
$DIMZIN
 70
     8
  9
$DIMBLK
  1

  9
$DIMASO
 70
     1
  9
$DIMSHO
 70
     0
  9
$DIMPOST
  1

  9
$DIMAPOST
  1

  9
$DIMALT
 70
     0
  9
$DIMALTD
 70
     2
  9
$DIMALTF
 40
25.3999999999999986
  9
$DIMLFAC
 40
2.0
  9
$DIMTOFL
 70
     1
  9
$DIMTVP
 40
0.0
  9
$DIMTIX
 70
     0
  9
$DIMSOXD
 70
     0
  9
$DIMSAH
 70
     0
  9
$DIMBLK1
  1

  9
$DIMBLK2
  1

  9
$DIMSTYLE
  2
LORO
  9
$DIMCLRD
 70
     0
  9
$DIMCLRE
 70
     0
  9
$DIMCLRT
 70
     1
  9
$DIMTFAC
 40
0.5
  9
$DIMGAP
 40
1.5
  9
$LUNITS
 70
     2
  9
$LUPREC
 70
     2
  9
$SKETCHINC
 40
1.0
  9
$FILLETRAD
 40
2.0
  9
$AUNITS
 70
     0
  9
$AUPREC
 70
     0
  9
$MENU
  1
ACAD
  9
$ELEVATION
 40
0.0
  9
$PELEVATION
 40
0.0
  9
$THICKNESS
 40
0.0
  9
$LIMCHECK
 70
     0
  9
$BLIPMODE
 70
     0
  9
$CHAMFERA
 40
0.0
  9
$CHAMFERB
 40
0.0
  9
$SKPOLY
 70
     0
  9
$TDCREATE
 40
2458100.4891666672192514
  9
$TDUPDATE
 40
2459440.4809143519960344
  9
$TDINDWG
 40
1.2321527778000001
  9
$TDUSRTIMER
 40
1.2321527778000001
  9
$USRTIMER
 70
     1
  9
$ANGBASE
 50
0.0
  9
$ANGDIR
 70
     0
  9
$PDMODE
 70
     0
  9
$PDSIZE
 40
0.0
  9
$PLINEWID
 40
0.0
  9
$COORDS
 70
     1
  9
$SPLFRAME
 70
     0
  9
$SPLINETYPE
 70
     6
  9
$SPLINESEGS
 70
     8
  9
$ATTDIA
 70
     1
  9
$ATTREQ
 70
     1
  9
$HANDLING
 70
     1
  9
$HANDSEED
  5
E367
  9
$SURFTAB1
 70
     6
  9
$SURFTAB2
 70
     6
  9
$SURFTYPE
 70
     6
  9
$SURFU
 70
     6
  9
$SURFV
 70
     6
  9
$UCSNAME
  2

  9
$UCSORG
 10
0.0
 20
0.0
 30
0.0
  9
$UCSXDIR
 10
1.0
 20
0.0
 30
0.0
  9
$UCSYDIR
 10
0.0
 20
1.0
 30
0.0
  9
$PUCSNAME
  2

  9
$PUCSORG
 10
0.0
 20
0.0
 30
0.0
  9
$PUCSXDIR
 10
1.0
 20
0.0
 30
0.0
  9
$PUCSYDIR
 10
0.0
 20
1.0
 30
0.0
  9
$USERI1
 70
     0
  9
$USERI2
 70
     0
  9
$USERI3
 70
     0
  9
$USERI4
 70
     0
  9
$USERI5
 70
     0
  9
$USERR1
 40
0.0
  9
$USERR2
 40
0.0
  9
$USERR3
 40
0.0
  9
$USERR4
 40
0.0
  9
$USERR5
 40
0.0
  9
$WORLDVIEW
 70
     1
  9
$SHADEDGE
 70
     3
  9
$SHADEDIF
 70
    70
  9
$TILEMODE
 70
     1
  9
$MAXACTVP
 70
    16
  9
$PLIMCHECK
 70
     0
  9
$PEXTMIN
 10
1.0000000000000000E+20
 20
1.0000000000000000E+20
 30
1.0000000000000000E+20
  9
$PEXTMAX
 10
-1.0000000000000000E+20
 20
-1.0000000000000000E+20
 30
-1.0000000000000000E+20
  9
$PLIMMIN
 10
-4.2792796960080182
 20
-3.0207644553667592
  9
$PLIMMAX
 10
415.720720303991925
 20
293.979235544633184
  9
$UNITMODE
 70
     0
  9
$VISRETAIN
 70
     0
  9
$PLINEGEN
 70
     0
  9
$PSLTSCALE
 70
     0
  0
ENDSEC
  0
SECTION
  2
TABLES
  0
TABLE
  2
VPORT
 70
     1
  0
VPORT
  2
*ACTIVE
 70
     0
 10
0.0
 20
0.0
 11
1.0
 21
1.0
 12
25.0000000000000604
 22
0.0
 13
0.0
 23
0.0
 14
1.0
 24
1.0
 15
10.0
 25
10.0
 16
0.0
 26
0.0
 36
754.3996686741857047
 17
78.4999999999993463
 27
51.0000000000000071
 37
-0.0000000000000648
 40
326.2454329937507964
 41
1.865646258503401
 42
50.0
 43
0.0
 44
0.0
 50
0.0
 51
0.0
 71
     0
 72
  1500
 73
     1
 74
     1
 75
     0
 76
     0
 77
     0
 78
     0
  0
ENDTAB
  0
TABLE
  2
LTYPE
 70
     3
  0
LTYPE
  2
CONTINUOUS
 70
     0
  3
Solid line
 72
    65
 73
     0
 40
0.0
  0
LTYPE
  2
STRICHPUNKT
 70
     0
  3
__ . __ . __ . __ . __ . __ . __ . __ . __ . __
 72
    65
 73
     4
 40
1.0
 49
0.5
 49
-0.25
 49
0.0
 49
-0.25
  0
LTYPE
  2
VERDECKT
 70
     0
  3
Verdeckt __ __ __ __ __ __ __ __ __ __ __ __ __
 72
    65
 73
     2
 40
9.5249999999999986
 49
6.3499999999999988
 49
-3.1749999999999989
  0
ENDTAB
  0
TABLE
  2
LAYER
 70
     7
  0
LAYER
  2
0
 70
     0
 62
     7
  6
CONTINUOUS
  0
LAYER
  2
BEM
 70
     0
 62
     7
  6
CONTINUOUS
  0
LAYER
  2
STEMPEL
 70
     0
 62
     3
  6
CONTINUOUS
  0
LAYER
  2
ADSK_ASSOC_ENTITY_BACKUPS
 70
     1
 62
    -7
  6
CONTINUOUS
  0
LAYER
  2
DEFPOINTS
 70
     0
 62
     7
  6
CONTINUOUS
  0
ENDTAB
  0
TABLE
  2
STYLE
 70
     3
  0
STYLE
  2
STANDARD
 70
     0
 40
0.0
 41
0.8
 50
0.0
 71
     0
 42
3.5
  3
simplex.shx
  4

  0
STYLE
  2
GREEKS
 70
     0
 40
0.0
 41
0.8
 50
0.0
 71
     0
 42
2.5
  3
SIMPLEX.shx
  4

  0
ENDTAB
  0
TABLE
  2
VIEW
 70
     0
  0
ENDTAB
  0
TABLE
  2
UCS
 70
     0
  0
ENDTAB
  0
TABLE
  2
APPID
 70
    53
  0
APPID
  2
ACAD
 70
     0
  0
APPID
  2
ACAD_NAV_VCDISPLAY
 70
     0
  0
APPID
  2
ACAD_EXEMPT_FROM_CAD_STANDARDS
 70
     0
  0
APPID
  2
ACAD_PSEXT
 70
     0
  0
APPID
  2
ACAUTHENVIRON
 70
     0
  0
APPID
  2
ACDBDYNAMICBLOCKTRUENAME
 70
     0
  0
APPID
  2
ACDBDYNAMICBLOCKGUID
 70
     0
  0
APPID
  2
ACAECLAYERSTANDARD
 70
     0
  0
APPID
  2
ACCMTRANSPARENCY
 70
     0
  0
APPID
  2
ACAD_STEPID
 70
     0
  0
APPID
  2
ACSYNERGY
 70
     0
  0
APPID
  2
SYNERGY_BODY_TBR_ID
 70
     0
  0
APPID
  2
ACAD_VIEW_EDGE_ID
 70
     0
  0
APPID
  2
ACAD_DSTYLE_DIMJAG
 70
     0
  0
APPID
  2
ACAD_DSTYLE_DIMTALN
 70
     0
  0
APPID
  2
ACADANNOMONITORALERTICONDI
 70
     0
  0
APPID
  2
ACADANNOTATIVE
 70
     0
  0
APPID
  2
ACADANNOAV
 70
     0
  0
APPID
  2
ACSYNERGYSKETCH
 70
     0
  0
APPID
  2
ACAD_MODELDOC_XFORM
 70
     0
  0
APPID
  2
ACDBBLOCKREPETAG
 70
     0
  0
APPID
  2
ACADANNOPO
 70
     0
  0
APPID
  2
ACAD_ASSOCPERSSUBENTMANAGER
 70
     0
  0
APPID
  2
ACDBDYNAMICBLOCKTRUENAME2
 70
     0
  0
APPID
  2
GRADIENTCOLOR1ACI
 70
     0
  0
APPID
  2
GRADIENTCOLOR2ACI
 70
     0
  0
APPID
  2
ACAD_DSTYLE_DIMRADIAL_EXTENSION
 70
     0
  0
APPID
  2
ACAD_MATERIAL_MAPPER
 70
     0
  0
APPID
  2
ACAD_MATERIAL_MAPPER_2
 70
     0
  0
APPID
  2
ACAD_DIMASSOC_CALC_DIMLFAC
 70
     0
  0
APPID
  2
ACAD_DIMASSOC_DIMLFAC
 70
     0
  0
APPID
  2
ACAD_DIMASSOC_OVERRIDDEN_D
 70
     0
  0
APPID
  2
SYNERGY_EXCLUDED_FROM_SNAPSHOT
 70
     0
  0
APPID
  2
ACAD_MLEADERVER
 70
     0
  0
APPID
  2
ACAD_OBJECT_CHANGE_GUID
 70
     0
  0
APPID
  2
MCAD_NO_VIS
 70
     0
  0
APPID
  2
ACAD_TEMP_GRAPHIC
 70
     0
  0
APPID
  2
ACATTRIBSERVICES
 70
     0
  0
APPID
  2
DESIGNERASSEMBLIES
 70
     0
  0
APPID
  2
ACAD_DSTYLE_DIMBREAK
 70
     0
  0
APPID
  2
GENIUS_GENSCREG_15
 70
     0
  0
APPID
  2
GENIUS_GENOBJ-N-SDF_13
 70
     0
  0
APPID
  2
GENIUS_GENODEF_13
 70
     0
  0
APPID
  2
ACAD_DSTYLE_DIMARC_LENGTH_
 70
     0
  0
APPID
  2
ACAD_DSTYLE_DIM_LINETYPE
 70
     0
  0
APPID
  2
ACAD_DSTYLE_DIM_EXT1_LINETYPE
 70
     0
  0
APPID
  2
ACAD_DSTYLE_DIM_EXT2_LINETYPE
 70
     0
  0
APPID
  2
RAK
 70
     0
  0
APPID
  2
GENIUS_GENDTOL_13
 70
     0
  0
APPID
  2
ACAD_DSTYLE_DIMINSPECT
 70
     0
  0
APPID
  2
ACAD_DSTYLE_DIMANGULAR_EXT
 70
     0
  0
APPID
  2
PLOTTRANSPARENCY
 70
     0
  0
APPID
  2
PE_URL
 70
     0
  0
ENDTAB
  0
TABLE
  2
DIMSTYLE
 70
     2
  0
DIMSTYLE
  2
STANDARD
 70
     0
  3

  4

  5

  6

  7

 40
1.0
 41
0.18
 42
0.0625
 43
0.38
 44
0.18
 45
0.0
 46
0.0
 47
0.0
 48
0.0
140
0.18
141
0.09
142
0.0
143
25.3999999999999986
144
1.0
145
0.0
146
1.0
147
0.09
 71
     0
 72
     0
 73
     1
 74
     1
 75
     0
 76
     0
 77
     0
 78
     0
170
     0
171
     2
172
     0
173
     0
174
     0
175
     0
176
     0
177
     0
178
     0
  0
DIMSTYLE
  2
LORO
 70
     0
  3

  4

  5

  6

  7

 40
1.0
 41
3.5
 42
1.0
 43
0.38
 44
1.0
 45
0.0
 46
0.0
 47
0.0
 48
0.000000001
140
3.5
141
0.09
142
0.0
143
25.3999999999999986
144
2.0
145
0.0
146
0.5
147
1.5
 71
     0
 72
     0
 73
     0
 74
     0
 75
     0
 76
     0
 77
     1
 78
     8
170
     0
171
     2
172
     1
173
     0
174
     0
175
     0
176
     0
177
     0
178
     1
  0
ENDTAB
  0
ENDSEC
  0
SECTION
  2
BLOCKS
  0
BLOCK
  8
0
  2
$MODEL_SPACE
 70
     0
 10
0.0
 20
0.0
 30
0.0
  3
$MODEL_SPACE
  1

  0
ENDBLK
  5
38
  8
0
  0
BLOCK
 67
     1
  8
0
  2
$PAPER_SPACE
 70
     0
 10
0.0
 20
0.0
 30
0.0
  3
$PAPER_SPACE
  1

  0
ENDBLK
  5
36
 67
     1
  8
0
  0
BLOCK
  8
0
  2
*S0
 70
     1
 10
0.0
 20
0.0
 30
0.0
  3
*S0
  1

  0
ENDBLK
  5
571
  8
0
  0
BLOCK
  8
0
  2
_NONE
 70
     0
 10
0.0
 20
0.0
 30
0.0
  3
_NONE
  1

  0
ENDBLK
  5
11C0
  8
0
  0
BLOCK
  8
0
  2
123
 70
     0
 10
0.0
 20
0.0
 30
0.0
  3
123
  1

  0
LINE
  5
14A3
  8
BEM
 10
0.0
 20
0.0
 30
0.0
 11
15.4991845013463507
 21
-0.0000000000000284
 31
0.0
1001
ACDBBLOCKREPETAG
1070
     1
1071
        0
1005
14A3
  0
LINE
  5
14A4
  8
BEM
 10
2.4991845013463769
 20
-1.500000000000028
 30
0.0
 11
5.4991845013463774
 21
-1.500000000000028
 31
0.0
1001
ACDBBLOCKREPETAG
1070
     1
1071
        1
1005
14A4
  0
LINE
  5
14A5
  8
BEM
 10
7.4991845013463481
 20
-1.500000000000028
 30
0.0
 11
10.4991845013463507
 21
-1.500000000000028
 31
0.0
1001
ACDBBLOCKREPETAG
1070
     1
1071
        2
1005
14A5
  0
LINE
  5
14A6
  8
BEM
 10
12.4991845013463507
 20
-1.500000000000028
 30
0.0
 11
15.4991845013463507
 21
-1.500000000000028
 31
0.0
1001
ACDBBLOCKREPETAG
1070
     1
1071
        3
1005
14A6
  0
POLYLINE
  5
14A7
  8
0
 66
     1
 10
0.0
 20
0.0
 30
0.0
 70
     1
1001
ACDBBLOCKREPETAG
1070
     1
1071
        4
1005
14A7
  0
VERTEX
  5
E35E
  8
0
 10
10.2127767082253005
 20
-0.0000000000000284
 30
0.0
  0
VERTEX
  5
E35F
  8
0
 10
6.2864077931210707
 20
3.3928740806512101
 30
0.0
  0
VERTEX
  5
E360
  8
0
 10
6.2864077931210707
 20
-0.0000000000000284
 30
0.0
  0
VERTEX
  5
E361
  8
0
 10
10.2127767082253005
 20
-0.0000000000000284
 30
0.0
  0
SEQEND
  5
E362
  8
0
  0
LINE
  5
14A9
  8
BEM
  6
BYBLOCK
 62
     7
 10
0.0
 20
0.0
 30
0.0
 11
0.0
 21
0.0
 31
0.0
  0
ENDBLK
  5
148D
  8
0
  0
BLOCK
  8
0
  2
A$CD95E218C
 70
     0
 10
0.0
 20
0.0
 30
0.0
  3
A$CD95E218C
  1

  0
ARC
  5
DCCF
  8
0
  6
CONTINUOUS
 62
     3
 10
140.0000000000007105
 20
-49.9999999999999218
 30
0.000000000000032
 40
5.0000000000002274
 50
113.0739180656354961
 51
179.9999999999988063
  0
ARC
  5
DCD0
  8
0
  6
CONTINUOUS
 62
     3
 10
140.0000000000007105
 20
-49.9999999999998508
 30
0.000000000000032
 40
4.9999999999999396
 50
295.8419327631619922
 51
66.9260819343689235
  0
ARC
  5
DCD1
  8
0
  6
CONTINUOUS
 62
     3
 10
140.0
 20
-50.0000000000000995
 30
0.000000000000032
 40
4.9999999999995497
 50
179.9999999999967883
 51
244.1580672368390026
  0
CIRCLE
  5
DCD2
  8
0
  6
CONTINUOUS
 62
     3
 10
140.0000000000003979
 20
-49.9999999999998224
 30
0.000000000000032
 40
4.0000000000002274
  0
ARC
  5
DCD3
  8
0
  6
CONTINUOUS
 62
     3
 10
140.0000000000009095
 20
50.0000000000000995
 30
0.000000000000032
 40
5.0000000000004539
 50
180.0000000000028137
 51
246.9260819343597859
  0
ARC
  5
DCD4
  8
0
  6
CONTINUOUS
 62
     3
 10
140.0000000000007105
 20
49.9999999999998934
 30
0.000000000000032
 40
4.9999999999999378
 50
293.0739180656339045
 51
64.1580672368407932
  0
ARC
  5
DCD5
  8
0
  6
CONTINUOUS
 62
     3
 10
140.0000000000007105
 20
49.9999999999997087
 30
0.000000000000032
 40
5.0000000000002336
 50
115.8419327631629017
 51
179.9999999999982947
  0
CIRCLE
  5
DCD6
  8
0
  6
CONTINUOUS
 62
     3
 10
140.0000000000003979
 20
49.9999999999998508
 30
0.000000000000032
 40
4.0000000000002274
  0
LINE
  5
DCD7
  8
0
  6
CONTINUOUS
 62
     3
 10
199.9999999999990052
 20
74.0000000000001137
 30
0.0000000000000426
 11
199.9999999999990052
 21
76.0000000000001137
 31
0.0000000000000426
  0
LINE
  5
DCD8
  8
0
  6
CONTINUOUS
 62
     3
 10
-199.999999999999801
 20
74.0000000000001421
 30
-0.0000000000000426
 11
199.9999999999990052
 21
74.0000000000001137
 31
0.0000000000000462
  0
LINE
  5
DCD9
  8
0
  6
CONTINUOUS
 62
     3
 10
-199.999999999999801
 20
76.0000000000001421
 30
-0.0000000000000426
 11
199.9999999999990052
 21
76.0000000000001137
 31
0.0000000000000462
  0
LINE
  5
DCDA
  8
0
  6
CONTINUOUS
 62
     3
 10
-199.999999999999801
 20
74.0000000000001421
 30
-0.0000000000000426
 11
-199.999999999999801
 21
76.0000000000001421
 31
-0.0000000000000426
  0
LINE
  5
DCDB
  8
0
  6
CONTINUOUS
 62
     3
 10
199.9999999999990052
 20
-73.9999999999999716
 30
0.0000000000000426
 11
199.9999999999990052
 21
-75.9999999999999716
 31
0.0000000000000426
  0
LINE
  5
DCDC
  8
0
  6
CONTINUOUS
 62
     3
 10
-199.999999999999801
 20
-73.9999999999999432
 30
-0.0000000000000426
 11
199.9999999999990052
 21
-73.9999999999999716
 31
0.0000000000000462
  0
LINE
  5
DCDD
  8
0
  6
CONTINUOUS
 62
     3
 10
-199.999999999999801
 20
-73.9999999999999432
 30
-0.0000000000000426
 11
-199.999999999999801
 21
-75.9999999999999432
 31
-0.0000000000000426
  0
LINE
  5
DCDE
  8
0
  6
CONTINUOUS
 62
     3
 10
-199.999999999999801
 20
-75.9999999999999432
 30
-0.0000000000000426
 11
199.9999999999990052
 21
-75.9999999999999716
 31
0.0000000000000462
  0
LINE
  5
DCDF
  8
0
  6
CONTINUOUS
 62
     3
 10
198.000000000000199
 20
-0.9999999999999269
 30
0.0000000000000426
 11
-197.999999999999801
 21
-0.9999999999999026
 31
-0.0000000000000453
  0
LINE
  5
DCE0
  8
0
  6
CONTINUOUS
 62
     3
 10
-197.999999999999801
 20
1.000000000000097
 30
-0.0000000000000426
 11
-197.999999999999801
 21
-0.9999999999999024
 31
-0.0000000000000426
  0
LINE
  5
DCE1
  8
0
  6
CONTINUOUS
 62
     3
 10
198.000000000000199
 20
-0.9999999999999269
 30
0.0000000000000426
 11
198.000000000000199
 21
1.0000000000000731
 31
0.0000000000000426
  0
LINE
  5
DCE2
  8
0
  6
CONTINUOUS
 62
     3
 10
-197.999999999999801
 20
1.000000000000097
 30
-0.0000000000000426
 11
198.000000000000199
 21
1.0000000000000731
 31
0.0000000000000453
  0
LINE
  5
DCE3
  8
0
  6
CONTINUOUS
 62
     3
 10
198.000000000000199
 20
65.6000000000000796
 30
0.0000000000000426
 11
-197.999999999999801
 21
65.600000000000108
 31
-0.0000000000000453
  0
LINE
  5
DCE4
  8
0
  6
CONTINUOUS
 62
     3
 10
-197.999999999999801
 20
67.6000000000000938
 30
-0.0000000000000426
 11
-197.999999999999801
 21
65.6000000000000938
 31
-0.0000000000000426
  0
LINE
  5
DCE5
  8
0
  6
CONTINUOUS
 62
     3
 10
198.000000000000199
 20
65.6000000000000654
 30
0.0000000000000426
 11
198.000000000000199
 21
67.6000000000000654
 31
0.0000000000000426
  0
LINE
  5
DCE6
  8
0
  6
CONTINUOUS
 62
     3
 10
-197.999999999999801
 20
67.6000000000000938
 30
-0.0000000000000426
 11
198.000000000000199
 21
67.6000000000000654
 31
0.0000000000000453
  0
LINE
  5
DCE7
  8
0
  6
CONTINUOUS
 62
     3
 10
198.000000000000199
 20
54.5000000000000924
 30
0.0000000000000426
 11
-197.999999999999801
 21
54.5000000000000995
 31
-0.0000000000000453
  0
LINE
  5
DCE8
  8
0
  6
CONTINUOUS
 62
     3
 10
-197.999999999999801
 20
56.5000000000001066
 30
-0.0000000000000426
 11
-197.999999999999801
 21
54.5000000000000995
 31
-0.0000000000000426
  0
LINE
  5
DCE9
  8
0
  6
CONTINUOUS
 62
     3
 10
198.000000000000199
 20
54.5000000000000782
 30
0.0000000000000426
 11
198.000000000000199
 21
56.5000000000000782
 31
0.0000000000000426
  0
LINE
  5
DCEA
  8
0
  6
CONTINUOUS
 62
     3
 10
-197.999999999999801
 20
56.5000000000000995
 30
-0.0000000000000426
 11
198.000000000000199
 21
56.5000000000000782
 31
0.0000000000000453
  0
LINE
  5
DCEB
  8
0
  6
CONTINUOUS
 62
     3
 10
198.000000000000199
 20
43.4000000000000625
 30
0.0000000000000426
 11
-197.999999999999801
 21
43.4000000000000909
 31
-0.0000000000000453
  0
LINE
  5
DCEC
  8
0
  6
CONTINUOUS
 62
     3
 10
-197.999999999999801
 20
45.4000000000000981
 30
-0.0000000000000426
 11
-197.999999999999801
 21
43.4000000000000981
 31
-0.0000000000000426
  0
LINE
  5
DCED
  8
0
  6
CONTINUOUS
 62
     3
 10
198.000000000000199
 20
43.4000000000000696
 30
0.0000000000000426
 11
198.000000000000199
 21
45.4000000000000767
 31
0.0000000000000426
  0
LINE
  5
DCEE
  8
0
  6
CONTINUOUS
 62
     3
 10
-197.999999999999801
 20
45.4000000000000981
 30
-0.0000000000000426
 11
198.000000000000199
 21
45.4000000000000767
 31
0.0000000000000453
  0
LINE
  5
DCEF
  8
0
  6
CONTINUOUS
 62
     3
 10
198.000000000000199
 20
32.3000000000000682
 30
0.0000000000000426
 11
-197.999999999999801
 21
32.3000000000000895
 31
-0.0000000000000453
  0
LINE
  5
DCF0
  8
0
  6
CONTINUOUS
 62
     3
 10
-197.999999999999801
 20
34.3000000000000966
 30
-0.0000000000000426
 11
-197.999999999999801
 21
32.3000000000000966
 31
-0.0000000000000426
  0
LINE
  5
DCF1
  8
0
  6
CONTINUOUS
 62
     3
 10
198.000000000000199
 20
32.3000000000000682
 30
0.0000000000000426
 11
198.000000000000199
 21
34.3000000000000682
 31
0.0000000000000426
  0
LINE
  5
DCF2
  8
0
  6
CONTINUOUS
 62
     3
 10
-197.999999999999801
 20
34.3000000000000966
 30
-0.0000000000000426
 11
198.000000000000199
 21
34.3000000000000895
 31
0.0000000000000453
  0
LINE
  5
DCF3
  8
0
  6
CONTINUOUS
 62
     3
 10
198.000000000000199
 20
21.200000000000081
 30
0.0000000000000426
 11
-197.999999999999801
 21
21.2000000000001094
 31
-0.0000000000000453
  0
LINE
  5
DCF4
  8
0
  6
CONTINUOUS
 62
     3
 10
-197.999999999999801
 20
23.2000000000000988
 30
-0.0000000000000426
 11
-197.999999999999801
 21
21.2000000000000988
 31
-0.0000000000000426
  0
LINE
  5
DCF5
  8
0
  6
CONTINUOUS
 62
     3
 10
198.000000000000199
 20
21.200000000000081
 30
0.0000000000000426
 11
198.000000000000199
 21
23.200000000000081
 31
0.0000000000000426
  0
LINE
  5
DCF6
  8
0
  6
CONTINUOUS
 62
     3
 10
-197.999999999999801
 20
23.2000000000000988
 30
-0.0000000000000426
 11
198.000000000000199
 21
23.2000000000000703
 31
0.0000000000000453
  0
LINE
  5
DCF7
  8
0
  6
CONTINUOUS
 62
     3
 10
198.000000000000199
 20
10.1000000000000796
 30
0.0000000000000426
 11
-197.999999999999801
 21
10.1000000000000991
 31
-0.0000000000000453
  0
LINE
  5
DCF8
  8
0
  6
CONTINUOUS
 62
     3
 10
-197.999999999999801
 20
12.1000000000000991
 30
-0.0000000000000426
 11
-197.999999999999801
 21
10.1000000000000991
 31
-0.0000000000000426
  0
LINE
  5
DCF9
  8
0
  6
CONTINUOUS
 62
     3
 10
198.000000000000199
 20
10.1000000000000707
 30
0.0000000000000426
 11
198.000000000000199
 21
12.1000000000000707
 31
0.0000000000000426
  0
LINE
  5
DCFA
  8
0
  6
CONTINUOUS
 62
     3
 10
-197.999999999999801
 20
12.1000000000000902
 30
-0.0000000000000426
 11
198.000000000000199
 21
12.1000000000000707
 31
0.0000000000000453
  0
LINE
  5
DCFB
  8
0
  6
CONTINUOUS
 62
     3
 10
198.000000000000199
 20
-12.0999999999999304
 30
0.0000000000000426
 11
-197.999999999999801
 21
-12.0999999999999002
 31
-0.0000000000000453
  0
LINE
  5
DCFC
  8
0
  6
CONTINUOUS
 62
     3
 10
-197.999999999999801
 20
-10.0999999999999002
 30
-0.0000000000000426
 11
-197.999999999999801
 21
-12.0999999999999002
 31
-0.0000000000000426
  0
LINE
  5
DCFD
  8
0
  6
CONTINUOUS
 62
     3
 10
198.000000000000199
 20
-12.0999999999999304
 30
0.0000000000000426
 11
198.000000000000199
 21
-10.0999999999999304
 31
0.0000000000000426
  0
LINE
  5
DCFE
  8
0
  6
CONTINUOUS
 62
     3
 10
-197.999999999999801
 20
-10.0999999999999108
 30
-0.0000000000000426
 11
198.000000000000199
 21
-10.0999999999999304
 31
0.0000000000000453
  0
LINE
  5
DCFF
  8
0
  6
CONTINUOUS
 62
     3
 10
198.000000000000199
 20
-23.1999999999999282
 30
0.0000000000000426
 11
-197.999999999999801
 21
-23.1999999999998998
 31
-0.0000000000000453
  0
LINE
  5
DD00
  8
0
  6
CONTINUOUS
 62
     3
 10
-197.999999999999801
 20
-21.1999999999999105
 30
-0.0000000000000426
 11
-197.999999999999801
 21
-23.1999999999999105
 31
-0.0000000000000426
  0
LINE
  5
DD01
  8
0
  6
CONTINUOUS
 62
     3
 10
198.000000000000199
 20
-23.1999999999999282
 30
0.0000000000000426
 11
198.000000000000199
 21
-21.1999999999999282
 31
0.0000000000000426
  0
LINE
  5
DD02
  8
0
  6
CONTINUOUS
 62
     3
 10
-197.999999999999801
 20
-21.1999999999999211
 30
-0.0000000000000426
 11
198.000000000000199
 21
-21.1999999999999389
 31
0.0000000000000453
  0
LINE
  5
DD03
  8
0
  6
CONTINUOUS
 62
     3
 10
198.000000000000199
 20
-34.2999999999999332
 30
0.0000000000000426
 11
-197.999999999999801
 21
-34.2999999999999119
 31
-0.0000000000000453
  0
LINE
  5
DD04
  8
0
  6
CONTINUOUS
 62
     3
 10
-197.999999999999801
 20
-32.2999999999998977
 30
-0.0000000000000426
 11
-197.999999999999801
 21
-34.2999999999998977
 31
-0.0000000000000426
  0
LINE
  5
DD05
  8
0
  6
CONTINUOUS
 62
     3
 10
198.000000000000199
 20
-34.2999999999999332
 30
0.0000000000000426
 11
198.000000000000199
 21
-32.2999999999999332
 31
0.0000000000000426
  0
LINE
  5
DD06
  8
0
  6
CONTINUOUS
 62
     3
 10
-197.999999999999801
 20
-32.2999999999999119
 30
-0.0000000000000426
 11
198.000000000000199
 21
-32.2999999999999332
 31
0.0000000000000453
  0
LINE
  5
DD07
  8
0
  6
CONTINUOUS
 62
     3
 10
198.000000000000199
 20
-45.3999999999999275
 30
0.0000000000000426
 11
-197.999999999999801
 21
-45.3999999999999133
 31
-0.0000000000000453
  0
LINE
  5
DD08
  8
0
  6
CONTINUOUS
 62
     3
 10
-197.999999999999801
 20
-43.3999999999999133
 30
-0.0000000000000426
 11
-197.999999999999801
 21
-45.3999999999999133
 31
-0.0000000000000426
  0
LINE
  5
DD09
  8
0
  6
CONTINUOUS
 62
     3
 10
198.000000000000199
 20
-45.3999999999999417
 30
0.0000000000000426
 11
198.000000000000199
 21
-43.3999999999999417
 31
0.0000000000000426
  0
LINE
  5
DD0A
  8
0
  6
CONTINUOUS
 62
     3
 10
-197.999999999999801
 20
-43.3999999999999133
 30
-0.0000000000000426
 11
198.000000000000199
 21
-43.3999999999999417
 31
0.0000000000000453
  0
LINE
  5
DD0B
  8
0
  6
CONTINUOUS
 62
     3
 10
198.000000000000199
 20
-56.4999999999999289
 30
0.0000000000000426
 11
-197.999999999999801
 21
-56.4999999999999076
 31
-0.0000000000000453
  0
LINE
  5
DD0C
  8
0
  6
CONTINUOUS
 62
     3
 10
-197.999999999999801
 20
-54.4999999999999076
 30
-0.0000000000000426
 11
-197.999999999999801
 21
-56.4999999999999076
 31
-0.0000000000000426
  0
LINE
  5
DD0D
  8
0
  6
CONTINUOUS
 62
     3
 10
198.000000000000199
 20
-56.4999999999999432
 30
0.0000000000000426
 11
198.000000000000199
 21
-54.4999999999999289
 31
0.0000000000000426
  0
LINE
  5
DD0E
  8
0
  6
CONTINUOUS
 62
     3
 10
-197.999999999999801
 20
-54.4999999999999218
 30
-0.0000000000000426
 11
198.000000000000199
 21
-54.4999999999999289
 31
0.0000000000000453
  0
LINE
  5
DD0F
  8
0
  6
CONTINUOUS
 62
     3
 10
198.000000000000199
 20
-67.5999999999999233
 30
0.0000000000000426
 11
-197.999999999999801
 21
-67.5999999999998948
 31
-0.0000000000000453
  0
LINE
  5
DD10
  8
0
  6
CONTINUOUS
 62
     3
 10
-197.999999999999801
 20
-65.5999999999998948
 30
-0.0000000000000426
 11
-197.999999999999801
 21
-67.5999999999998948
 31
-0.0000000000000426
  0
LINE
  5
DD11
  8
0
  6
CONTINUOUS
 62
     3
 10
198.000000000000199
 20
-67.5999999999999233
 30
0.0000000000000426
 11
198.000000000000199
 21
-65.5999999999999233
 31
0.0000000000000426
  0
LINE
  5
DD12
  8
0
  6
CONTINUOUS
 62
     3
 10
-197.999999999999801
 20
-65.5999999999999091
 30
-0.0000000000000426
 11
198.000000000000199
 21
-65.5999999999999375
 31
0.0000000000000453
  0
LINE
  5
DD13
  8
0
  6
CONTINUOUS
 62
     3
 10
199.9999999999994884
 20
-78.5
 30
0.0000000000000426
 11
198.9999999999994884
 21
-78.5
 31
0.0000000000000426
  0
LINE
  5
DD14
  8
0
  6
CONTINUOUS
 62
     3
 10
199.9999999999994884
 20
-78.4999999999999858
 30
0.0000000000000426
 11
199.9999999999994884
 21
-76.5
 31
0.0000000000000426
  0
LINE
  5
DD15
  8
0
  6
CONTINUOUS
 62
     3
 10
198.9999999999994884
 20
-76.5
 30
0.0000000000000426
 11
199.9999999999994884
 21
-76.5
 31
0.0000000000000426
  0
LINE
  5
DD16
  8
0
  6
CONTINUOUS
 62
     3
 10
-199.0000000000003126
 20
-76.5000000000000284
 30
-0.0000000000000426
 11
198.9999999999994884
 21
-76.5
 31
0.0000000000000457
  0
LINE
  5
DD17
  8
0
  6
CONTINUOUS
 62
     3
 10
-199.0000000000003126
 20
-78.5000000000000284
 30
-0.0000000000000426
 11
198.9999999999994884
 21
-78.5
 31
0.0000000000000457
  0
LINE
  5
DD18
  8
0
  6
CONTINUOUS
 62
     3
 10
-200.0000000000003126
 20
-76.5
 30
-0.0000000000000426
 11
-199.0000000000003126
 21
-76.5
 31
-0.0000000000000426
  0
LINE
  5
DD19
  8
0
  6
CONTINUOUS
 62
     3
 10
-199.0000000000003126
 20
-78.5
 30
-0.0000000000000426
 11
-200.0000000000003126
 21
-78.5
 31
-0.0000000000000426
  0
LINE
  5
DD1A
  8
0
  6
CONTINUOUS
 62
     3
 10
-200.0000000000003979
 20
-76.5000000000000568
 30
-0.0000000000000426
 11
-200.0000000000003979
 21
-78.5000000000000142
 31
-0.0000000000000426
  0
LINE
  5
DD1B
  8
0
  6
CONTINUOUS
 62
     3
 10
199.9999999999994884
 20
-76.4999999999999716
 30
0.0000000000000426
 11
199.9999999999994884
 21
-75.9999999999999858
 31
0.0000000000000426
  0
LINE
  5
DD1C
  8
0
  6
CONTINUOUS
 62
     3
 10
-200.0000000000003979
 20
-76.4999999999999716
 30
-0.0000000000000426
 11
-200.0000000000003979
 21
-75.9999999999999432
 31
-0.0000000000000426
  0
LINE
  5
DD1D
  8
0
  6
CONTINUOUS
 62
     3
 10
199.9999999999994884
 20
78.4999999999998863
 30
0.0000000000000426
 11
198.9999999999994884
 21
78.4999999999998863
 31
0.0000000000000426
  0
LINE
  5
DD1E
  8
0
  6
CONTINUOUS
 62
     3
 10
198.9999999999994884
 20
76.4999999999998863
 30
0.0000000000000426
 11
199.9999999999994884
 21
76.4999999999998863
 31
0.0000000000000426
  0
LINE
  5
DD1F
  8
0
  6
CONTINUOUS
 62
     3
 10
199.9999999999996021
 20
78.4999999999998579
 30
0.0000000000000426
 11
199.9999999999996021
 21
76.4999999999998579
 31
0.0000000000000426
  0
LINE
  5
DD20
  8
0
  6
CONTINUOUS
 62
     3
 10
-199.0000000000003126
 20
78.5000000000001421
 30
-0.0000000000000426
 11
198.9999999999994884
 21
78.4999999999998721
 31
0.0000000000000457
  0
LINE
  5
DD21
  8
0
  6
CONTINUOUS
 62
     3
 10
-199.0000000000003126
 20
76.5000000000001421
 30
-0.0000000000000426
 11
198.9999999999994884
 21
76.4999999999998721
 31
0.0000000000000457
  0
LINE
  5
DD22
  8
0
  6
CONTINUOUS
 62
     3
 10
-200.0000000000003126
 20
76.5000000000001137
 30
-0.0000000000000426
 11
-199.0000000000003126
 21
76.5000000000001137
 31
-0.0000000000000426
  0
LINE
  5
DD23
  8
0
  6
CONTINUOUS
 62
     3
 10
-199.0000000000003126
 20
78.5000000000001137
 30
-0.0000000000000426
 11
-200.0000000000003126
 21
78.5000000000001137
 31
-0.0000000000000426
  0
LINE
  5
DD24
  8
0
  6
CONTINUOUS
 62
     3
 10
-200.0000000000003126
 20
76.5000000000001847
 30
-0.0000000000000426
 11
-200.0000000000003126
 21
78.5000000000001421
 31
-0.0000000000000426
  0
LINE
  5
DD25
  8
0
  6
CONTINUOUS
 62
     3
 10
-200.0000000000003126
 20
76.5000000000000853
 30
-0.0000000000000426
 11
-200.0000000000003126
 21
76.0000000000001421
 31
-0.0000000000000426
  0
LINE
  5
DD26
  8
0
  6
CONTINUOUS
 62
     3
 10
199.9999999999996021
 20
76.4999999999998579
 30
0.0000000000000426
 11
199.9999999999996021
 21
76.0000000000001137
 31
0.0000000000000426
  0
LINE
  5
DD27
  8
0
  6
CONTINUOUS
 62
     3
 10
163.9999999999996021
 20
-40.0000000000000711
 30
0.0000000000000355
 11
132.999999999999801
 21
-40.0000000000000568
 31
0.0000000000000286
  0
LINE
  5
DD28
  8
0
  6
CONTINUOUS
 62
     3
 10
130.9999999999996874
 20
-40.0000000000000568
 30
0.0000000000000284
 11
99.9999999999997868
 21
-40.0000000000000426
 31
0.0000000000000215
  0
LINE
  5
DD29
  8
0
  6
CONTINUOUS
 62
     3
 10
97.9999999999997442
 20
-40.0000000000000426
 30
0.0000000000000213
 11
66.9999999999998153
 21
-40.0000000000000213
 31
0.0000000000000144
  0
LINE
  5
DD2A
  8
0
  6
CONTINUOUS
 62
     3
 10
64.9999999999997868
 20
-40.0000000000000284
 30
0.0000000000000142
 11
33.9999999999998295
 21
-40.0000000000000213
 31
0.0000000000000073
  0
LINE
  5
DD2B
  8
0
  6
CONTINUOUS
 62
     3
 10
31.9999999999997904
 20
-40.0000000000000213
 30
0.0000000000000071
 11
0.9999999999997868
 21
-40.0
 31
0.0000000000000002
  0
LINE
  5
DD2C
  8
0
  6
CONTINUOUS
 62
     3
 10
-1.000000000000244
 20
-40.0
 30
0.0
 11
-32.0000000000002203
 21
-40.0
 31
-0.0000000000000069
  0
LINE
  5
DD2D
  8
0
  6
CONTINUOUS
 62
     3
 10
-34.0000000000002203
 20
-40.0
 30
-0.0000000000000071
 11
-65.0000000000002416
 21
-39.9999999999999929
 31
-0.000000000000014
  0
LINE
  5
DD2E
  8
0
  6
CONTINUOUS
 62
     3
 10
-67.0000000000002416
 20
-39.9999999999999929
 30
-0.0000000000000142
 11
-98.0000000000002558
 21
-39.9999999999999716
 31
-0.0000000000000211
  0
LINE
  5
DD2F
  8
0
  6
CONTINUOUS
 62
     3
 10
-100.0000000000000995
 20
-39.9999999999999716
 30
-0.0000000000000213
 11
-131.000000000000199
 21
-39.9999999999999574
 31
-0.0000000000000282
  0
LINE
  5
DD30
  8
0
  6
CONTINUOUS
 62
     3
 10
-133.000000000000199
 20
-39.9999999999999574
 30
-0.0000000000000284
 11
-164.0000000000003979
 21
-39.9999999999999503
 31
-0.0000000000000353
  0
LINE
  5
DD31
  8
0
  6
CONTINUOUS
 62
     3
 10
-164.0000000000003979
 20
40.0000000000000711
 30
-0.0000000000000355
 11
-133.000000000000199
 21
40.0000000000000568
 31
-0.0000000000000286
  0
LINE
  5
DD32
  8
0
  6
CONTINUOUS
 62
     3
 10
-131.000000000000199
 20
40.0000000000000568
 30
-0.0000000000000284
 11
-100.000000000000199
 21
40.0000000000000497
 31
-0.0000000000000215
  0
LINE
  5
DD33
  8
0
  6
CONTINUOUS
 62
     3
 10
-98.0000000000002132
 20
40.0000000000000426
 30
-0.0000000000000213
 11
-67.0000000000002416
 21
40.0000000000000213
 31
-0.0000000000000144
  0
LINE
  5
DD34
  8
0
  6
CONTINUOUS
 62
     3
 10
-65.0000000000002416
 20
40.0000000000000071
 30
-0.0000000000000142
 11
-34.0000000000002274
 21
40.0
 31
-0.0000000000000073
  0
LINE
  5
DD35
  8
0
  6
CONTINUOUS
 62
     3
 10
-32.0000000000002274
 20
40.0000000000000071
 30
-0.0000000000000071
 11
-1.00000000000022
 21
40.0
 31
-0.0000000000000002
  0
LINE
  5
DD36
  8
0
  6
CONTINUOUS
 62
     3
 10
0.9999999999998085
 20
40.0
 30
0.0
 11
31.9999999999997797
 21
40.0
 31
0.0000000000000069
  0
LINE
  5
DD37
  8
0
  6
CONTINUOUS
 62
     3
 10
33.9999999999998082
 20
39.9999999999999929
 30
0.0000000000000071
 11
64.9999999999997726
 21
39.9999999999999787
 31
0.000000000000014
  0
LINE
  5
DD38
  8
0
  6
CONTINUOUS
 62
     3
 10
66.9999999999998153
 20
39.9999999999999929
 30
0.0000000000000142
 11
97.9999999999997442
 21
39.9999999999999787
 31
0.0000000000000211
  0
LINE
  5
DD39
  8
0
  6
CONTINUOUS
 62
     3
 10
99.9999999999997868
 20
39.9999999999999716
 30
0.0000000000000213
 11
130.999999999999801
 21
39.9999999999999503
 31
0.0000000000000282
  0
LINE
  5
DD3A
  8
0
  6
CONTINUOUS
 62
     3
 10
132.999999999999801
 20
39.9999999999999503
 30
0.0000000000000284
 11
163.9999999999996021
 21
39.9999999999999432
 31
0.0000000000000353
  0
ARC
  5
DD3B
  8
0
  6
CONTINUOUS
 62
     3
 10
-140.0000000000003979
 20
-49.9999999999999432
 30
-0.0000000000000284
 40
5.9999999999999947
 50
311.4096221092714245
 51
50.0554948101859409
  0
ARC
  5
DD3C
  8
0
  6
CONTINUOUS
 62
     3
 10
-140.0000000000003979
 20
-49.9999999999999289
 30
-0.0000000000000284
 40
6.0000000000000249
 50
129.9445051898148904
 51
228.590377890728405
  0
ARC
  5
DD3D
  8
0
  6
CONTINUOUS
 62
     3
 10
-140.0000000000003979
 20
50.0000000000000426
 30
-0.0000000000000284
 40
5.9999999999999787
 50
309.9445051898155157
 51
48.5903778907305579
  0
ARC
  5
DD3E
  8
0
  6
CONTINUOUS
 62
     3
 10
-140.0000000000003979
 20
50.0000000000000426
 30
-0.0000000000000284
 40
5.999999999999992
 50
131.4096221092700034
 51
230.0554948101845127
  0
ARC
  5
DD3F
  8
0
  6
CONTINUOUS
 62
     3
 10
139.9999999999994884
 20
-50.0000000000000426
 30
0.0000000000000284
 40
5.9999999999999929
 50
311.4096221092722203
 51
50.0554948101869783
  0
ARC
  5
DD40
  8
0
  6
CONTINUOUS
 62
     3
 10
139.9999999999994884
 20
-50.0000000000000213
 30
0.0000000000000284
 40
6.0000000000000284
 50
129.9445051898138104
 51
228.5903778907276944
  0
ARC
  5
DD41
  8
0
  6
CONTINUOUS
 62
     3
 10
139.9999999999994884
 20
49.9999999999999574
 30
0.000000000000032
 40
6.0000000000000142
 50
309.9445051898169936
 51
48.5903778907312187
  0
ARC
  5
DD42
  8
0
  6
CONTINUOUS
 62
     3
 10
139.9999999999994884
 20
49.9999999999999574
 30
0.000000000000032
 40
5.9999999999999982
 50
131.409622109268895
 51
230.0554948101832053
  0
LINE
  5
DD43
  8
0
  6
CONTINUOUS
 62
     3
 10
-199.999999999999801
 20
74.0000000000000995
 30
-0.0000000000000426
 11
-197.999999999999801
 21
74.0000000000000995
 31
-0.0000000000000422
  0
LINE
  5
DD44
  8
0
  6
CONTINUOUS
 62
     3
 10
-199.999999999999801
 20
-73.9999999999999005
 30
-0.0000000000000426
 11
-199.999999999999801
 21
74.0000000000000995
 31
-0.0000000000000426
  0
LINE
  5
DD45
  8
0
  6
CONTINUOUS
 62
     3
 10
-197.999999999999801
 20
-73.9999999999999005
 30
-0.0000000000000426
 11
-199.999999999999801
 21
-73.9999999999999005
 31
-0.0000000000000431
  0
LINE
  5
DD46
  8
0
  6
CONTINUOUS
 62
     3
 10
-197.999999999999801
 20
74.0000000000000995
 30
-0.0000000000000426
 11
-197.999999999999801
 21
-73.9999999999999005
 31
-0.0000000000000426
  0
LINE
  5
DD47
  8
0
  6
CONTINUOUS
 62
     3
 10
198.0000000000001137
 20
74.0000000000000711
 30
0.0000000000000426
 11
199.9999999999990052
 21
74.0000000000000711
 31
0.0000000000000431
  0
LINE
  5
DD48
  8
0
  6
CONTINUOUS
 62
     3
 10
198.0000000000001137
 20
-73.9999999999999289
 30
0.0000000000000426
 11
198.0000000000001137
 21
74.0000000000000711
 31
0.0000000000000426
  0
LINE
  5
DD49
  8
0
  6
CONTINUOUS
 62
     3
 10
199.9999999999990052
 20
-73.9999999999999289
 30
0.0000000000000426
 11
198.0000000000001137
 21
-73.9999999999999289
 31
0.0000000000000422
  0
LINE
  5
DD4A
  8
0
  6
CONTINUOUS
 62
     3
 10
199.9999999999990052
 20
-73.9999999999999289
 30
0.0000000000000426
 11
199.9999999999990052
 21
74.0000000000000711
 31
0.0000000000000426
  0
ARC
  5
DD4B
  8
0
  6
CONTINUOUS
 62
     3
 10
-140.0000000000007105
 20
-49.9999999999999218
 30
-0.000000000000032
 40
5.0000000000002274
 50
0.0000000000011323
 51
66.9260819343644613
  0
ARC
  5
DD4C
  8
0
  6
CONTINUOUS
 62
     3
 10
-140.0000000000007105
 20
-49.9999999999998508
 30
-0.000000000000032
 40
4.9999999999999387
 50
113.0739180656310054
 51
244.1580672368378089
  0
ARC
  5
DD4D
  8
0
  6
CONTINUOUS
 62
     3
 10
-140.0
 20
-50.0000000000000995
 30
-0.000000000000032
 40
4.9999999999995497
 50
295.8419327631609121
 51
0.0000000000031424
  0
CIRCLE
  5
DD4E
  8
0
  6
CONTINUOUS
 62
     3
 10
-140.0000000000003979
 20
-49.9999999999998224
 30
-0.000000000000032
 40
4.0000000000002274
  0
ARC
  5
DD4F
  8
0
  6
CONTINUOUS
 62
     3
 10
-140.000000000000199
 20
49.9999999999997016
 30
-0.000000000000032
 40
4.9999999999997717
 50
293.0739180656375993
 51
0.000000000001832
  0
ARC
  5
DD50
  8
0
  6
CONTINUOUS
 62
     3
 10
-140.0000000000003979
 20
49.9999999999998508
 30
-0.000000000000032
 40
5.0000000000000009
 50
115.8419327631612958
 51
246.9260819343608091
  0
ARC
  5
DD51
  8
0
  6
CONTINUOUS
 62
     3
 10
-140.0000000000007105
 20
49.9999999999997087
 30
-0.000000000000032
 40
5.0000000000002327
 50
0.0000000000016793
 51
64.1580672368370273
  0
CIRCLE
  5
DD52
  8
0
  6
CONTINUOUS
 62
     3
 10
-140.0000000000003979
 20
49.9999999999998508
 30
-0.000000000000032
 40
4.0000000000002274
  0
LINE
  5
DD53
  8
0
  6
CONTINUOUS
 62
     3
 10
132.999999999999801
 20
-67.5999999999999233
 30
0.0000000000000284
 11
130.999999999999801
 21
-67.5999999999999233
 31
0.000000000000028
  0
LINE
  5
DD54
  8
0
  6
CONTINUOUS
 62
     3
 10
130.999999999999801
 20
-65.5999999999999375
 30
0.0000000000000284
 11
132.999999999999801
 21
-65.5999999999999375
 31
0.0000000000000289
  0
LINE
  5
DD55
  8
0
  6
CONTINUOUS
 62
     3
 10
132.999999999999801
 20
-56.4999999999999218
 30
0.0000000000000284
 11
130.999999999999801
 21
-56.4999999999999218
 31
0.000000000000028
  0
LINE
  5
DD56
  8
0
  6
CONTINUOUS
 62
     3
 10
130.999999999999801
 20
-54.4999999999999289
 30
0.0000000000000284
 11
132.999999999999801
 21
-54.4999999999999289
 31
0.0000000000000289
  0
LINE
  5
DD57
  8
0
  6
CONTINUOUS
 62
     3
 10
132.999999999999801
 20
-45.3999999999999204
 30
0.0000000000000284
 11
130.999999999999801
 21
-45.3999999999999204
 31
0.000000000000028
  0
LINE
  5
DD58
  8
0
  6
CONTINUOUS
 62
     3
 10
130.999999999999801
 20
-43.3999999999999417
 30
0.0000000000000284
 11
132.999999999999801
 21
-43.3999999999999417
 31
0.0000000000000289
  0
LINE
  5
DD59
  8
0
  6
CONTINUOUS
 62
     3
 10
132.999999999999801
 20
-34.299999999999919
 30
0.0000000000000284
 11
130.999999999999801
 21
-34.299999999999919
 31
0.000000000000028
  0
LINE
  5
DD5A
  8
0
  6
CONTINUOUS
 62
     3
 10
130.999999999999801
 20
-32.2999999999999332
 30
0.0000000000000284
 11
132.999999999999801
 21
-32.2999999999999332
 31
0.0000000000000289
  0
LINE
  5
DD5B
  8
0
  6
CONTINUOUS
 62
     3
 10
132.999999999999801
 20
-23.1999999999999282
 30
0.0000000000000284
 11
130.999999999999801
 21
-23.1999999999999282
 31
0.000000000000028
  0
LINE
  5
DD5C
  8
0
  6
CONTINUOUS
 62
     3
 10
130.999999999999801
 20
-21.1999999999999282
 30
0.0000000000000284
 11
132.999999999999801
 21
-21.1999999999999282
 31
0.0000000000000289
  0
LINE
  5
DD5D
  8
0
  6
CONTINUOUS
 62
     3
 10
132.999999999999801
 20
-12.0999999999999197
 30
0.0000000000000284
 11
130.999999999999801
 21
-12.0999999999999197
 31
0.000000000000028
  0
LINE
  5
DD5E
  8
0
  6
CONTINUOUS
 62
     3
 10
130.999999999999801
 20
-10.0999999999999197
 30
0.0000000000000284
 11
132.999999999999801
 21
-10.0999999999999197
 31
0.0000000000000289
  0
LINE
  5
DD5F
  8
0
  6
CONTINUOUS
 62
     3
 10
132.999999999999801
 20
10.1000000000000796
 30
0.0000000000000284
 11
130.999999999999801
 21
10.1000000000000796
 31
0.000000000000028
  0
LINE
  5
DD60
  8
0
  6
CONTINUOUS
 62
     3
 10
130.999999999999801
 20
12.1000000000000707
 30
0.0000000000000284
 11
132.999999999999801
 21
12.1000000000000707
 31
0.0000000000000289
  0
LINE
  5
DD61
  8
0
  6
CONTINUOUS
 62
     3
 10
132.999999999999801
 20
21.2000000000000917
 30
0.0000000000000284
 11
130.999999999999801
 21
21.2000000000000917
 31
0.000000000000028
  0
LINE
  5
DD62
  8
0
  6
CONTINUOUS
 62
     3
 10
130.999999999999801
 20
23.200000000000081
 30
0.0000000000000284
 11
132.999999999999801
 21
23.200000000000081
 31
0.0000000000000289
  0
LINE
  5
DD63
  8
0
  6
CONTINUOUS
 62
     3
 10
132.999999999999801
 20
32.3000000000000824
 30
0.0000000000000284
 11
130.999999999999801
 21
32.3000000000000824
 31
0.000000000000028
  0
LINE
  5
DD64
  8
0
  6
CONTINUOUS
 62
     3
 10
130.999999999999801
 20
34.3000000000000824
 30
0.0000000000000284
 11
132.999999999999801
 21
34.3000000000000824
 31
0.0000000000000289
  0
LINE
  5
DD65
  8
0
  6
CONTINUOUS
 62
     3
 10
132.999999999999801
 20
43.4000000000000696
 30
0.0000000000000284
 11
130.999999999999801
 21
43.4000000000000696
 31
0.000000000000028
  0
LINE
  5
DD66
  8
0
  6
CONTINUOUS
 62
     3
 10
130.999999999999801
 20
45.4000000000000767
 30
0.0000000000000284
 11
132.999999999999801
 21
45.4000000000000767
 31
0.0000000000000289
  0
LINE
  5
DD67
  8
0
  6
CONTINUOUS
 62
     3
 10
132.999999999999801
 20
54.5000000000000924
 30
0.0000000000000284
 11
130.999999999999801
 21
54.5000000000000924
 31
0.000000000000028
  0
LINE
  5
DD68
  8
0
  6
CONTINUOUS
 62
     3
 10
130.999999999999801
 20
56.5000000000000782
 30
0.0000000000000284
 11
132.999999999999801
 21
56.5000000000000782
 31
0.0000000000000289
  0
LINE
  5
DD69
  8
0
  6
CONTINUOUS
 62
     3
 10
132.999999999999801
 20
65.6000000000000796
 30
0.0000000000000284
 11
130.999999999999801
 21
65.6000000000000796
 31
0.000000000000028
  0
LINE
  5
DD6A
  8
0
  6
CONTINUOUS
 62
     3
 10
130.999999999999801
 20
67.6000000000000654
 30
0.0000000000000284
 11
132.999999999999801
 21
67.6000000000000654
 31
0.0000000000000289
  0
LINE
  5
DD6B
  8
0
  6
CONTINUOUS
 62
     3
 10
132.999999999999801
 20
-0.9999999999999086
 30
0.0000000000000284
 11
132.999999999999801
 21
-10.0999999999999197
 31
0.0000000000000284
  0
LINE
  5
DD6C
  8
0
  6
CONTINUOUS
 62
     3
 10
132.999999999999801
 20
-0.9999999999999193
 30
0.0000000000000284
 11
130.999999999999801
 21
-0.9999999999999193
 31
0.000000000000028
  0
LINE
  5
DD6D
  8
0
  6
CONTINUOUS
 62
     3
 10
130.999999999999801
 20
-10.0999999999999197
 30
0.0000000000000284
 11
130.999999999999801
 21
-0.9999999999999094
 31
0.0000000000000284
  0
LINE
  5
DD6E
  8
0
  6
CONTINUOUS
 62
     3
 10
132.999999999999801
 20
-12.0999999999999002
 30
0.0000000000000284
 11
132.999999999999801
 21
-21.1999999999999282
 31
0.0000000000000284
  0
LINE
  5
DD6F
  8
0
  6
CONTINUOUS
 62
     3
 10
130.999999999999801
 20
-21.1999999999999282
 30
0.0000000000000284
 11
130.999999999999801
 21
-12.0999999999999002
 31
0.0000000000000284
  0
LINE
  5
DD70
  8
0
  6
CONTINUOUS
 62
     3
 10
132.999999999999801
 20
-23.1999999999999282
 30
0.0000000000000284
 11
132.999999999999801
 21
-32.299999999999919
 31
0.0000000000000284
  0
LINE
  5
DD71
  8
0
  6
CONTINUOUS
 62
     3
 10
130.999999999999801
 20
-32.299999999999919
 30
0.0000000000000284
 11
130.999999999999801
 21
-23.1999999999999282
 31
0.0000000000000284
  0
LINE
  5
DD72
  8
0
  6
CONTINUOUS
 62
     3
 10
132.999999999999801
 20
-34.299999999999919
 30
0.0000000000000284
 11
132.999999999999801
 21
-43.3999999999999417
 31
0.0000000000000284
  0
LINE
  5
DD73
  8
0
  6
CONTINUOUS
 62
     3
 10
130.999999999999801
 20
-43.3999999999999417
 30
0.0000000000000284
 11
130.999999999999801
 21
-34.299999999999919
 31
0.0000000000000284
  0
LINE
  5
DD74
  8
0
  6
CONTINUOUS
 62
     3
 10
132.999999999999801
 20
-45.3999999999999204
 30
0.0000000000000284
 11
132.999999999999801
 21
-54.4999999999999289
 31
0.0000000000000284
  0
LINE
  5
DD75
  8
0
  6
CONTINUOUS
 62
     3
 10
130.999999999999801
 20
-54.4999999999999289
 30
0.0000000000000284
 11
130.999999999999801
 21
-45.3999999999999204
 31
0.0000000000000284
  0
LINE
  5
DD76
  8
0
  6
CONTINUOUS
 62
     3
 10
132.999999999999801
 20
-56.4999999999999432
 30
0.0000000000000284
 11
132.999999999999801
 21
-65.5999999999999375
 31
0.0000000000000284
  0
LINE
  5
DD77
  8
0
  6
CONTINUOUS
 62
     3
 10
130.999999999999801
 20
-65.5999999999999375
 30
0.0000000000000284
 11
130.999999999999801
 21
-56.4999999999999503
 31
0.0000000000000284
  0
LINE
  5
DD78
  8
0
  6
CONTINUOUS
 62
     3
 10
130.999999999999801
 20
1.000000000000077
 30
0.0000000000000284
 11
130.999999999999801
 21
10.1000000000000796
 31
0.0000000000000284
  0
LINE
  5
DD79
  8
0
  6
CONTINUOUS
 62
     3
 10
130.999999999999801
 20
12.1000000000000796
 30
0.0000000000000284
 11
130.999999999999801
 21
21.2000000000000917
 31
0.0000000000000284
  0
LINE
  5
DD7A
  8
0
  6
CONTINUOUS
 62
     3
 10
130.999999999999801
 20
23.200000000000081
 30
0.0000000000000284
 11
130.999999999999801
 21
32.3000000000000895
 31
0.0000000000000284
  0
LINE
  5
DD7B
  8
0
  6
CONTINUOUS
 62
     3
 10
130.999999999999801
 20
34.3000000000000895
 30
0.0000000000000284
 11
130.999999999999801
 21
43.4000000000000767
 31
0.0000000000000284
  0
LINE
  5
DD7C
  8
0
  6
CONTINUOUS
 62
     3
 10
130.999999999999801
 20
45.4000000000000767
 30
0.0000000000000284
 11
130.999999999999801
 21
54.5000000000000924
 31
0.0000000000000284
  0
LINE
  5
DD7D
  8
0
  6
CONTINUOUS
 62
     3
 10
130.999999999999801
 20
56.5000000000000924
 30
0.0000000000000284
 11
130.999999999999801
 21
65.6000000000000796
 31
0.0000000000000284
  0
LINE
  5
DD7E
  8
0
  6
CONTINUOUS
 62
     3
 10
130.999999999999801
 20
67.6000000000000654
 30
0.0000000000000284
 11
130.999999999999801
 21
74.0000000000001137
 31
0.0000000000000284
  0
LINE
  5
DD7F
  8
0
  6
CONTINUOUS
 62
     3
 10
130.999999999999801
 20
-73.9999999999998863
 30
0.0000000000000284
 11
130.999999999999801
 21
-67.5999999999998948
 31
0.0000000000000284
  0
LINE
  5
DD80
  8
0
  6
CONTINUOUS
 62
     3
 10
132.999999999999801
 20
74.0000000000001137
 30
0.0000000000000284
 11
132.999999999999801
 21
67.6000000000000654
 31
0.0000000000000284
  0
LINE
  5
DD81
  8
0
  6
CONTINUOUS
 62
     3
 10
130.999999999999801
 20
74.0000000000001137
 30
0.0000000000000284
 11
132.999999999999801
 21
74.0000000000001137
 31
0.0000000000000289
  0
LINE
  5
DD82
  8
0
  6
CONTINUOUS
 62
     3
 10
132.999999999999801
 20
65.6000000000000796
 30
0.0000000000000284
 11
132.999999999999801
 21
56.5000000000000782
 31
0.0000000000000284
  0
LINE
  5
DD83
  8
0
  6
CONTINUOUS
 62
     3
 10
132.999999999999801
 20
54.5000000000000924
 30
0.0000000000000284
 11
132.999999999999801
 21
45.4000000000000767
 31
0.0000000000000284
  0
LINE
  5
DD84
  8
0
  6
CONTINUOUS
 62
     3
 10
132.999999999999801
 20
43.4000000000000767
 30
0.0000000000000284
 11
132.999999999999801
 21
34.3000000000000895
 31
0.0000000000000284
  0
LINE
  5
DD85
  8
0
  6
CONTINUOUS
 62
     3
 10
132.999999999999801
 20
32.3000000000000895
 30
0.0000000000000284
 11
132.999999999999801
 21
23.200000000000081
 31
0.0000000000000284
  0
LINE
  5
DD86
  8
0
  6
CONTINUOUS
 62
     3
 10
132.999999999999801
 20
21.2000000000000917
 30
0.0000000000000284
 11
132.999999999999801
 21
12.1000000000000796
 31
0.0000000000000284
  0
LINE
  5
DD87
  8
0
  6
CONTINUOUS
 62
     3
 10
130.999999999999801
 20
1.0000000000000731
 30
0.0000000000000284
 11
132.999999999999801
 21
1.0000000000000731
 31
0.0000000000000289
  0
LINE
  5
DD88
  8
0
  6
CONTINUOUS
 62
     3
 10
132.999999999999801
 20
10.1000000000000796
 30
0.0000000000000284
 11
132.999999999999801
 21
1.0000000000000759
 31
0.0000000000000284
  0
LINE
  5
DD89
  8
0
  6
CONTINUOUS
 62
     3
 10
132.999999999999801
 20
-73.9999999999999005
 30
0.0000000000000284
 11
130.999999999999801
 21
-73.9999999999999005
 31
0.000000000000028
  0
LINE
  5
DD8A
  8
0
  6
CONTINUOUS
 62
     3
 10
132.999999999999801
 20
-67.5999999999998948
 30
0.0000000000000284
 11
132.999999999999801
 21
-73.9999999999998863
 31
0.0000000000000284
  0
LINE
  5
DD8B
  8
0
  6
CONTINUOUS
 62
     3
 10
0.9999999999997937
 20
-67.5999999999998948
 30
0.0
 11
-1.000000000000234
 21
-67.5999999999998948
 31
-0.0000000000000004
  0
LINE
  5
DD8C
  8
0
  6
CONTINUOUS
 62
     3
 10
-1.000000000000234
 20
-65.5999999999999233
 30
0.0
 11
0.9999999999997937
 21
-65.5999999999999233
 31
0.0000000000000004
  0
LINE
  5
DD8D
  8
0
  6
CONTINUOUS
 62
     3
 10
0.9999999999997942
 20
-56.4999999999999076
 30
0.0
 11
-1.000000000000234
 21
-56.4999999999999076
 31
-0.0000000000000004
  0
LINE
  5
DD8E
  8
0
  6
CONTINUOUS
 62
     3
 10
-1.000000000000234
 20
-54.4999999999999289
 30
0.0
 11
0.9999999999997942
 21
-54.4999999999999289
 31
0.0000000000000004
  0
LINE
  5
DD8F
  8
0
  6
CONTINUOUS
 62
     3
 10
0.9999999999997951
 20
-45.3999999999999204
 30
0.0
 11
-1.0000000000002329
 21
-45.3999999999999204
 31
-0.0000000000000004
  0
LINE
  5
DD90
  8
0
  6
CONTINUOUS
 62
     3
 10
-1.0000000000002329
 20
-43.3999999999999275
 30
0.0
 11
0.9999999999997951
 21
-43.3999999999999275
 31
0.0000000000000004
  0
LINE
  5
DD91
  8
0
  6
CONTINUOUS
 62
     3
 10
0.9999999999997957
 20
-34.2999999999999119
 30
0.0
 11
-1.000000000000232
 21
-34.2999999999999119
 31
-0.0000000000000004
  0
LINE
  5
DD92
  8
0
  6
CONTINUOUS
 62
     3
 10
-1.000000000000232
 20
-32.299999999999919
 30
0.0
 11
0.9999999999997957
 21
-32.299999999999919
 31
0.0000000000000004
  0
LINE
  5
DD93
  8
0
  6
CONTINUOUS
 62
     3
 10
0.9999999999997964
 20
-23.1999999999999211
 30
0.0
 11
-1.000000000000232
 21
-23.1999999999999211
 31
-0.0000000000000004
  0
LINE
  5
DD94
  8
0
  6
CONTINUOUS
 62
     3
 10
-1.000000000000232
 20
-21.1999999999999282
 30
0.0
 11
0.9999999999997964
 21
-21.1999999999999282
 31
0.0000000000000004
  0
LINE
  5
DD95
  8
0
  6
CONTINUOUS
 62
     3
 10
0.9999999999997971
 20
-12.0999999999999108
 30
0.0
 11
-1.0000000000002309
 21
-12.0999999999999108
 31
-0.0000000000000004
  0
LINE
  5
DD96
  8
0
  6
CONTINUOUS
 62
     3
 10
-1.0000000000002309
 20
-10.0999999999999108
 30
0.0
 11
0.9999999999997971
 21
-10.0999999999999108
 31
0.0000000000000004
  0
LINE
  5
DD97
  8
0
  6
CONTINUOUS
 62
     3
 10
0.9999999999997983
 20
10.1000000000000796
 30
0.0
 11
-1.00000000000023
 21
10.1000000000000796
 31
-0.0000000000000004
  0
LINE
  5
DD98
  8
0
  6
CONTINUOUS
 62
     3
 10
-1.0000000000002289
 20
12.1000000000000796
 30
0.0
 11
0.9999999999997985
 21
12.1000000000000796
 31
0.0000000000000004
  0
LINE
  5
DD99
  8
0
  6
CONTINUOUS
 62
     3
 10
0.999999999999799
 20
21.2000000000000917
 30
0.0
 11
-1.0000000000002289
 21
21.2000000000000917
 31
-0.0000000000000004
  0
LINE
  5
DD9A
  8
0
  6
CONTINUOUS
 62
     3
 10
-1.0000000000002289
 20
23.2000000000000917
 30
0.0
 11
0.9999999999997992
 21
23.2000000000000917
 31
0.0000000000000004
  0
LINE
  5
DD9B
  8
0
  6
CONTINUOUS
 62
     3
 10
0.9999999999997996
 20
32.3000000000000895
 30
0.0
 11
-1.000000000000228
 21
32.3000000000000895
 31
-0.0000000000000004
  0
LINE
  5
DD9C
  8
0
  6
CONTINUOUS
 62
     3
 10
-1.000000000000228
 20
34.3000000000000895
 30
0.0
 11
0.9999999999997999
 21
34.3000000000000895
 31
0.0000000000000004
  0
LINE
  5
DD9D
  8
0
  6
CONTINUOUS
 62
     3
 10
0.9999999999998003
 20
43.4000000000000767
 30
0.0
 11
-1.000000000000228
 21
43.4000000000000767
 31
-0.0000000000000004
  0
LINE
  5
DD9E
  8
0
  6
CONTINUOUS
 62
     3
 10
-1.0000000000002269
 20
45.4000000000000767
 30
0.0
 11
0.9999999999998006
 21
45.4000000000000767
 31
0.0000000000000004
  0
LINE
  5
DD9F
  8
0
  6
CONTINUOUS
 62
     3
 10
0.999999999999801
 20
54.5000000000000924
 30
0.0
 11
-1.0000000000002269
 21
54.5000000000000924
 31
-0.0000000000000004
  0
LINE
  5
DDA0
  8
0
  6
CONTINUOUS
 62
     3
 10
-1.0000000000002269
 20
56.5000000000000924
 30
0.0
 11
0.9999999999998012
 21
56.5000000000000924
 31
0.0000000000000004
  0
LINE
  5
DDA1
  8
0
  6
CONTINUOUS
 62
     3
 10
0.9999999999998017
 20
65.6000000000000938
 30
0.0
 11
-1.000000000000226
 21
65.6000000000000938
 31
-0.0000000000000004
  0
LINE
  5
DDA2
  8
0
  6
CONTINUOUS
 62
     3
 10
-1.000000000000226
 20
67.6000000000000796
 30
0.0
 11
0.9999999999998019
 21
67.6000000000000796
 31
0.0000000000000004
  0
LINE
  5
DDA3
  8
0
  6
CONTINUOUS
 62
     3
 10
0.9999999999997834
 20
-0.9999999999999007
 30
0.0
 11
0.999999999999783
 21
-10.0999999999999108
 31
0.0
  0
LINE
  5
DDA4
  8
0
  6
CONTINUOUS
 62
     3
 10
0.9999999999997976
 20
-0.9999999999999113
 30
0.0
 11
-1.00000000000023
 21
-0.9999999999999111
 31
-0.0000000000000004
  0
LINE
  5
DDA5
  8
0
  6
CONTINUOUS
 62
     3
 10
-1.0000000000002169
 20
-10.0999999999999108
 30
0.0
 11
-1.000000000000216
 21
-0.9999999999999005
 31
0.0
  0
LINE
  5
DDA6
  8
0
  6
CONTINUOUS
 62
     3
 10
0.999999999999783
 20
-12.0999999999998895
 30
0.0
 11
0.9999999999997822
 21
-21.1999999999999211
 31
0.0
  0
LINE
  5
DDA7
  8
0
  6
CONTINUOUS
 62
     3
 10
-1.0000000000002169
 20
-21.1999999999999211
 30
0.0
 11
-1.0000000000002169
 21
-12.0999999999998895
 31
0.0
  0
LINE
  5
DDA8
  8
0
  6
CONTINUOUS
 62
     3
 10
0.9999999999997822
 20
-23.1999999999999211
 30
0.0
 11
0.9999999999997816
 21
-32.2999999999999119
 31
0.0
  0
LINE
  5
DDA9
  8
0
  6
CONTINUOUS
 62
     3
 10
-1.000000000000218
 20
-32.2999999999999119
 30
0.0
 11
-1.0000000000002169
 21
-23.1999999999999211
 31
0.0
  0
LINE
  5
DDAA
  8
0
  6
CONTINUOUS
 62
     3
 10
0.9999999999997815
 20
-34.2999999999999119
 30
0.0
 11
0.999999999999781
 21
-43.3999999999999275
 31
0.0
  0
LINE
  5
DDAB
  8
0
  6
CONTINUOUS
 62
     3
 10
-1.0000000000002189
 20
-43.3999999999999275
 30
0.0
 11
-1.000000000000218
 21
-34.2999999999999119
 31
0.0
  0
LINE
  5
DDAC
  8
0
  6
CONTINUOUS
 62
     3
 10
0.9999999999997806
 20
-45.3999999999999204
 30
0.0
 11
0.99999999999978
 21
-54.4999999999999289
 31
0.0
  0
LINE
  5
DDAD
  8
0
  6
CONTINUOUS
 62
     3
 10
-1.0000000000002189
 20
-54.4999999999999289
 30
0.0
 11
-1.0000000000002189
 21
-45.3999999999999204
 31
0.0
  0
LINE
  5
DDAE
  8
0
  6
CONTINUOUS
 62
     3
 10
0.99999999999978
 20
-56.4999999999999289
 30
0.0
 11
0.9999999999997795
 21
-65.5999999999999233
 31
0.0
  0
LINE
  5
DDAF
  8
0
  6
CONTINUOUS
 62
     3
 10
-1.00000000000022
 20
-65.5999999999999233
 30
0.0
 11
-1.0000000000002189
 21
-56.4999999999999289
 31
0.0
  0
LINE
  5
DDB0
  8
0
  6
CONTINUOUS
 62
     3
 10
-1.00000000000022
 20
-73.9999999999998721
 30
0.0
 11
-1.00000000000022
 21
-67.5999999999998948
 31
0.0
  0
LINE
  5
DDB1
  8
0
  6
CONTINUOUS
 62
     3
 10
0.999999999999779
 20
-73.9999999999998863
 30
0.0
 11
-1.00000000000022
 21
-73.9999999999998863
 31
-0.0000000000000004
  0
LINE
  5
DDB2
  8
0
  6
CONTINUOUS
 62
     3
 10
0.9999999999997793
 20
-67.5999999999998948
 30
0.0
 11
0.9999999999997788
 21
-73.9999999999998721
 31
0.0
  0
LINE
  5
DDB3
  8
0
  6
CONTINUOUS
 62
     3
 10
0.9999999999997882
 20
74.0000000000001137
 30
0.0
 11
0.9999999999997877
 21
67.6000000000000796
 31
0.0
  0
LINE
  5
DDB4
  8
0
  6
CONTINUOUS
 62
     3
 10
-1.0000000000002109
 20
74.0000000000001137
 30
0.0
 11
0.9999999999997882
 21
74.0000000000001137
 31
0.0000000000000004
  0
LINE
  5
DDB5
  8
0
  6
CONTINUOUS
 62
     3
 10
-1.0000000000002121
 20
67.6000000000000796
 30
0.0
 11
-1.0000000000002109
 21
74.0000000000001137
 31
0.0
  0
LINE
  5
DDB6
  8
0
  6
CONTINUOUS
 62
     3
 10
0.9999999999997875
 20
65.6000000000000938
 30
0.0
 11
0.9999999999997869
 21
56.5000000000000924
 31
0.0
  0
LINE
  5
DDB7
  8
0
  6
CONTINUOUS
 62
     3
 10
-1.0000000000002121
 20
56.5000000000000924
 30
0.0
 11
-1.0000000000002121
 21
65.6000000000000938
 31
0.0
  0
LINE
  5
DDB8
  8
0
  6
CONTINUOUS
 62
     3
 10
0.9999999999997868
 20
54.5000000000000924
 30
0.0
 11
0.9999999999997863
 21
45.4000000000000909
 31
0.0
  0
LINE
  5
DDB9
  8
0
  6
CONTINUOUS
 62
     3
 10
-1.0000000000002129
 20
45.4000000000000909
 30
0.0
 11
-1.0000000000002121
 21
54.5000000000000924
 31
0.0
  0
LINE
  5
DDBA
  8
0
  6
CONTINUOUS
 62
     3
 10
0.9999999999997861
 20
43.4000000000000909
 30
0.0
 11
0.9999999999997855
 21
34.3000000000000895
 31
0.0
  0
LINE
  5
DDBB
  8
0
  6
CONTINUOUS
 62
     3
 10
-1.0000000000002141
 20
34.3000000000000895
 30
0.0
 11
-1.0000000000002129
 21
43.4000000000000909
 31
0.0
  0
LINE
  5
DDBC
  8
0
  6
CONTINUOUS
 62
     3
 10
0.9999999999997854
 20
32.3000000000000966
 30
0.0
 11
0.9999999999997848
 21
23.2000000000000917
 31
0.0
  0
LINE
  5
DDBD
  8
0
  6
CONTINUOUS
 62
     3
 10
-1.0000000000002141
 20
23.2000000000000917
 30
0.0
 11
-1.0000000000002141
 21
32.3000000000000966
 31
0.0
  0
LINE
  5
DDBE
  8
0
  6
CONTINUOUS
 62
     3
 10
0.9999999999997848
 20
21.2000000000000988
 30
0.0
 11
0.9999999999997843
 21
12.1000000000000902
 31
0.0
  0
LINE
  5
DDBF
  8
0
  6
CONTINUOUS
 62
     3
 10
-1.0000000000002149
 20
12.1000000000000902
 30
0.0
 11
-1.0000000000002149
 21
21.2000000000000988
 31
0.0
  0
LINE
  5
DDC0
  8
0
  6
CONTINUOUS
 62
     3
 10
-1.000000000000216
 20
1.000000000000085
 30
0.0
 11
-1.0000000000002149
 21
10.1000000000000902
 31
0.0
  0
LINE
  5
DDC1
  8
0
  6
CONTINUOUS
 62
     3
 10
-1.00000000000023
 20
1.000000000000081
 30
0.0
 11
0.9999999999997836
 21
1.000000000000081
 31
0.0000000000000004
  0
LINE
  5
DDC2
  8
0
  6
CONTINUOUS
 62
     3
 10
0.9999999999997841
 20
10.1000000000000902
 30
0.0
 11
0.9999999999997836
 21
1.000000000000085
 31
0.0
  0
LINE
  5
DDC3
  8
0
  6
CONTINUOUS
 62
     3
 10
66.9999999999998153
 20
-67.5999999999998948
 30
0.0000000000000142
 11
66.9999999999998153
 21
-73.9999999999998721
 31
0.0000000000000142
  0
LINE
  5
DDC4
  8
0
  6
CONTINUOUS
 62
     3
 10
66.9999999999998153
 20
74.0000000000001137
 30
0.0000000000000142
 11
66.9999999999998153
 21
67.6000000000000796
 31
0.0000000000000142
  0
LINE
  5
DDC5
  8
0
  6
CONTINUOUS
 62
     3
 10
66.9999999999998153
 20
65.6000000000000938
 30
0.0000000000000142
 11
66.9999999999998153
 21
56.5000000000000924
 31
0.0000000000000142
  0
LINE
  5
DDC6
  8
0
  6
CONTINUOUS
 62
     3
 10
66.9999999999998153
 20
54.5000000000000924
 30
0.0000000000000142
 11
66.9999999999998153
 21
45.4000000000000767
 31
0.0000000000000142
  0
LINE
  5
DDC7
  8
0
  6
CONTINUOUS
 62
     3
 10
66.9999999999998153
 20
43.4000000000000767
 30
0.0000000000000142
 11
66.9999999999998153
 21
34.3000000000000895
 31
0.0000000000000142
  0
LINE
  5
DDC8
  8
0
  6
CONTINUOUS
 62
     3
 10
66.9999999999998153
 20
32.3000000000000895
 30
0.0000000000000142
 11
66.9999999999998153
 21
23.200000000000081
 31
0.0000000000000142
  0
LINE
  5
DDC9
  8
0
  6
CONTINUOUS
 62
     3
 10
66.9999999999998153
 20
21.2000000000000988
 30
0.0000000000000142
 11
66.9999999999998153
 21
12.1000000000000796
 31
0.0000000000000142
  0
LINE
  5
DDCA
  8
0
  6
CONTINUOUS
 62
     3
 10
66.9999999999998153
 20
10.1000000000000902
 30
0.0000000000000142
 11
66.9999999999998153
 21
1.000000000000081
 31
0.0000000000000142
  0
LINE
  5
DDCB
  8
0
  6
CONTINUOUS
 62
     3
 10
66.9999999999998153
 20
-0.9999999999999046
 30
0.0000000000000142
 11
66.9999999999998153
 21
-10.0999999999999108
 31
0.0000000000000142
  0
LINE
  5
DDCC
  8
0
  6
CONTINUOUS
 62
     3
 10
66.9999999999998153
 20
-12.0999999999999002
 30
0.0000000000000142
 11
66.9999999999998153
 21
-21.1999999999999211
 31
0.0000000000000142
  0
LINE
  5
DDCD
  8
0
  6
CONTINUOUS
 62
     3
 10
66.9999999999998153
 20
-23.1999999999999211
 30
0.0000000000000142
 11
66.9999999999998153
 21
-32.2999999999999119
 31
0.0000000000000142
  0
LINE
  5
DDCE
  8
0
  6
CONTINUOUS
 62
     3
 10
66.9999999999998153
 20
-34.299999999999919
 30
0.0000000000000142
 11
66.9999999999998153
 21
-43.3999999999999417
 31
0.0000000000000142
  0
LINE
  5
DDCF
  8
0
  6
CONTINUOUS
 62
     3
 10
66.9999999999998153
 20
-45.3999999999999204
 30
0.0000000000000142
 11
66.9999999999998153
 21
-54.4999999999999289
 31
0.0000000000000142
  0
LINE
  5
DDD0
  8
0
  6
CONTINUOUS
 62
     3
 10
66.9999999999998153
 20
-56.4999999999999432
 30
0.0000000000000142
 11
66.9999999999998153
 21
-65.5999999999999375
 31
0.0000000000000142
  0
LINE
  5
DDD1
  8
0
  6
CONTINUOUS
 62
     3
 10
66.999999999999801
 20
-73.9999999999998863
 30
0.0000000000000142
 11
64.999999999999801
 21
-73.9999999999998863
 31
0.0000000000000138
  0
LINE
  5
DDD2
  8
0
  6
CONTINUOUS
 62
     3
 10
64.999999999999801
 20
74.0000000000001137
 30
0.0000000000000142
 11
66.999999999999801
 21
74.0000000000001137
 31
0.0000000000000147
  0
LINE
  5
DDD3
  8
0
  6
CONTINUOUS
 62
     3
 10
66.9999999999998153
 20
-67.5999999999998948
 30
0.0000000000000142
 11
64.9999999999997868
 21
-67.5999999999998948
 31
0.0000000000000138
  0
LINE
  5
DDD4
  8
0
  6
CONTINUOUS
 62
     3
 10
64.9999999999997868
 20
-73.9999999999998721
 30
0.0000000000000142
 11
64.9999999999997868
 21
-67.5999999999998948
 31
0.0000000000000142
  0
LINE
  5
DDD5
  8
0
  6
CONTINUOUS
 62
     3
 10
66.9999999999998153
 20
10.1000000000000796
 30
0.0000000000000142
 11
64.9999999999997868
 21
10.1000000000000796
 31
0.0000000000000138
  0
LINE
  5
DDD6
  8
0
  6
CONTINUOUS
 62
     3
 10
64.9999999999997868
 20
1.000000000000081
 30
0.0000000000000142
 11
64.9999999999997868
 21
10.1000000000000902
 31
0.0000000000000142
  0
LINE
  5
DDD7
  8
0
  6
CONTINUOUS
 62
     3
 10
64.9999999999997868
 20
1.000000000000077
 30
0.0000000000000142
 11
66.9999999999998153
 21
1.000000000000077
 31
0.0000000000000147
  0
LINE
  5
DDD8
  8
0
  6
CONTINUOUS
 62
     3
 10
66.9999999999998153
 20
-0.999999999999915
 30
0.0000000000000142
 11
64.9999999999997868
 21
-0.999999999999915
 31
0.0000000000000138
  0
LINE
  5
DDD9
  8
0
  6
CONTINUOUS
 62
     3
 10
64.9999999999997868
 20
12.1000000000000707
 30
0.0000000000000142
 11
66.9999999999998153
 21
12.1000000000000707
 31
0.0000000000000147
  0
LINE
  5
DDDA
  8
0
  6
CONTINUOUS
 62
     3
 10
66.9999999999998153
 20
21.2000000000000917
 30
0.0000000000000142
 11
64.9999999999997868
 21
21.2000000000000917
 31
0.0000000000000138
  0
LINE
  5
DDDB
  8
0
  6
CONTINUOUS
 62
     3
 10
64.9999999999997868
 20
12.1000000000000796
 30
0.0000000000000142
 11
64.9999999999997868
 21
21.2000000000000988
 31
0.0000000000000142
  0
LINE
  5
DDDC
  8
0
  6
CONTINUOUS
 62
     3
 10
64.9999999999997868
 20
23.2000000000000917
 30
0.0000000000000142
 11
66.9999999999998153
 21
23.2000000000000917
 31
0.0000000000000147
  0
LINE
  5
DDDD
  8
0
  6
CONTINUOUS
 62
     3
 10
66.9999999999998153
 20
32.3000000000000824
 30
0.0000000000000142
 11
64.9999999999997868
 21
32.3000000000000824
 31
0.0000000000000138
  0
LINE
  5
DDDE
  8
0
  6
CONTINUOUS
 62
     3
 10
64.9999999999997868
 20
23.2000000000000917
 30
0.0000000000000142
 11
64.9999999999997868
 21
32.3000000000000966
 31
0.0000000000000142
  0
LINE
  5
DDDF
  8
0
  6
CONTINUOUS
 62
     3
 10
64.9999999999997868
 20
34.3000000000000824
 30
0.0000000000000142
 11
66.9999999999998153
 21
34.3000000000000824
 31
0.0000000000000147
  0
LINE
  5
DDE0
  8
0
  6
CONTINUOUS
 62
     3
 10
66.9999999999998153
 20
43.4000000000000696
 30
0.0000000000000142
 11
64.9999999999997868
 21
43.4000000000000696
 31
0.0000000000000138
  0
LINE
  5
DDE1
  8
0
  6
CONTINUOUS
 62
     3
 10
64.9999999999997868
 20
34.3000000000000895
 30
0.0000000000000142
 11
64.9999999999997868
 21
43.4000000000000767
 31
0.0000000000000142
  0
LINE
  5
DDE2
  8
0
  6
CONTINUOUS
 62
     3
 10
64.9999999999997868
 20
45.4000000000000767
 30
0.0000000000000142
 11
66.9999999999998153
 21
45.4000000000000767
 31
0.0000000000000147
  0
LINE
  5
DDE3
  8
0
  6
CONTINUOUS
 62
     3
 10
66.9999999999998153
 20
54.5000000000000924
 30
0.0000000000000142
 11
64.9999999999997868
 21
54.5000000000000924
 31
0.0000000000000138
  0
LINE
  5
DDE4
  8
0
  6
CONTINUOUS
 62
     3
 10
64.9999999999997868
 20
45.4000000000000767
 30
0.0000000000000142
 11
64.9999999999997868
 21
54.5000000000000924
 31
0.0000000000000142
  0
LINE
  5
DDE5
  8
0
  6
CONTINUOUS
 62
     3
 10
64.9999999999997868
 20
56.5000000000000782
 30
0.0000000000000142
 11
66.9999999999998153
 21
56.5000000000000782
 31
0.0000000000000147
  0
LINE
  5
DDE6
  8
0
  6
CONTINUOUS
 62
     3
 10
66.9999999999998153
 20
65.6000000000000938
 30
0.0000000000000142
 11
64.9999999999997868
 21
65.6000000000000938
 31
0.0000000000000138
  0
LINE
  5
DDE7
  8
0
  6
CONTINUOUS
 62
     3
 10
64.9999999999997868
 20
56.5000000000000924
 30
0.0000000000000142
 11
64.9999999999997868
 21
65.6000000000000796
 31
0.0000000000000142
  0
LINE
  5
DDE8
  8
0
  6
CONTINUOUS
 62
     3
 10
64.9999999999997868
 20
67.6000000000000796
 30
0.0000000000000142
 11
66.9999999999998153
 21
67.6000000000000796
 31
0.0000000000000147
  0
LINE
  5
DDE9
  8
0
  6
CONTINUOUS
 62
     3
 10
64.9999999999997868
 20
67.6000000000000796
 30
0.0000000000000142
 11
64.9999999999997868
 21
74.0000000000001137
 31
0.0000000000000142
  0
LINE
  5
DDEA
  8
0
  6
CONTINUOUS
 62
     3
 10
64.9999999999997868
 20
-65.5999999999999233
 30
0.0000000000000142
 11
64.9999999999997868
 21
-56.4999999999999289
 31
0.0000000000000142
  0
LINE
  5
DDEB
  8
0
  6
CONTINUOUS
 62
     3
 10
64.9999999999997868
 20
-54.4999999999999289
 30
0.0000000000000142
 11
64.9999999999997868
 21
-45.3999999999999204
 31
0.0000000000000142
  0
LINE
  5
DDEC
  8
0
  6
CONTINUOUS
 62
     3
 10
64.9999999999997868
 20
-43.3999999999999417
 30
0.0000000000000142
 11
64.9999999999997868
 21
-34.299999999999919
 31
0.0000000000000142
  0
LINE
  5
DDED
  8
0
  6
CONTINUOUS
 62
     3
 10
64.9999999999997868
 20
-32.299999999999919
 30
0.0000000000000142
 11
64.9999999999997868
 21
-23.1999999999999282
 31
0.0000000000000142
  0
LINE
  5
DDEE
  8
0
  6
CONTINUOUS
 62
     3
 10
64.9999999999997868
 20
-21.1999999999999211
 30
0.0000000000000142
 11
64.9999999999997868
 21
-12.0999999999999002
 31
0.0000000000000142
  0
LINE
  5
DDEF
  8
0
  6
CONTINUOUS
 62
     3
 10
64.9999999999997868
 20
-10.0999999999999108
 30
0.0000000000000142
 11
64.9999999999997868
 21
-0.999999999999904
 31
0.0000000000000142
  0
LINE
  5
DDF0
  8
0
  6
CONTINUOUS
 62
     3
 10
64.9999999999997868
 20
-65.5999999999999233
 30
0.0000000000000142
 11
66.9999999999998153
 21
-65.5999999999999233
 31
0.0000000000000147
  0
LINE
  5
DDF1
  8
0
  6
CONTINUOUS
 62
     3
 10
66.9999999999998153
 20
-56.4999999999999218
 30
0.0000000000000142
 11
64.9999999999997868
 21
-56.4999999999999218
 31
0.0000000000000138
  0
LINE
  5
DDF2
  8
0
  6
CONTINUOUS
 62
     3
 10
64.9999999999997868
 20
-54.4999999999999289
 30
0.0000000000000142
 11
66.9999999999998153
 21
-54.4999999999999289
 31
0.0000000000000147
  0
LINE
  5
DDF3
  8
0
  6
CONTINUOUS
 62
     3
 10
66.9999999999998153
 20
-45.3999999999999204
 30
0.0000000000000142
 11
64.9999999999997868
 21
-45.3999999999999204
 31
0.0000000000000138
  0
LINE
  5
DDF4
  8
0
  6
CONTINUOUS
 62
     3
 10
64.9999999999997868
 20
-43.3999999999999417
 30
0.0000000000000142
 11
66.9999999999998153
 21
-43.3999999999999417
 31
0.0000000000000147
  0
LINE
  5
DDF5
  8
0
  6
CONTINUOUS
 62
     3
 10
66.9999999999998153
 20
-34.299999999999919
 30
0.0000000000000142
 11
64.9999999999997868
 21
-34.299999999999919
 31
0.0000000000000138
  0
LINE
  5
DDF6
  8
0
  6
CONTINUOUS
 62
     3
 10
64.9999999999997868
 20
-32.2999999999999332
 30
0.0000000000000142
 11
66.9999999999998153
 21
-32.2999999999999332
 31
0.0000000000000147
  0
LINE
  5
DDF7
  8
0
  6
CONTINUOUS
 62
     3
 10
66.9999999999998153
 20
-23.1999999999999211
 30
0.0000000000000142
 11
64.9999999999997868
 21
-23.1999999999999211
 31
0.0000000000000138
  0
LINE
  5
DDF8
  8
0
  6
CONTINUOUS
 62
     3
 10
64.9999999999997868
 20
-21.1999999999999282
 30
0.0000000000000142
 11
66.9999999999998153
 21
-21.1999999999999282
 31
0.0000000000000147
  0
LINE
  5
DDF9
  8
0
  6
CONTINUOUS
 62
     3
 10
66.9999999999998153
 20
-12.0999999999999108
 30
0.0000000000000142
 11
64.9999999999997868
 21
-12.0999999999999108
 31
0.0000000000000138
  0
LINE
  5
DDFA
  8
0
  6
CONTINUOUS
 62
     3
 10
64.9999999999997868
 20
-10.0999999999999197
 30
0.0000000000000142
 11
66.9999999999998153
 21
-10.0999999999999197
 31
0.0000000000000147
  0
LINE
  5
DDFB
  8
0
  6
CONTINUOUS
 62
     3
 10
-98.0000000000002132
 20
-67.5999999999998948
 30
-0.0000000000000213
 11
-100.000000000000199
 21
-67.5999999999998948
 31
-0.0000000000000218
  0
LINE
  5
DDFC
  8
0
  6
CONTINUOUS
 62
     3
 10
-100.000000000000199
 20
-65.5999999999999233
 30
-0.0000000000000213
 11
-98.0000000000002132
 21
-65.5999999999999233
 31
-0.0000000000000209
  0
LINE
  5
DDFD
  8
0
  6
CONTINUOUS
 62
     3
 10
-98.0000000000002132
 20
-56.4999999999999076
 30
-0.0000000000000213
 11
-100.000000000000199
 21
-56.4999999999999076
 31
-0.0000000000000218
  0
LINE
  5
DDFE
  8
0
  6
CONTINUOUS
 62
     3
 10
-100.000000000000199
 20
-54.4999999999999218
 30
-0.0000000000000213
 11
-98.0000000000002132
 21
-54.4999999999999218
 31
-0.0000000000000209
  0
LINE
  5
DDFF
  8
0
  6
CONTINUOUS
 62
     3
 10
-98.0000000000002132
 20
-45.3999999999999133
 30
-0.0000000000000213
 11
-100.000000000000199
 21
-45.3999999999999133
 31
-0.0000000000000218
  0
LINE
  5
DE00
  8
0
  6
CONTINUOUS
 62
     3
 10
-100.000000000000199
 20
-43.3999999999999204
 30
-0.0000000000000213
 11
-98.0000000000002132
 21
-43.3999999999999204
 31
-0.0000000000000209
  0
LINE
  5
DE01
  8
0
  6
CONTINUOUS
 62
     3
 10
-98.0000000000002132
 20
-34.2999999999999119
 30
-0.0000000000000213
 11
-100.000000000000199
 21
-34.2999999999999119
 31
-0.0000000000000218
  0
LINE
  5
DE02
  8
0
  6
CONTINUOUS
 62
     3
 10
-100.000000000000199
 20
-32.2999999999999119
 30
-0.0000000000000213
 11
-98.0000000000002132
 21
-32.2999999999999119
 31
-0.0000000000000209
  0
LINE
  5
DE03
  8
0
  6
CONTINUOUS
 62
     3
 10
-98.0000000000002132
 20
-23.1999999999999105
 30
-0.0000000000000213
 11
-100.000000000000199
 21
-23.1999999999999105
 31
-0.0000000000000218
  0
LINE
  5
DE04
  8
0
  6
CONTINUOUS
 62
     3
 10
-100.000000000000199
 20
-21.1999999999999211
 30
-0.0000000000000213
 11
-98.0000000000002132
 21
-21.1999999999999211
 31
-0.0000000000000209
  0
LINE
  5
DE05
  8
0
  6
CONTINUOUS
 62
     3
 10
-98.0000000000002132
 20
-12.0999999999999002
 30
-0.0000000000000213
 11
-100.000000000000199
 21
-12.0999999999999002
 31
-0.0000000000000218
  0
LINE
  5
DE06
  8
0
  6
CONTINUOUS
 62
     3
 10
-100.000000000000199
 20
-10.0999999999999108
 30
-0.0000000000000213
 11
-98.0000000000002132
 21
-10.0999999999999108
 31
-0.0000000000000209
  0
LINE
  5
DE07
  8
0
  6
CONTINUOUS
 62
     3
 10
-98.0000000000002132
 20
10.1000000000000902
 30
-0.0000000000000213
 11
-100.000000000000199
 21
10.1000000000000902
 31
-0.0000000000000218
  0
LINE
  5
DE08
  8
0
  6
CONTINUOUS
 62
     3
 10
-100.000000000000199
 20
12.1000000000000796
 30
-0.0000000000000213
 11
-98.0000000000002132
 21
12.1000000000000796
 31
-0.0000000000000209
  0
LINE
  5
DE09
  8
0
  6
CONTINUOUS
 62
     3
 10
-98.0000000000002132
 20
21.2000000000000988
 30
-0.0000000000000213
 11
-100.000000000000199
 21
21.2000000000000988
 31
-0.0000000000000218
  0
LINE
  5
DE0A
  8
0
  6
CONTINUOUS
 62
     3
 10
-100.000000000000199
 20
23.2000000000000988
 30
-0.0000000000000213
 11
-98.0000000000002132
 21
23.2000000000000988
 31
-0.0000000000000209
  0
LINE
  5
DE0B
  8
0
  6
CONTINUOUS
 62
     3
 10
-98.0000000000002132
 20
32.3000000000000966
 30
-0.0000000000000213
 11
-100.000000000000199
 21
32.3000000000000966
 31
-0.0000000000000218
  0
LINE
  5
DE0C
  8
0
  6
CONTINUOUS
 62
     3
 10
-100.000000000000199
 20
34.3000000000000895
 30
-0.0000000000000213
 11
-98.0000000000002132
 21
34.3000000000000895
 31
-0.0000000000000209
  0
LINE
  5
DE0D
  8
0
  6
CONTINUOUS
 62
     3
 10
-98.0000000000002132
 20
43.4000000000000909
 30
-0.0000000000000213
 11
-100.000000000000199
 21
43.4000000000000909
 31
-0.0000000000000218
  0
LINE
  5
DE0E
  8
0
  6
CONTINUOUS
 62
     3
 10
-100.000000000000199
 20
45.4000000000000909
 30
-0.0000000000000213
 11
-98.0000000000002132
 21
45.4000000000000909
 31
-0.0000000000000209
  0
LINE
  5
DE0F
  8
0
  6
CONTINUOUS
 62
     3
 10
-98.0000000000002132
 20
54.5000000000000995
 30
-0.0000000000000213
 11
-100.000000000000199
 21
54.5000000000000995
 31
-0.0000000000000218
  0
LINE
  5
DE10
  8
0
  6
CONTINUOUS
 62
     3
 10
-100.000000000000199
 20
56.5000000000000924
 30
-0.0000000000000213
 11
-98.0000000000002132
 21
56.5000000000000924
 31
-0.0000000000000209
  0
LINE
  5
DE11
  8
0
  6
CONTINUOUS
 62
     3
 10
-98.0000000000002132
 20
65.6000000000000938
 30
-0.0000000000000213
 11
-100.000000000000199
 21
65.6000000000000938
 31
-0.0000000000000218
  0
LINE
  5
DE12
  8
0
  6
CONTINUOUS
 62
     3
 10
-100.000000000000199
 20
67.6000000000000796
 30
-0.0000000000000213
 11
-98.0000000000002132
 21
67.6000000000000796
 31
-0.0000000000000209
  0
LINE
  5
DE13
  8
0
  6
CONTINUOUS
 62
     3
 10
-98.0000000000002132
 20
-0.9999999999998944
 30
-0.0000000000000213
 11
-98.0000000000002132
 21
-10.0999999999999002
 31
-0.0000000000000213
  0
LINE
  5
DE14
  8
0
  6
CONTINUOUS
 62
     3
 10
-98.0000000000002132
 20
-0.9999999999999051
 30
-0.0000000000000213
 11
-100.000000000000199
 21
-0.9999999999999051
 31
-0.0000000000000218
  0
LINE
  5
DE15
  8
0
  6
CONTINUOUS
 62
     3
 10
-100.000000000000199
 20
-10.0999999999999002
 30
-0.0000000000000213
 11
-100.000000000000199
 21
-0.9999999999998951
 31
-0.0000000000000213
  0
LINE
  5
DE16
  8
0
  6
CONTINUOUS
 62
     3
 10
-98.0000000000002132
 20
-12.0999999999998895
 30
-0.0000000000000213
 11
-98.0000000000002132
 21
-21.1999999999999105
 31
-0.0000000000000213
  0
LINE
  5
DE17
  8
0
  6
CONTINUOUS
 62
     3
 10
-100.000000000000199
 20
-21.1999999999999105
 30
-0.0000000000000213
 11
-100.000000000000199
 21
-12.0999999999998895
 31
-0.0000000000000213
  0
LINE
  5
DE18
  8
0
  6
CONTINUOUS
 62
     3
 10
-98.0000000000002132
 20
-23.1999999999999105
 30
-0.0000000000000213
 11
-98.0000000000002132
 21
-32.2999999999999119
 31
-0.0000000000000213
  0
LINE
  5
DE19
  8
0
  6
CONTINUOUS
 62
     3
 10
-100.000000000000199
 20
-32.2999999999999119
 30
-0.0000000000000213
 11
-100.000000000000199
 21
-23.1999999999999105
 31
-0.0000000000000213
  0
LINE
  5
DE1A
  8
0
  6
CONTINUOUS
 62
     3
 10
-98.0000000000002132
 20
-34.2999999999999119
 30
-0.0000000000000213
 11
-98.0000000000002132
 21
-43.3999999999999204
 31
-0.0000000000000213
  0
LINE
  5
DE1B
  8
0
  6
CONTINUOUS
 62
     3
 10
-100.000000000000199
 20
-43.3999999999999204
 30
-0.0000000000000213
 11
-100.000000000000199
 21
-34.2999999999999119
 31
-0.0000000000000213
  0
LINE
  5
DE1C
  8
0
  6
CONTINUOUS
 62
     3
 10
-98.0000000000002132
 20
-45.3999999999999133
 30
-0.0000000000000213
 11
-98.0000000000002132
 21
-54.4999999999999218
 31
-0.0000000000000213
  0
LINE
  5
DE1D
  8
0
  6
CONTINUOUS
 62
     3
 10
-100.000000000000199
 20
-54.4999999999999218
 30
-0.0000000000000213
 11
-100.000000000000199
 21
-45.3999999999999133
 31
-0.0000000000000213
  0
LINE
  5
DE1E
  8
0
  6
CONTINUOUS
 62
     3
 10
-98.0000000000002132
 20
-56.4999999999999218
 30
-0.0000000000000213
 11
-98.0000000000002132
 21
-65.5999999999999091
 31
-0.0000000000000213
  0
LINE
  5
DE1F
  8
0
  6
CONTINUOUS
 62
     3
 10
-100.000000000000199
 20
-65.5999999999999233
 30
-0.0000000000000213
 11
-100.000000000000199
 21
-56.4999999999999289
 31
-0.0000000000000213
  0
LINE
  5
DE20
  8
0
  6
CONTINUOUS
 62
     3
 10
-100.000000000000199
 20
-73.9999999999998721
 30
-0.0000000000000213
 11
-100.000000000000199
 21
-67.5999999999998948
 31
-0.0000000000000213
  0
LINE
  5
DE21
  8
0
  6
CONTINUOUS
 62
     3
 10
-98.0000000000002132
 20
-73.9999999999998863
 30
-0.0000000000000213
 11
-100.000000000000199
 21
-73.9999999999998863
 31
-0.0000000000000218
  0
LINE
  5
DE22
  8
0
  6
CONTINUOUS
 62
     3
 10
-98.0000000000002132
 20
-67.5999999999998948
 30
-0.0000000000000213
 11
-98.0000000000002132
 21
-73.9999999999998721
 31
-0.0000000000000213
  0
LINE
  5
DE23
  8
0
  6
CONTINUOUS
 62
     3
 10
-98.0000000000002132
 20
74.0000000000001137
 30
-0.0000000000000213
 11
-98.0000000000002132
 21
67.6000000000000796
 31
-0.0000000000000213
  0
LINE
  5
DE24
  8
0
  6
CONTINUOUS
 62
     3
 10
-100.000000000000199
 20
74.0000000000001137
 30
-0.0000000000000213
 11
-98.0000000000002132
 21
74.0000000000001137
 31
-0.0000000000000209
  0
LINE
  5
DE25
  8
0
  6
CONTINUOUS
 62
     3
 10
-100.000000000000199
 20
67.6000000000000796
 30
-0.0000000000000213
 11
-100.000000000000199
 21
74.0000000000001137
 31
-0.0000000000000213
  0
LINE
  5
DE26
  8
0
  6
CONTINUOUS
 62
     3
 10
-98.0000000000002132
 20
65.6000000000000938
 30
-0.0000000000000213
 11
-98.0000000000002132
 21
56.5000000000000924
 31
-0.0000000000000213
  0
LINE
  5
DE27
  8
0
  6
CONTINUOUS
 62
     3
 10
-100.000000000000199
 20
56.5000000000000995
 30
-0.0000000000000213
 11
-100.000000000000199
 21
65.600000000000108
 31
-0.0000000000000213
  0
LINE
  5
DE28
  8
0
  6
CONTINUOUS
 62
     3
 10
-98.0000000000002132
 20
54.5000000000000995
 30
-0.0000000000000213
 11
-98.0000000000002132
 21
45.4000000000000981
 31
-0.0000000000000213
  0
LINE
  5
DE29
  8
0
  6
CONTINUOUS
 62
     3
 10
-100.000000000000199
 20
45.4000000000000981
 30
-0.0000000000000213
 11
-100.000000000000199
 21
54.5000000000000995
 31
-0.0000000000000213
  0
LINE
  5
DE2A
  8
0
  6
CONTINUOUS
 62
     3
 10
-98.0000000000002132
 20
43.4000000000000909
 30
-0.0000000000000213
 11
-98.0000000000002132
 21
34.3000000000000966
 31
-0.0000000000000213
  0
LINE
  5
DE2B
  8
0
  6
CONTINUOUS
 62
     3
 10
-100.000000000000199
 20
34.3000000000000966
 30
-0.0000000000000213
 11
-100.000000000000199
 21
43.4000000000000909
 31
-0.0000000000000213
  0
LINE
  5
DE2C
  8
0
  6
CONTINUOUS
 62
     3
 10
-98.0000000000002132
 20
32.3000000000001108
 30
-0.0000000000000213
 11
-98.0000000000002132
 21
23.2000000000000988
 31
-0.0000000000000213
  0
LINE
  5
DE2D
  8
0
  6
CONTINUOUS
 62
     3
 10
-100.000000000000199
 20
23.2000000000000988
 30
-0.0000000000000213
 11
-100.000000000000199
 21
32.3000000000001108
 31
-0.0000000000000213
  0
LINE
  5
DE2E
  8
0
  6
CONTINUOUS
 62
     3
 10
-98.0000000000002132
 20
21.2000000000001094
 30
-0.0000000000000213
 11
-98.0000000000002132
 21
12.1000000000000902
 31
-0.0000000000000213
  0
LINE
  5
DE2F
  8
0
  6
CONTINUOUS
 62
     3
 10
-100.000000000000199
 20
12.1000000000000902
 30
-0.0000000000000213
 11
-100.000000000000199
 21
21.2000000000001094
 31
-0.0000000000000213
  0
LINE
  5
DE30
  8
0
  6
CONTINUOUS
 62
     3
 10
-100.000000000000199
 20
1.000000000000091
 30
-0.0000000000000213
 11
-100.000000000000199
 21
10.1000000000000991
 31
-0.0000000000000213
  0
LINE
  5
DE31
  8
0
  6
CONTINUOUS
 62
     3
 10
-100.000000000000199
 20
1.000000000000087
 30
-0.0000000000000213
 11
-98.0000000000002132
 21
1.000000000000087
 31
-0.0000000000000209
  0
LINE
  5
DE32
  8
0
  6
CONTINUOUS
 62
     3
 10
-98.0000000000002132
 20
10.1000000000000991
 30
-0.0000000000000213
 11
-98.0000000000002132
 21
1.0000000000000899
 31
-0.0000000000000213
  0
LINE
  5
DE33
  8
0
  6
CONTINUOUS
 62
     3
 10
-65.0000000000002274
 20
-67.5999999999998948
 30
-0.0000000000000142
 11
-65.0000000000002274
 21
-73.9999999999998721
 31
-0.0000000000000142
  0
LINE
  5
DE34
  8
0
  6
CONTINUOUS
 62
     3
 10
-65.0000000000002274
 20
74.0000000000001137
 30
-0.0000000000000142
 11
-65.0000000000002274
 21
67.6000000000000796
 31
-0.0000000000000142
  0
LINE
  5
DE35
  8
0
  6
CONTINUOUS
 62
     3
 10
-65.0000000000002274
 20
65.6000000000000938
 30
-0.0000000000000142
 11
-65.0000000000002274
 21
56.5000000000000924
 31
-0.0000000000000142
  0
LINE
  5
DE36
  8
0
  6
CONTINUOUS
 62
     3
 10
-65.0000000000002274
 20
54.5000000000000995
 30
-0.0000000000000142
 11
-65.0000000000002274
 21
45.4000000000000981
 31
-0.0000000000000142
  0
LINE
  5
DE37
  8
0
  6
CONTINUOUS
 62
     3
 10
-65.0000000000002274
 20
43.4000000000000909
 30
-0.0000000000000142
 11
-65.0000000000002274
 21
34.3000000000000966
 31
-0.0000000000000142
  0
LINE
  5
DE38
  8
0
  6
CONTINUOUS
 62
     3
 10
-65.0000000000002274
 20
32.3000000000001108
 30
-0.0000000000000142
 11
-65.0000000000002274
 21
23.2000000000000988
 31
-0.0000000000000142
  0
LINE
  5
DE39
  8
0
  6
CONTINUOUS
 62
     3
 10
-65.0000000000002274
 20
21.2000000000001094
 30
-0.0000000000000142
 11
-65.0000000000002274
 21
12.1000000000000902
 31
-0.0000000000000142
  0
LINE
  5
DE3A
  8
0
  6
CONTINUOUS
 62
     3
 10
-65.0000000000002274
 20
10.1000000000000991
 30
-0.0000000000000142
 11
-65.0000000000002274
 21
1.0000000000000879
 31
-0.0000000000000142
  0
LINE
  5
DE3B
  8
0
  6
CONTINUOUS
 62
     3
 10
-65.0000000000002274
 20
-0.9999999999998966
 30
-0.0000000000000142
 11
-65.0000000000002274
 21
-10.0999999999999002
 31
-0.0000000000000142
  0
LINE
  5
DE3C
  8
0
  6
CONTINUOUS
 62
     3
 10
-65.0000000000002274
 20
-12.0999999999998895
 30
-0.0000000000000142
 11
-65.0000000000002274
 21
-21.1999999999999211
 31
-0.0000000000000142
  0
LINE
  5
DE3D
  8
0
  6
CONTINUOUS
 62
     3
 10
-65.0000000000002274
 20
-23.1999999999999105
 30
-0.0000000000000142
 11
-65.0000000000002274
 21
-32.2999999999999119
 31
-0.0000000000000142
  0
LINE
  5
DE3E
  8
0
  6
CONTINUOUS
 62
     3
 10
-65.0000000000002274
 20
-34.2999999999999119
 30
-0.0000000000000142
 11
-65.0000000000002274
 21
-43.3999999999999204
 31
-0.0000000000000142
  0
LINE
  5
DE3F
  8
0
  6
CONTINUOUS
 62
     3
 10
-65.0000000000002274
 20
-45.3999999999999133
 30
-0.0000000000000142
 11
-65.0000000000002274
 21
-54.4999999999999218
 31
-0.0000000000000142
  0
LINE
  5
DE40
  8
0
  6
CONTINUOUS
 62
     3
 10
-65.0000000000002274
 20
-56.4999999999999218
 30
-0.0000000000000142
 11
-65.0000000000002274
 21
-65.5999999999999091
 31
-0.0000000000000142
  0
LINE
  5
DE41
  8
0
  6
CONTINUOUS
 62
     3
 10
-65.0000000000002274
 20
-73.9999999999998863
 30
-0.0000000000000142
 11
-67.0000000000002274
 21
-73.9999999999998863
 31
-0.0000000000000147
  0
LINE
  5
DE42
  8
0
  6
CONTINUOUS
 62
     3
 10
-67.0000000000002274
 20
74.0000000000001137
 30
-0.0000000000000142
 11
-65.0000000000002274
 21
74.0000000000001137
 31
-0.0000000000000138
  0
LINE
  5
DE43
  8
0
  6
CONTINUOUS
 62
     3
 10
-65.0000000000002416
 20
-67.5999999999998948
 30
-0.0000000000000142
 11
-67.0000000000002132
 21
-67.5999999999998948
 31
-0.0000000000000147
  0
LINE
  5
DE44
  8
0
  6
CONTINUOUS
 62
     3
 10
-67.0000000000002274
 20
-73.9999999999998721
 30
-0.0000000000000142
 11
-67.0000000000002274
 21
-67.5999999999998948
 31
-0.0000000000000142
  0
LINE
  5
DE45
  8
0
  6
CONTINUOUS
 62
     3
 10
-65.0000000000002416
 20
10.1000000000000902
 30
-0.0000000000000142
 11
-67.0000000000002132
 21
10.1000000000000902
 31
-0.0000000000000147
  0
LINE
  5
DE46
  8
0
  6
CONTINUOUS
 62
     3
 10
-67.0000000000002274
 20
1.000000000000089
 30
-0.0000000000000142
 11
-67.0000000000002274
 21
10.1000000000000991
 31
-0.0000000000000142
  0
LINE
  5
DE47
  8
0
  6
CONTINUOUS
 62
     3
 10
-67.0000000000002132
 20
1.000000000000085
 30
-0.0000000000000142
 11
-65.0000000000002416
 21
1.000000000000085
 31
-0.0000000000000138
  0
LINE
  5
DE48
  8
0
  6
CONTINUOUS
 62
     3
 10
-65.0000000000002416
 20
-0.9999999999999072
 30
-0.0000000000000142
 11
-67.0000000000002132
 21
-0.999999999999907
 31
-0.0000000000000147
  0
LINE
  5
DE49
  8
0
  6
CONTINUOUS
 62
     3
 10
-67.0000000000002132
 20
12.1000000000000796
 30
-0.0000000000000142
 11
-65.0000000000002416
 21
12.1000000000000796
 31
-0.0000000000000138
  0
LINE
  5
DE4A
  8
0
  6
CONTINUOUS
 62
     3
 10
-65.0000000000002416
 20
21.2000000000000988
 30
-0.0000000000000142
 11
-67.0000000000002132
 21
21.2000000000000988
 31
-0.0000000000000147
  0
LINE
  5
DE4B
  8
0
  6
CONTINUOUS
 62
     3
 10
-67.0000000000002274
 20
12.1000000000000902
 30
-0.0000000000000142
 11
-67.0000000000002274
 21
21.2000000000001094
 31
-0.0000000000000142
  0
LINE
  5
DE4C
  8
0
  6
CONTINUOUS
 62
     3
 10
-67.0000000000002132
 20
23.2000000000000917
 30
-0.0000000000000142
 11
-65.0000000000002416
 21
23.2000000000000917
 31
-0.0000000000000138
  0
LINE
  5
DE4D
  8
0
  6
CONTINUOUS
 62
     3
 10
-65.0000000000002416
 20
32.3000000000000966
 30
-0.0000000000000142
 11
-67.0000000000002132
 21
32.3000000000000966
 31
-0.0000000000000147
  0
LINE
  5
DE4E
  8
0
  6
CONTINUOUS
 62
     3
 10
-67.0000000000002274
 20
23.2000000000000917
 30
-0.0000000000000142
 11
-67.0000000000002274
 21
32.3000000000000966
 31
-0.0000000000000142
  0
LINE
  5
DE4F
  8
0
  6
CONTINUOUS
 62
     3
 10
-67.0000000000002132
 20
34.3000000000000895
 30
-0.0000000000000142
 11
-65.0000000000002416
 21
34.3000000000000895
 31
-0.0000000000000138
  0
LINE
  5
DE50
  8
0
  6
CONTINUOUS
 62
     3
 10
-65.0000000000002416
 20
43.4000000000000909
 30
-0.0000000000000142
 11
-67.0000000000002132
 21
43.4000000000000909
 31
-0.0000000000000147
  0
LINE
  5
DE51
  8
0
  6
CONTINUOUS
 62
     3
 10
-67.0000000000002274
 20
34.3000000000000966
 30
-0.0000000000000142
 11
-67.0000000000002274
 21
43.4000000000000909
 31
-0.0000000000000142
  0
LINE
  5
DE52
  8
0
  6
CONTINUOUS
 62
     3
 10
-67.0000000000002132
 20
45.4000000000000909
 30
-0.0000000000000142
 11
-65.0000000000002416
 21
45.4000000000000909
 31
-0.0000000000000138
  0
LINE
  5
DE53
  8
0
  6
CONTINUOUS
 62
     3
 10
-65.0000000000002416
 20
54.5000000000000995
 30
-0.0000000000000142
 11
-67.0000000000002132
 21
54.5000000000000995
 31
-0.0000000000000147
  0
LINE
  5
DE54
  8
0
  6
CONTINUOUS
 62
     3
 10
-67.0000000000002274
 20
45.4000000000000981
 30
-0.0000000000000142
 11
-67.0000000000002274
 21
54.5000000000000995
 31
-0.0000000000000142
  0
LINE
  5
DE55
  8
0
  6
CONTINUOUS
 62
     3
 10
-67.0000000000002132
 20
56.5000000000000924
 30
-0.0000000000000142
 11
-65.0000000000002416
 21
56.5000000000000924
 31
-0.0000000000000138
  0
LINE
  5
DE56
  8
0
  6
CONTINUOUS
 62
     3
 10
-65.0000000000002416
 20
65.6000000000000938
 30
-0.0000000000000142
 11
-67.0000000000002132
 21
65.6000000000000938
 31
-0.0000000000000147
  0
LINE
  5
DE57
  8
0
  6
CONTINUOUS
 62
     3
 10
-67.0000000000002274
 20
56.5000000000000995
 30
-0.0000000000000142
 11
-67.0000000000002274
 21
65.600000000000108
 31
-0.0000000000000142
  0
LINE
  5
DE58
  8
0
  6
CONTINUOUS
 62
     3
 10
-67.0000000000002132
 20
67.6000000000000796
 30
-0.0000000000000142
 11
-65.0000000000002416
 21
67.6000000000000796
 31
-0.0000000000000138
  0
LINE
  5
DE59
  8
0
  6
CONTINUOUS
 62
     3
 10
-67.0000000000002274
 20
67.6000000000000796
 30
-0.0000000000000142
 11
-67.0000000000002274
 21
74.0000000000001137
 31
-0.0000000000000142
  0
LINE
  5
DE5A
  8
0
  6
CONTINUOUS
 62
     3
 10
-67.0000000000002274
 20
-65.5999999999999233
 30
-0.0000000000000142
 11
-67.0000000000002274
 21
-56.4999999999999289
 31
-0.0000000000000142
  0
LINE
  5
DE5B
  8
0
  6
CONTINUOUS
 62
     3
 10
-67.0000000000002274
 20
-54.4999999999999218
 30
-0.0000000000000142
 11
-67.0000000000002274
 21
-45.3999999999999133
 31
-0.0000000000000142
  0
LINE
  5
DE5C
  8
0
  6
CONTINUOUS
 62
     3
 10
-67.0000000000002274
 20
-43.3999999999999204
 30
-0.0000000000000142
 11
-67.0000000000002274
 21
-34.2999999999999119
 31
-0.0000000000000142
  0
LINE
  5
DE5D
  8
0
  6
CONTINUOUS
 62
     3
 10
-67.0000000000002274
 20
-32.2999999999999119
 30
-0.0000000000000142
 11
-67.0000000000002274
 21
-23.1999999999999105
 31
-0.0000000000000142
  0
LINE
  5
DE5E
  8
0
  6
CONTINUOUS
 62
     3
 10
-67.0000000000002274
 20
-21.1999999999999211
 30
-0.0000000000000142
 11
-67.0000000000002274
 21
-12.0999999999998895
 31
-0.0000000000000142
  0
LINE
  5
DE5F
  8
0
  6
CONTINUOUS
 62
     3
 10
-67.0000000000002274
 20
-10.0999999999999002
 30
-0.0000000000000142
 11
-67.0000000000002274
 21
-0.9999999999998969
 31
-0.0000000000000142
  0
LINE
  5
DE60
  8
0
  6
CONTINUOUS
 62
     3
 10
-67.0000000000002132
 20
-65.5999999999999233
 30
-0.0000000000000142
 11
-65.0000000000002416
 21
-65.5999999999999233
 31
-0.0000000000000138
  0
LINE
  5
DE61
  8
0
  6
CONTINUOUS
 62
     3
 10
-65.0000000000002416
 20
-56.4999999999999076
 30
-0.0000000000000142
 11
-67.0000000000002132
 21
-56.4999999999999076
 31
-0.0000000000000147
  0
LINE
  5
DE62
  8
0
  6
CONTINUOUS
 62
     3
 10
-67.0000000000002132
 20
-54.4999999999999218
 30
-0.0000000000000142
 11
-65.0000000000002416
 21
-54.4999999999999218
 31
-0.0000000000000138
  0
LINE
  5
DE63
  8
0
  6
CONTINUOUS
 62
     3
 10
-65.0000000000002416
 20
-45.3999999999999133
 30
-0.0000000000000142
 11
-67.0000000000002132
 21
-45.3999999999999133
 31
-0.0000000000000147
  0
LINE
  5
DE64
  8
0
  6
CONTINUOUS
 62
     3
 10
-67.0000000000002132
 20
-43.3999999999999204
 30
-0.0000000000000142
 11
-65.0000000000002416
 21
-43.3999999999999204
 31
-0.0000000000000138
  0
LINE
  5
DE65
  8
0
  6
CONTINUOUS
 62
     3
 10
-65.0000000000002416
 20
-34.2999999999999119
 30
-0.0000000000000142
 11
-67.0000000000002132
 21
-34.2999999999999119
 31
-0.0000000000000147
  0
LINE
  5
DE66
  8
0
  6
CONTINUOUS
 62
     3
 10
-67.0000000000002132
 20
-32.2999999999999119
 30
-0.0000000000000142
 11
-65.0000000000002416
 21
-32.2999999999999119
 31
-0.0000000000000138
  0
LINE
  5
DE67
  8
0
  6
CONTINUOUS
 62
     3
 10
-65.0000000000002416
 20
-23.1999999999999105
 30
-0.0000000000000142
 11
-67.0000000000002132
 21
-23.1999999999999105
 31
-0.0000000000000147
  0
LINE
  5
DE68
  8
0
  6
CONTINUOUS
 62
     3
 10
-67.0000000000002132
 20
-21.1999999999999211
 30
-0.0000000000000142
 11
-65.0000000000002416
 21
-21.1999999999999211
 31
-0.0000000000000138
  0
LINE
  5
DE69
  8
0
  6
CONTINUOUS
 62
     3
 10
-65.0000000000002416
 20
-12.0999999999999002
 30
-0.0000000000000142
 11
-67.0000000000002132
 21
-12.0999999999999002
 31
-0.0000000000000147
  0
LINE
  5
DE6A
  8
0
  6
CONTINUOUS
 62
     3
 10
-67.0000000000002132
 20
-10.0999999999999108
 30
-0.0000000000000142
 11
-65.0000000000002416
 21
-10.0999999999999108
 31
-0.0000000000000138
  0
LINE
  5
DE6B
  8
0
  6
CONTINUOUS
 62
     3
 10
-131.000000000000199
 20
-67.5999999999998948
 30
-0.0000000000000284
 11
-133.000000000000199
 21
-67.5999999999998948
 31
-0.0000000000000289
  0
LINE
  5
DE6C
  8
0
  6
CONTINUOUS
 62
     3
 10
-133.000000000000199
 20
-65.5999999999999091
 30
-0.0000000000000284
 11
-131.000000000000199
 21
-65.5999999999999091
 31
-0.000000000000028
  0
LINE
  5
DE6D
  8
0
  6
CONTINUOUS
 62
     3
 10
-131.000000000000199
 20
-56.4999999999999076
 30
-0.0000000000000284
 11
-133.000000000000199
 21
-56.4999999999999076
 31
-0.0000000000000289
  0
LINE
  5
DE6E
  8
0
  6
CONTINUOUS
 62
     3
 10
-133.000000000000199
 20
-54.4999999999999218
 30
-0.0000000000000284
 11
-131.000000000000199
 21
-54.4999999999999218
 31
-0.000000000000028
  0
LINE
  5
DE6F
  8
0
  6
CONTINUOUS
 62
     3
 10
-131.000000000000199
 20
-45.3999999999999133
 30
-0.0000000000000284
 11
-133.000000000000199
 21
-45.3999999999999133
 31
-0.0000000000000289
  0
LINE
  5
DE70
  8
0
  6
CONTINUOUS
 62
     3
 10
-133.000000000000199
 20
-43.3999999999999204
 30
-0.0000000000000284
 11
-131.000000000000199
 21
-43.3999999999999204
 31
-0.000000000000028
  0
LINE
  5
DE71
  8
0
  6
CONTINUOUS
 62
     3
 10
-131.000000000000199
 20
-34.2999999999999119
 30
-0.0000000000000284
 11
-133.000000000000199
 21
-34.2999999999999119
 31
-0.0000000000000289
  0
LINE
  5
DE72
  8
0
  6
CONTINUOUS
 62
     3
 10
-133.000000000000199
 20
-32.2999999999999119
 30
-0.0000000000000284
 11
-131.000000000000199
 21
-32.2999999999999119
 31
-0.000000000000028
  0
LINE
  5
DE73
  8
0
  6
CONTINUOUS
 62
     3
 10
-131.000000000000199
 20
-23.1999999999999105
 30
-0.0000000000000284
 11
-133.000000000000199
 21
-23.1999999999999105
 31
-0.0000000000000289
  0
LINE
  5
DE74
  8
0
  6
CONTINUOUS
 62
     3
 10
-133.000000000000199
 20
-21.1999999999999211
 30
-0.0000000000000284
 11
-131.000000000000199
 21
-21.1999999999999211
 31
-0.000000000000028
  0
LINE
  5
DE75
  8
0
  6
CONTINUOUS
 62
     3
 10
-131.000000000000199
 20
-12.0999999999999002
 30
-0.0000000000000284
 11
-133.000000000000199
 21
-12.0999999999999002
 31
-0.0000000000000289
  0
LINE
  5
DE76
  8
0
  6
CONTINUOUS
 62
     3
 10
-133.000000000000199
 20
-10.0999999999999002
 30
-0.0000000000000284
 11
-131.000000000000199
 21
-10.0999999999999002
 31
-0.000000000000028
  0
LINE
  5
DE77
  8
0
  6
CONTINUOUS
 62
     3
 10
-131.000000000000199
 20
10.1000000000000902
 30
-0.0000000000000284
 11
-133.000000000000199
 21
10.1000000000000902
 31
-0.0000000000000289
  0
LINE
  5
DE78
  8
0
  6
CONTINUOUS
 62
     3
 10
-133.000000000000199
 20
12.1000000000000902
 30
-0.0000000000000284
 11
-131.000000000000199
 21
12.1000000000000902
 31
-0.000000000000028
  0
LINE
  5
DE79
  8
0
  6
CONTINUOUS
 62
     3
 10
-131.000000000000199
 20
21.2000000000000988
 30
-0.0000000000000284
 11
-133.000000000000199
 21
21.2000000000000988
 31
-0.0000000000000289
  0
LINE
  5
DE7A
  8
0
  6
CONTINUOUS
 62
     3
 10
-133.000000000000199
 20
23.2000000000000988
 30
-0.0000000000000284
 11
-131.000000000000199
 21
23.2000000000000988
 31
-0.000000000000028
  0
LINE
  5
DE7B
  8
0
  6
CONTINUOUS
 62
     3
 10
-131.000000000000199
 20
32.3000000000000966
 30
-0.0000000000000284
 11
-133.000000000000199
 21
32.3000000000000966
 31
-0.0000000000000289
  0
LINE
  5
DE7C
  8
0
  6
CONTINUOUS
 62
     3
 10
-133.000000000000199
 20
34.3000000000000895
 30
-0.0000000000000284
 11
-131.000000000000199
 21
34.3000000000000895
 31
-0.000000000000028
  0
LINE
  5
DE7D
  8
0
  6
CONTINUOUS
 62
     3
 10
-131.000000000000199
 20
43.4000000000000909
 30
-0.0000000000000284
 11
-133.000000000000199
 21
43.4000000000000909
 31
-0.0000000000000289
  0
LINE
  5
DE7E
  8
0
  6
CONTINUOUS
 62
     3
 10
-133.000000000000199
 20
45.4000000000000909
 30
-0.0000000000000284
 11
-131.000000000000199
 21
45.4000000000000909
 31
-0.000000000000028
  0
LINE
  5
DE7F
  8
0
  6
CONTINUOUS
 62
     3
 10
-131.000000000000199
 20
54.5000000000000995
 30
-0.0000000000000284
 11
-133.000000000000199
 21
54.5000000000000995
 31
-0.0000000000000289
  0
LINE
  5
DE80
  8
0
  6
CONTINUOUS
 62
     3
 10
-133.000000000000199
 20
56.5000000000000924
 30
-0.0000000000000284
 11
-131.000000000000199
 21
56.5000000000000924
 31
-0.000000000000028
  0
LINE
  5
DE81
  8
0
  6
CONTINUOUS
 62
     3
 10
-131.000000000000199
 20
65.600000000000108
 30
-0.0000000000000284
 11
-133.000000000000199
 21
65.600000000000108
 31
-0.0000000000000289
  0
LINE
  5
DE82
  8
0
  6
CONTINUOUS
 62
     3
 10
-133.000000000000199
 20
67.6000000000000938
 30
-0.0000000000000284
 11
-131.000000000000199
 21
67.6000000000000938
 31
-0.000000000000028
  0
LINE
  5
DE83
  8
0
  6
CONTINUOUS
 62
     3
 10
-131.000000000000199
 20
-0.9999999999998925
 30
-0.0000000000000284
 11
-131.000000000000199
 21
-10.0999999999999002
 31
-0.0000000000000284
  0
LINE
  5
DE84
  8
0
  6
CONTINUOUS
 62
     3
 10
-131.000000000000199
 20
-0.9999999999999031
 30
-0.0000000000000284
 11
-133.000000000000199
 21
-0.999999999999903
 31
-0.0000000000000289
  0
LINE
  5
DE85
  8
0
  6
CONTINUOUS
 62
     3
 10
-133.000000000000199
 20
-10.0999999999999002
 30
-0.0000000000000284
 11
-133.000000000000199
 21
-0.9999999999998916
 31
-0.0000000000000284
  0
LINE
  5
DE86
  8
0
  6
CONTINUOUS
 62
     3
 10
-131.000000000000199
 20
-12.0999999999998806
 30
-0.0000000000000284
 11
-131.000000000000199
 21
-21.1999999999999105
 31
-0.0000000000000284
  0
LINE
  5
DE87
  8
0
  6
CONTINUOUS
 62
     3
 10
-133.000000000000199
 20
-21.1999999999999105
 30
-0.0000000000000284
 11
-133.000000000000199
 21
-12.0999999999998895
 31
-0.0000000000000284
  0
LINE
  5
DE88
  8
0
  6
CONTINUOUS
 62
     3
 10
-131.000000000000199
 20
-23.1999999999999105
 30
-0.0000000000000284
 11
-131.000000000000199
 21
-32.2999999999999119
 31
-0.0000000000000284
  0
LINE
  5
DE89
  8
0
  6
CONTINUOUS
 62
     3
 10
-133.000000000000199
 20
-32.2999999999999119
 30
-0.0000000000000284
 11
-133.000000000000199
 21
-23.1999999999999105
 31
-0.0000000000000284
  0
LINE
  5
DE8A
  8
0
  6
CONTINUOUS
 62
     3
 10
-131.000000000000199
 20
-34.2999999999999119
 30
-0.0000000000000284
 11
-131.000000000000199
 21
-43.3999999999999204
 31
-0.0000000000000284
  0
LINE
  5
DE8B
  8
0
  6
CONTINUOUS
 62
     3
 10
-133.000000000000199
 20
-43.3999999999999204
 30
-0.0000000000000284
 11
-133.000000000000199
 21
-34.2999999999999119
 31
-0.0000000000000284
  0
LINE
  5
DE8C
  8
0
  6
CONTINUOUS
 62
     3
 10
-131.000000000000199
 20
-45.3999999999999133
 30
-0.0000000000000284
 11
-131.000000000000199
 21
-54.4999999999999218
 31
-0.0000000000000284
  0
LINE
  5
DE8D
  8
0
  6
CONTINUOUS
 62
     3
 10
-133.000000000000199
 20
-54.4999999999999218
 30
-0.0000000000000284
 11
-133.000000000000199
 21
-45.3999999999999133
 31
-0.0000000000000284
  0
LINE
  5
DE8E
  8
0
  6
CONTINUOUS
 62
     3
 10
-131.000000000000199
 20
-56.4999999999999218
 30
-0.0000000000000284
 11
-131.000000000000199
 21
-65.5999999999999091
 31
-0.0000000000000284
  0
LINE
  5
DE8F
  8
0
  6
CONTINUOUS
 62
     3
 10
-133.000000000000199
 20
-65.5999999999999091
 30
-0.0000000000000284
 11
-133.000000000000199
 21
-56.4999999999999076
 31
-0.0000000000000284
  0
LINE
  5
DE90
  8
0
  6
CONTINUOUS
 62
     3
 10
-133.000000000000199
 20
-73.9999999999998579
 30
-0.0000000000000284
 11
-133.000000000000199
 21
-67.5999999999998806
 31
-0.0000000000000284
  0
LINE
  5
DE91
  8
0
  6
CONTINUOUS
 62
     3
 10
-131.000000000000199
 20
-73.9999999999998721
 30
-0.0000000000000284
 11
-133.000000000000199
 21
-73.9999999999998721
 31
-0.0000000000000289
  0
LINE
  5
DE92
  8
0
  6
CONTINUOUS
 62
     3
 10
-131.000000000000199
 20
-67.5999999999998806
 30
-0.0000000000000284
 11
-131.000000000000199
 21
-73.9999999999998579
 31
-0.0000000000000284
  0
LINE
  5
DE93
  8
0
  6
CONTINUOUS
 62
     3
 10
-131.000000000000199
 20
74.0000000000001421
 30
-0.0000000000000284
 11
-131.000000000000199
 21
67.6000000000000938
 31
-0.0000000000000284
  0
LINE
  5
DE94
  8
0
  6
CONTINUOUS
 62
     3
 10
-133.000000000000199
 20
74.0000000000001421
 30
-0.0000000000000284
 11
-131.000000000000199
 21
74.0000000000001421
 31
-0.000000000000028
  0
LINE
  5
DE95
  8
0
  6
CONTINUOUS
 62
     3
 10
-133.000000000000199
 20
67.6000000000000938
 30
-0.0000000000000284
 11
-133.000000000000199
 21
74.0000000000001421
 31
-0.0000000000000284
  0
LINE
  5
DE96
  8
0
  6
CONTINUOUS
 62
     3
 10
-131.000000000000199
 20
65.600000000000108
 30
-0.0000000000000284
 11
-131.000000000000199
 21
56.5000000000001066
 31
-0.0000000000000284
  0
LINE
  5
DE97
  8
0
  6
CONTINUOUS
 62
     3
 10
-133.000000000000199
 20
56.5000000000000995
 30
-0.0000000000000284
 11
-133.000000000000199
 21
65.600000000000108
 31
-0.0000000000000284
  0
LINE
  5
DE98
  8
0
  6
CONTINUOUS
 62
     3
 10
-131.000000000000199
 20
54.5000000000000995
 30
-0.0000000000000284
 11
-131.000000000000199
 21
45.4000000000000981
 31
-0.0000000000000284
  0
LINE
  5
DE99
  8
0
  6
CONTINUOUS
 62
     3
 10
-133.000000000000199
 20
45.4000000000000981
 30
-0.0000000000000284
 11
-133.000000000000199
 21
54.5000000000000995
 31
-0.0000000000000284
  0
LINE
  5
DE9A
  8
0
  6
CONTINUOUS
 62
     3
 10
-131.000000000000199
 20
43.4000000000000909
 30
-0.0000000000000284
 11
-131.000000000000199
 21
34.3000000000000966
 31
-0.0000000000000284
  0
LINE
  5
DE9B
  8
0
  6
CONTINUOUS
 62
     3
 10
-133.000000000000199
 20
34.3000000000000966
 30
-0.0000000000000284
 11
-133.000000000000199
 21
43.4000000000000909
 31
-0.0000000000000284
  0
LINE
  5
DE9C
  8
0
  6
CONTINUOUS
 62
     3
 10
-131.000000000000199
 20
32.3000000000001108
 30
-0.0000000000000284
 11
-131.000000000000199
 21
23.2000000000000988
 31
-0.0000000000000284
  0
LINE
  5
DE9D
  8
0
  6
CONTINUOUS
 62
     3
 10
-133.000000000000199
 20
23.2000000000000988
 30
-0.0000000000000284
 11
-133.000000000000199
 21
32.3000000000001108
 31
-0.0000000000000284
  0
LINE
  5
DE9E
  8
0
  6
CONTINUOUS
 62
     3
 10
-131.000000000000199
 20
21.2000000000001094
 30
-0.0000000000000284
 11
-131.000000000000199
 21
12.1000000000000902
 31
-0.0000000000000284
  0
LINE
  5
DE9F
  8
0
  6
CONTINUOUS
 62
     3
 10
-133.000000000000199
 20
12.1000000000000902
 30
-0.0000000000000284
 11
-133.000000000000199
 21
21.2000000000001094
 31
-0.0000000000000284
  0
LINE
  5
DEA0
  8
0
  6
CONTINUOUS
 62
     3
 10
-133.000000000000199
 20
1.000000000000093
 30
-0.0000000000000284
 11
-133.000000000000199
 21
10.1000000000000991
 31
-0.0000000000000284
  0
LINE
  5
DEA1
  8
0
  6
CONTINUOUS
 62
     3
 10
-133.000000000000199
 20
1.000000000000089
 30
-0.0000000000000284
 11
-131.000000000000199
 21
1.000000000000089
 31
-0.000000000000028
  0
LINE
  5
DEA2
  8
0
  6
CONTINUOUS
 62
     3
 10
-131.000000000000199
 20
10.1000000000000991
 30
-0.0000000000000284
 11
-131.000000000000199
 21
1.0000000000000939
 31
-0.0000000000000284
  0
LINE
  5
DEA3
  8
0
  6
CONTINUOUS
 62
     3
 10
-32.0000000000002274
 20
-0.9999999999999092
 30
-0.0000000000000071
 11
-34.0000000000002203
 21
-0.999999999999909
 31
-0.0000000000000075
  0
LINE
  5
DEA4
  8
0
  6
CONTINUOUS
 62
     3
 10
-34.0000000000002203
 20
1.000000000000083
 30
-0.0000000000000071
 11
-32.0000000000002274
 21
1.000000000000083
 31
-0.0000000000000067
  0
LINE
  5
DEA5
  8
0
  6
CONTINUOUS
 62
     3
 10
-34.0000000000002203
 20
74.0000000000001137
 30
-0.0000000000000071
 11
-32.0000000000002132
 21
74.0000000000001137
 31
-0.0000000000000067
  0
LINE
  5
DEA6
  8
0
  6
CONTINUOUS
 62
     3
 10
-32.0000000000002274
 20
-73.9999999999998863
 30
-0.0000000000000071
 11
-34.0000000000002274
 21
-73.9999999999998863
 31
-0.0000000000000075
  0
LINE
  5
DEA7
  8
0
  6
CONTINUOUS
 62
     3
 10
-32.0000000000002416
 20
-67.5999999999998948
 30
-0.0000000000000071
 11
-32.0000000000002416
 21
-73.9999999999998721
 31
-0.0000000000000071
  0
LINE
  5
DEA8
  8
0
  6
CONTINUOUS
 62
     3
 10
-32.0000000000002203
 20
74.0000000000001137
 30
-0.0000000000000071
 11
-32.0000000000002203
 21
67.6000000000000796
 31
-0.0000000000000071
  0
LINE
  5
DEA9
  8
0
  6
CONTINUOUS
 62
     3
 10
-32.0000000000002274
 20
65.6000000000000938
 30
-0.0000000000000071
 11
-32.0000000000002274
 21
56.5000000000000924
 31
-0.0000000000000071
  0
LINE
  5
DEAA
  8
0
  6
CONTINUOUS
 62
     3
 10
-32.0000000000002274
 20
54.5000000000000924
 30
-0.0000000000000071
 11
-32.0000000000002274
 21
45.4000000000000909
 31
-0.0000000000000071
  0
LINE
  5
DEAB
  8
0
  6
CONTINUOUS
 62
     3
 10
-32.0000000000002274
 20
43.4000000000000909
 30
-0.0000000000000071
 11
-32.0000000000002274
 21
34.3000000000000895
 31
-0.0000000000000071
  0
LINE
  5
DEAC
  8
0
  6
CONTINUOUS
 62
     3
 10
-32.0000000000002274
 20
32.3000000000000966
 30
-0.0000000000000071
 11
-32.0000000000002274
 21
23.2000000000000917
 31
-0.0000000000000071
  0
LINE
  5
DEAD
  8
0
  6
CONTINUOUS
 62
     3
 10
-32.0000000000002274
 20
21.2000000000001094
 30
-0.0000000000000071
 11
-32.0000000000002274
 21
12.1000000000000902
 31
-0.0000000000000071
  0
LINE
  5
DEAE
  8
0
  6
CONTINUOUS
 62
     3
 10
-32.0000000000002274
 20
10.1000000000000902
 30
-0.0000000000000071
 11
-32.0000000000002274
 21
1.000000000000087
 31
-0.0000000000000071
  0
LINE
  5
DEAF
  8
0
  6
CONTINUOUS
 62
     3
 10
-32.0000000000002274
 20
-0.9999999999998985
 30
-0.0000000000000071
 11
-32.0000000000002274
 21
-10.0999999999999002
 31
-0.0000000000000071
  0
LINE
  5
DEB0
  8
0
  6
CONTINUOUS
 62
     3
 10
-32.0000000000002274
 20
-12.0999999999998895
 30
-0.0000000000000071
 11
-32.0000000000002274
 21
-21.1999999999999211
 31
-0.0000000000000071
  0
LINE
  5
DEB1
  8
0
  6
CONTINUOUS
 62
     3
 10
-32.0000000000002274
 20
-23.1999999999999105
 30
-0.0000000000000071
 11
-32.0000000000002274
 21
-32.2999999999999119
 31
-0.0000000000000071
  0
LINE
  5
DEB2
  8
0
  6
CONTINUOUS
 62
     3
 10
-32.0000000000002274
 20
-34.2999999999999119
 30
-0.0000000000000071
 11
-32.0000000000002274
 21
-43.3999999999999275
 31
-0.0000000000000071
  0
LINE
  5
DEB3
  8
0
  6
CONTINUOUS
 62
     3
 10
-32.0000000000002274
 20
-45.3999999999999204
 30
-0.0000000000000071
 11
-32.0000000000002274
 21
-54.4999999999999289
 31
-0.0000000000000071
  0
LINE
  5
DEB4
  8
0
  6
CONTINUOUS
 62
     3
 10
-32.0000000000002416
 20
-56.4999999999999289
 30
-0.0000000000000071
 11
-32.0000000000002416
 21
-65.5999999999999233
 31
-0.0000000000000071
  0
LINE
  5
DEB5
  8
0
  6
CONTINUOUS
 62
     3
 10
-34.0000000000002203
 20
-65.5999999999999233
 30
-0.0000000000000071
 11
-34.0000000000002203
 21
-56.4999999999999289
 31
-0.0000000000000071
  0
LINE
  5
DEB6
  8
0
  6
CONTINUOUS
 62
     3
 10
-34.0000000000002203
 20
-54.4999999999999289
 30
-0.0000000000000071
 11
-34.0000000000002203
 21
-45.3999999999999204
 31
-0.0000000000000071
  0
LINE
  5
DEB7
  8
0
  6
CONTINUOUS
 62
     3
 10
-34.0000000000002203
 20
-43.3999999999999275
 30
-0.0000000000000071
 11
-34.0000000000002203
 21
-34.2999999999999119
 31
-0.0000000000000071
  0
LINE
  5
DEB8
  8
0
  6
CONTINUOUS
 62
     3
 10
-34.0000000000002203
 20
-32.2999999999999119
 30
-0.0000000000000071
 11
-34.0000000000002203
 21
-23.1999999999999211
 31
-0.0000000000000071
  0
LINE
  5
DEB9
  8
0
  6
CONTINUOUS
 62
     3
 10
-34.0000000000002203
 20
-21.1999999999999211
 30
-0.0000000000000071
 11
-34.0000000000002203
 21
-12.0999999999998895
 31
-0.0000000000000071
  0
LINE
  5
DEBA
  8
0
  6
CONTINUOUS
 62
     3
 10
-34.0000000000002203
 20
-10.0999999999999002
 30
-0.0000000000000071
 11
-34.0000000000002203
 21
-0.9999999999998987
 31
-0.0000000000000071
  0
LINE
  5
DEBB
  8
0
  6
CONTINUOUS
 62
     3
 10
-34.0000000000002203
 20
1.000000000000087
 30
-0.0000000000000071
 11
-34.0000000000002203
 21
10.1000000000000902
 31
-0.0000000000000071
  0
LINE
  5
DEBC
  8
0
  6
CONTINUOUS
 62
     3
 10
-34.0000000000002203
 20
12.1000000000000902
 30
-0.0000000000000071
 11
-34.0000000000002203
 21
21.2000000000000988
 31
-0.0000000000000071
  0
LINE
  5
DEBD
  8
0
  6
CONTINUOUS
 62
     3
 10
-34.0000000000002203
 20
23.2000000000000917
 30
-0.0000000000000071
 11
-34.0000000000002203
 21
32.3000000000000966
 31
-0.0000000000000071
  0
LINE
  5
DEBE
  8
0
  6
CONTINUOUS
 62
     3
 10
-34.0000000000002203
 20
34.3000000000000895
 30
-0.0000000000000071
 11
-34.0000000000002203
 21
43.4000000000000909
 31
-0.0000000000000071
  0
LINE
  5
DEBF
  8
0
  6
CONTINUOUS
 62
     3
 10
-34.0000000000002203
 20
45.4000000000000909
 30
-0.0000000000000071
 11
-34.0000000000002203
 21
54.5000000000000924
 31
-0.0000000000000071
  0
LINE
  5
DEC0
  8
0
  6
CONTINUOUS
 62
     3
 10
-34.0000000000002203
 20
56.5000000000000924
 30
-0.0000000000000071
 11
-34.0000000000002203
 21
65.6000000000000938
 31
-0.0000000000000071
  0
LINE
  5
DEC1
  8
0
  6
CONTINUOUS
 62
     3
 10
-34.0000000000002203
 20
67.6000000000000796
 30
-0.0000000000000071
 11
-34.0000000000002203
 21
74.0000000000001137
 31
-0.0000000000000071
  0
LINE
  5
DEC2
  8
0
  6
CONTINUOUS
 62
     3
 10
-34.0000000000002203
 20
-73.9999999999998721
 30
-0.0000000000000071
 11
-34.0000000000002203
 21
-67.5999999999998948
 31
-0.0000000000000071
  0
LINE
  5
DEC3
  8
0
  6
CONTINUOUS
 62
     3
 10
-32.0000000000002274
 20
10.1000000000000902
 30
-0.0000000000000071
 11
-34.0000000000002203
 21
10.1000000000000902
 31
-0.0000000000000075
  0
LINE
  5
DEC4
  8
0
  6
CONTINUOUS
 62
     3
 10
-34.0000000000002203
 20
12.1000000000000796
 30
-0.0000000000000071
 11
-32.0000000000002274
 21
12.1000000000000796
 31
-0.0000000000000067
  0
LINE
  5
DEC5
  8
0
  6
CONTINUOUS
 62
     3
 10
-32.0000000000002274
 20
21.2000000000000988
 30
-0.0000000000000071
 11
-34.0000000000002203
 21
21.2000000000000988
 31
-0.0000000000000075
  0
LINE
  5
DEC6
  8
0
  6
CONTINUOUS
 62
     3
 10
-34.0000000000002203
 20
23.2000000000000917
 30
-0.0000000000000071
 11
-32.0000000000002274
 21
23.2000000000000917
 31
-0.0000000000000067
  0
LINE
  5
DEC7
  8
0
  6
CONTINUOUS
 62
     3
 10
-32.0000000000002274
 20
32.3000000000000895
 30
-0.0000000000000071
 11
-34.0000000000002203
 21
32.3000000000000895
 31
-0.0000000000000075
  0
LINE
  5
DEC8
  8
0
  6
CONTINUOUS
 62
     3
 10
-34.0000000000002203
 20
34.3000000000000895
 30
-0.0000000000000071
 11
-32.0000000000002274
 21
34.3000000000000895
 31
-0.0000000000000067
  0
LINE
  5
DEC9
  8
0
  6
CONTINUOUS
 62
     3
 10
-32.0000000000002274
 20
43.4000000000000767
 30
-0.0000000000000071
 11
-34.0000000000002203
 21
43.4000000000000767
 31
-0.0000000000000075
  0
LINE
  5
DECA
  8
0
  6
CONTINUOUS
 62
     3
 10
-34.0000000000002203
 20
45.4000000000000767
 30
-0.0000000000000071
 11
-32.0000000000002274
 21
45.4000000000000767
 31
-0.0000000000000067
  0
LINE
  5
DECB
  8
0
  6
CONTINUOUS
 62
     3
 10
-32.0000000000002274
 20
54.5000000000000924
 30
-0.0000000000000071
 11
-34.0000000000002203
 21
54.5000000000000924
 31
-0.0000000000000075
  0
LINE
  5
DECC
  8
0
  6
CONTINUOUS
 62
     3
 10
-34.0000000000002203
 20
56.5000000000000924
 30
-0.0000000000000071
 11
-32.0000000000002274
 21
56.5000000000000924
 31
-0.0000000000000067
  0
LINE
  5
DECD
  8
0
  6
CONTINUOUS
 62
     3
 10
-32.0000000000002274
 20
65.6000000000000938
 30
-0.0000000000000071
 11
-34.0000000000002203
 21
65.6000000000000938
 31
-0.0000000000000075
  0
LINE
  5
DECE
  8
0
  6
CONTINUOUS
 62
     3
 10
-34.0000000000002203
 20
67.6000000000000796
 30
-0.0000000000000071
 11
-32.0000000000002274
 21
67.6000000000000796
 31
-0.0000000000000067
  0
LINE
  5
DECF
  8
0
  6
CONTINUOUS
 62
     3
 10
-32.0000000000002416
 20
-67.5999999999998948
 30
-0.0000000000000071
 11
-34.0000000000002203
 21
-67.5999999999998948
 31
-0.0000000000000075
  0
LINE
  5
DED0
  8
0
  6
CONTINUOUS
 62
     3
 10
-34.0000000000002203
 20
-65.5999999999999233
 30
-0.0000000000000071
 11
-32.0000000000002416
 21
-65.5999999999999233
 31
-0.0000000000000067
  0
LINE
  5
DED1
  8
0
  6
CONTINUOUS
 62
     3
 10
-32.0000000000002416
 20
-56.4999999999999076
 30
-0.0000000000000071
 11
-34.0000000000002203
 21
-56.4999999999999076
 31
-0.0000000000000075
  0
LINE
  5
DED2
  8
0
  6
CONTINUOUS
 62
     3
 10
-34.0000000000002203
 20
-54.4999999999999289
 30
-0.0000000000000071
 11
-32.0000000000002416
 21
-54.4999999999999289
 31
-0.0000000000000067
  0
LINE
  5
DED3
  8
0
  6
CONTINUOUS
 62
     3
 10
-32.0000000000002274
 20
-45.3999999999999204
 30
-0.0000000000000071
 11
-34.0000000000002203
 21
-45.3999999999999204
 31
-0.0000000000000075
  0
LINE
  5
DED4
  8
0
  6
CONTINUOUS
 62
     3
 10
-34.0000000000002203
 20
-43.3999999999999275
 30
-0.0000000000000071
 11
-32.0000000000002274
 21
-43.3999999999999275
 31
-0.0000000000000067
  0
LINE
  5
DED5
  8
0
  6
CONTINUOUS
 62
     3
 10
-32.0000000000002274
 20
-34.2999999999999119
 30
-0.0000000000000071
 11
-34.0000000000002203
 21
-34.2999999999999119
 31
-0.0000000000000075
  0
LINE
  5
DED6
  8
0
  6
CONTINUOUS
 62
     3
 10
-34.0000000000002203
 20
-32.299999999999919
 30
-0.0000000000000071
 11
-32.0000000000002274
 21
-32.299999999999919
 31
-0.0000000000000067
  0
LINE
  5
DED7
  8
0
  6
CONTINUOUS
 62
     3
 10
-32.0000000000002274
 20
-23.1999999999999105
 30
-0.0000000000000071
 11
-34.0000000000002203
 21
-23.1999999999999105
 31
-0.0000000000000075
  0
LINE
  5
DED8
  8
0
  6
CONTINUOUS
 62
     3
 10
-34.0000000000002203
 20
-21.1999999999999211
 30
-0.0000000000000071
 11
-32.0000000000002274
 21
-21.1999999999999211
 31
-0.0000000000000067
  0
LINE
  5
DED9
  8
0
  6
CONTINUOUS
 62
     3
 10
-32.0000000000002274
 20
-12.0999999999999108
 30
-0.0000000000000071
 11
-34.0000000000002203
 21
-12.0999999999999108
 31
-0.0000000000000075
  0
LINE
  5
DEDA
  8
0
  6
CONTINUOUS
 62
     3
 10
-34.0000000000002203
 20
-10.0999999999999108
 30
-0.0000000000000071
 11
-32.0000000000002274
 21
-10.0999999999999108
 31
-0.0000000000000067
  0
LINE
  5
DEDB
  8
0
  6
CONTINUOUS
 62
     3
 10
99.9999999999997868
 20
-67.5999999999998948
 30
0.0000000000000213
 11
97.9999999999997442
 21
-67.5999999999998948
 31
0.0000000000000209
  0
LINE
  5
DEDC
  8
0
  6
CONTINUOUS
 62
     3
 10
97.9999999999997442
 20
-65.5999999999999233
 30
0.0000000000000213
 11
99.9999999999997868
 21
-65.5999999999999233
 31
0.0000000000000218
  0
LINE
  5
DEDD
  8
0
  6
CONTINUOUS
 62
     3
 10
99.9999999999997868
 20
-56.4999999999999218
 30
0.0000000000000213
 11
97.9999999999997442
 21
-56.4999999999999218
 31
0.0000000000000209
  0
LINE
  5
DEDE
  8
0
  6
CONTINUOUS
 62
     3
 10
97.9999999999997442
 20
-54.4999999999999289
 30
0.0000000000000213
 11
99.9999999999997868
 21
-54.4999999999999289
 31
0.0000000000000218
  0
LINE
  5
DEDF
  8
0
  6
CONTINUOUS
 62
     3
 10
99.9999999999997868
 20
-45.3999999999999204
 30
0.0000000000000213
 11
97.9999999999997442
 21
-45.3999999999999204
 31
0.0000000000000209
  0
LINE
  5
DEE0
  8
0
  6
CONTINUOUS
 62
     3
 10
97.9999999999997442
 20
-43.3999999999999417
 30
0.0000000000000213
 11
99.9999999999997868
 21
-43.3999999999999417
 31
0.0000000000000218
  0
LINE
  5
DEE1
  8
0
  6
CONTINUOUS
 62
     3
 10
99.9999999999997868
 20
-34.299999999999919
 30
0.0000000000000213
 11
97.9999999999997442
 21
-34.299999999999919
 31
0.0000000000000209
  0
LINE
  5
DEE2
  8
0
  6
CONTINUOUS
 62
     3
 10
97.9999999999997442
 20
-32.2999999999999332
 30
0.0000000000000213
 11
99.9999999999997868
 21
-32.2999999999999332
 31
0.0000000000000218
  0
LINE
  5
DEE3
  8
0
  6
CONTINUOUS
 62
     3
 10
99.9999999999997868
 20
-23.1999999999999282
 30
0.0000000000000213
 11
97.9999999999997442
 21
-23.1999999999999282
 31
0.0000000000000209
  0
LINE
  5
DEE4
  8
0
  6
CONTINUOUS
 62
     3
 10
97.9999999999997442
 20
-21.1999999999999282
 30
0.0000000000000213
 11
99.9999999999997868
 21
-21.1999999999999282
 31
0.0000000000000218
  0
LINE
  5
DEE5
  8
0
  6
CONTINUOUS
 62
     3
 10
99.9999999999997868
 20
-12.0999999999999108
 30
0.0000000000000213
 11
97.9999999999997442
 21
-12.0999999999999108
 31
0.0000000000000209
  0
LINE
  5
DEE6
  8
0
  6
CONTINUOUS
 62
     3
 10
97.9999999999997442
 20
-10.0999999999999197
 30
0.0000000000000213
 11
99.9999999999997868
 21
-10.0999999999999197
 31
0.0000000000000218
  0
LINE
  5
DEE7
  8
0
  6
CONTINUOUS
 62
     3
 10
99.9999999999997868
 20
10.1000000000000796
 30
0.0000000000000213
 11
97.9999999999997442
 21
10.1000000000000796
 31
0.0000000000000209
  0
LINE
  5
DEE8
  8
0
  6
CONTINUOUS
 62
     3
 10
97.9999999999997442
 20
12.1000000000000707
 30
0.0000000000000213
 11
99.9999999999997868
 21
12.1000000000000707
 31
0.0000000000000218
  0
LINE
  5
DEE9
  8
0
  6
CONTINUOUS
 62
     3
 10
99.9999999999997868
 20
21.2000000000000917
 30
0.0000000000000213
 11
97.9999999999997442
 21
21.2000000000000917
 31
0.0000000000000209
  0
LINE
  5
DEEA
  8
0
  6
CONTINUOUS
 62
     3
 10
97.9999999999997442
 20
23.200000000000081
 30
0.0000000000000213
 11
99.9999999999997868
 21
23.200000000000081
 31
0.0000000000000218
  0
LINE
  5
DEEB
  8
0
  6
CONTINUOUS
 62
     3
 10
99.9999999999997868
 20
32.3000000000000824
 30
0.0000000000000213
 11
97.9999999999997442
 21
32.3000000000000824
 31
0.0000000000000209
  0
LINE
  5
DEEC
  8
0
  6
CONTINUOUS
 62
     3
 10
97.9999999999997442
 20
34.3000000000000824
 30
0.0000000000000213
 11
99.9999999999997868
 21
34.3000000000000824
 31
0.0000000000000218
  0
LINE
  5
DEED
  8
0
  6
CONTINUOUS
 62
     3
 10
99.9999999999997868
 20
43.4000000000000696
 30
0.0000000000000213
 11
97.9999999999997442
 21
43.4000000000000696
 31
0.0000000000000209
  0
LINE
  5
DEEE
  8
0
  6
CONTINUOUS
 62
     3
 10
97.9999999999997442
 20
45.4000000000000767
 30
0.0000000000000213
 11
99.9999999999997868
 21
45.4000000000000767
 31
0.0000000000000218
  0
LINE
  5
DEEF
  8
0
  6
CONTINUOUS
 62
     3
 10
99.9999999999997868
 20
54.5000000000000924
 30
0.0000000000000213
 11
97.9999999999997442
 21
54.5000000000000924
 31
0.0000000000000209
  0
LINE
  5
DEF0
  8
0
  6
CONTINUOUS
 62
     3
 10
97.9999999999997442
 20
56.5000000000000782
 30
0.0000000000000213
 11
99.9999999999997868
 21
56.5000000000000782
 31
0.0000000000000218
  0
LINE
  5
DEF1
  8
0
  6
CONTINUOUS
 62
     3
 10
99.9999999999997868
 20
65.6000000000000938
 30
0.0000000000000213
 11
97.9999999999997442
 21
65.6000000000000938
 31
0.0000000000000209
  0
LINE
  5
DEF2
  8
0
  6
CONTINUOUS
 62
     3
 10
97.9999999999997442
 20
67.6000000000000796
 30
0.0000000000000213
 11
99.9999999999997868
 21
67.6000000000000796
 31
0.0000000000000218
  0
LINE
  5
DEF3
  8
0
  6
CONTINUOUS
 62
     3
 10
99.9999999999997868
 20
-0.9999999999999065
 30
0.0000000000000213
 11
99.9999999999997868
 21
-10.0999999999999108
 31
0.0000000000000213
  0
LINE
  5
DEF4
  8
0
  6
CONTINUOUS
 62
     3
 10
99.9999999999997868
 20
-0.9999999999999173
 30
0.0000000000000213
 11
97.9999999999997442
 21
-0.9999999999999172
 31
0.0000000000000209
  0
LINE
  5
DEF5
  8
0
  6
CONTINUOUS
 62
     3
 10
97.9999999999997442
 20
-10.0999999999999108
 30
0.0000000000000213
 11
97.9999999999997442
 21
-0.9999999999999059
 31
0.0000000000000213
  0
LINE
  5
DEF6
  8
0
  6
CONTINUOUS
 62
     3
 10
99.9999999999997868
 20
-12.0999999999999002
 30
0.0000000000000213
 11
99.9999999999997868
 21
-21.1999999999999282
 31
0.0000000000000213
  0
LINE
  5
DEF7
  8
0
  6
CONTINUOUS
 62
     3
 10
97.9999999999997442
 20
-21.1999999999999282
 30
0.0000000000000213
 11
97.9999999999997442
 21
-12.0999999999999002
 31
0.0000000000000213
  0
LINE
  5
DEF8
  8
0
  6
CONTINUOUS
 62
     3
 10
99.9999999999997868
 20
-23.1999999999999282
 30
0.0000000000000213
 11
99.9999999999997868
 21
-32.299999999999919
 31
0.0000000000000213
  0
LINE
  5
DEF9
  8
0
  6
CONTINUOUS
 62
     3
 10
97.9999999999997442
 20
-32.299999999999919
 30
0.0000000000000213
 11
97.9999999999997442
 21
-23.1999999999999282
 31
0.0000000000000213
  0
LINE
  5
DEFA
  8
0
  6
CONTINUOUS
 62
     3
 10
99.9999999999997868
 20
-34.299999999999919
 30
0.0000000000000213
 11
99.9999999999997868
 21
-43.3999999999999417
 31
0.0000000000000213
  0
LINE
  5
DEFB
  8
0
  6
CONTINUOUS
 62
     3
 10
97.9999999999997442
 20
-43.3999999999999417
 30
0.0000000000000213
 11
97.9999999999997442
 21
-34.299999999999919
 31
0.0000000000000213
  0
LINE
  5
DEFC
  8
0
  6
CONTINUOUS
 62
     3
 10
99.9999999999997868
 20
-45.3999999999999204
 30
0.0000000000000213
 11
99.9999999999997868
 21
-54.4999999999999289
 31
0.0000000000000213
  0
LINE
  5
DEFD
  8
0
  6
CONTINUOUS
 62
     3
 10
97.9999999999997442
 20
-54.4999999999999289
 30
0.0000000000000213
 11
97.9999999999997442
 21
-45.3999999999999204
 31
0.0000000000000213
  0
LINE
  5
DEFE
  8
0
  6
CONTINUOUS
 62
     3
 10
99.9999999999997868
 20
-56.4999999999999432
 30
0.0000000000000213
 11
99.9999999999997868
 21
-65.5999999999999375
 31
0.0000000000000213
  0
LINE
  5
DEFF
  8
0
  6
CONTINUOUS
 62
     3
 10
97.9999999999997442
 20
-65.5999999999999233
 30
0.0000000000000213
 11
97.9999999999997442
 21
-56.4999999999999289
 31
0.0000000000000213
  0
LINE
  5
DF00
  8
0
  6
CONTINUOUS
 62
     3
 10
97.9999999999997442
 20
1.000000000000079
 30
0.0000000000000213
 11
97.9999999999997442
 21
10.1000000000000902
 31
0.0000000000000213
  0
LINE
  5
DF01
  8
0
  6
CONTINUOUS
 62
     3
 10
97.9999999999997442
 20
12.1000000000000796
 30
0.0000000000000213
 11
97.9999999999997442
 21
21.2000000000000917
 31
0.0000000000000213
  0
LINE
  5
DF02
  8
0
  6
CONTINUOUS
 62
     3
 10
97.9999999999997442
 20
23.200000000000081
 30
0.0000000000000213
 11
97.9999999999997442
 21
32.3000000000000895
 31
0.0000000000000213
  0
LINE
  5
DF03
  8
0
  6
CONTINUOUS
 62
     3
 10
97.9999999999997442
 20
34.3000000000000895
 30
0.0000000000000213
 11
97.9999999999997442
 21
43.4000000000000767
 31
0.0000000000000213
  0
LINE
  5
DF04
  8
0
  6
CONTINUOUS
 62
     3
 10
97.9999999999997442
 20
45.4000000000000767
 30
0.0000000000000213
 11
97.9999999999997442
 21
54.5000000000000924
 31
0.0000000000000213
  0
LINE
  5
DF05
  8
0
  6
CONTINUOUS
 62
     3
 10
97.9999999999997442
 20
56.5000000000000924
 30
0.0000000000000213
 11
97.9999999999997442
 21
65.6000000000000796
 31
0.0000000000000213
  0
LINE
  5
DF06
  8
0
  6
CONTINUOUS
 62
     3
 10
97.9999999999997442
 20
67.6000000000000796
 30
0.0000000000000213
 11
97.9999999999997442
 21
74.0000000000001137
 31
0.0000000000000213
  0
LINE
  5
DF07
  8
0
  6
CONTINUOUS
 62
     3
 10
97.9999999999997442
 20
-73.9999999999998721
 30
0.0000000000000213
 11
97.9999999999997442
 21
-67.5999999999998948
 31
0.0000000000000213
  0
LINE
  5
DF08
  8
0
  6
CONTINUOUS
 62
     3
 10
99.9999999999997868
 20
74.0000000000001137
 30
0.0000000000000213
 11
99.9999999999997868
 21
67.6000000000000796
 31
0.0000000000000213
  0
LINE
  5
DF09
  8
0
  6
CONTINUOUS
 62
     3
 10
97.9999999999997726
 20
74.0000000000001137
 30
0.0000000000000213
 11
99.9999999999997868
 21
74.0000000000001137
 31
0.0000000000000218
  0
LINE
  5
DF0A
  8
0
  6
CONTINUOUS
 62
     3
 10
99.9999999999997868
 20
65.6000000000000938
 30
0.0000000000000213
 11
99.9999999999997868
 21
56.5000000000000924
 31
0.0000000000000213
  0
LINE
  5
DF0B
  8
0
  6
CONTINUOUS
 62
     3
 10
99.9999999999997868
 20
54.5000000000000924
 30
0.0000000000000213
 11
99.9999999999997868
 21
45.4000000000000767
 31
0.0000000000000213
  0
LINE
  5
DF0C
  8
0
  6
CONTINUOUS
 62
     3
 10
99.9999999999997868
 20
43.4000000000000767
 30
0.0000000000000213
 11
99.9999999999997868
 21
34.3000000000000895
 31
0.0000000000000213
  0
LINE
  5
DF0D
  8
0
  6
CONTINUOUS
 62
     3
 10
99.9999999999997868
 20
32.3000000000000895
 30
0.0000000000000213
 11
99.9999999999997868
 21
23.200000000000081
 31
0.0000000000000213
  0
LINE
  5
DF0E
  8
0
  6
CONTINUOUS
 62
     3
 10
99.9999999999997868
 20
21.2000000000000917
 30
0.0000000000000213
 11
99.9999999999997868
 21
12.1000000000000796
 31
0.0000000000000213
  0
LINE
  5
DF0F
  8
0
  6
CONTINUOUS
 62
     3
 10
97.9999999999997442
 20
1.0000000000000751
 30
0.0000000000000213
 11
99.9999999999997868
 21
1.0000000000000751
 31
0.0000000000000218
  0
LINE
  5
DF10
  8
0
  6
CONTINUOUS
 62
     3
 10
99.9999999999997868
 20
10.1000000000000902
 30
0.0000000000000213
 11
99.9999999999997868
 21
1.000000000000079
 31
0.0000000000000213
  0
LINE
  5
DF11
  8
0
  6
CONTINUOUS
 62
     3
 10
99.9999999999997868
 20
-73.9999999999998863
 30
0.0000000000000213
 11
97.9999999999997726
 21
-73.9999999999998863
 31
0.0000000000000209
  0
LINE
  5
DF12
  8
0
  6
CONTINUOUS
 62
     3
 10
99.9999999999997868
 20
-67.5999999999998948
 30
0.0000000000000213
 11
99.9999999999997868
 21
-73.9999999999998721
 31
0.0000000000000213
  0
LINE
  5
DF13
  8
0
  6
CONTINUOUS
 62
     3
 10
33.999999999999801
 20
-67.5999999999998948
 30
0.0000000000000071
 11
33.999999999999801
 21
-73.9999999999998721
 31
0.0000000000000071
  0
LINE
  5
DF14
  8
0
  6
CONTINUOUS
 62
     3
 10
33.9999999999998224
 20
74.0000000000001137
 30
0.0000000000000071
 11
33.9999999999998224
 21
67.6000000000000796
 31
0.0000000000000071
  0
LINE
  5
DF15
  8
0
  6
CONTINUOUS
 62
     3
 10
33.9999999999998082
 20
65.6000000000000938
 30
0.0000000000000071
 11
33.9999999999998082
 21
56.5000000000000924
 31
0.0000000000000071
  0
LINE
  5
DF16
  8
0
  6
CONTINUOUS
 62
     3
 10
33.9999999999998082
 20
54.5000000000000924
 30
0.0000000000000071
 11
33.9999999999998082
 21
45.4000000000000909
 31
0.0000000000000071
  0
LINE
  5
DF17
  8
0
  6
CONTINUOUS
 62
     3
 10
33.9999999999998082
 20
43.4000000000000909
 30
0.0000000000000071
 11
33.9999999999998082
 21
34.3000000000000895
 31
0.0000000000000071
  0
LINE
  5
DF18
  8
0
  6
CONTINUOUS
 62
     3
 10
33.9999999999998082
 20
32.3000000000000966
 30
0.0000000000000071
 11
33.9999999999998082
 21
23.2000000000000917
 31
0.0000000000000071
  0
LINE
  5
DF19
  8
0
  6
CONTINUOUS
 62
     3
 10
33.9999999999998082
 20
21.2000000000000988
 30
0.0000000000000071
 11
33.9999999999998082
 21
12.1000000000000796
 31
0.0000000000000071
  0
LINE
  5
DF1A
  8
0
  6
CONTINUOUS
 62
     3
 10
33.9999999999998082
 20
10.1000000000000902
 30
0.0000000000000071
 11
33.9999999999998082
 21
1.000000000000083
 31
0.0000000000000071
  0
LINE
  5
DF1B
  8
0
  6
CONTINUOUS
 62
     3
 10
33.9999999999998082
 20
-0.9999999999999026
 30
0.0000000000000071
 11
33.9999999999998082
 21
-10.0999999999999108
 31
0.0000000000000071
  0
LINE
  5
DF1C
  8
0
  6
CONTINUOUS
 62
     3
 10
33.9999999999998082
 20
-12.0999999999998895
 30
0.0000000000000071
 11
33.9999999999998082
 21
-21.1999999999999211
 31
0.0000000000000071
  0
LINE
  5
DF1D
  8
0
  6
CONTINUOUS
 62
     3
 10
33.9999999999998082
 20
-23.1999999999999211
 30
0.0000000000000071
 11
33.9999999999998082
 21
-32.2999999999999119
 31
0.0000000000000071
  0
LINE
  5
DF1E
  8
0
  6
CONTINUOUS
 62
     3
 10
33.9999999999998082
 20
-34.2999999999999119
 30
0.0000000000000071
 11
33.9999999999998082
 21
-43.3999999999999275
 31
0.0000000000000071
  0
LINE
  5
DF1F
  8
0
  6
CONTINUOUS
 62
     3
 10
33.9999999999998082
 20
-45.3999999999999204
 30
0.0000000000000071
 11
33.9999999999998082
 21
-54.4999999999999289
 31
0.0000000000000071
  0
LINE
  5
DF20
  8
0
  6
CONTINUOUS
 62
     3
 10
33.999999999999801
 20
-56.4999999999999289
 30
0.0000000000000071
 11
33.999999999999801
 21
-65.5999999999999233
 31
0.0000000000000071
  0
LINE
  5
DF21
  8
0
  6
CONTINUOUS
 62
     3
 10
33.9999999999997868
 20
-73.9999999999998863
 30
0.0000000000000071
 11
31.9999999999997904
 21
-73.9999999999998863
 31
0.0000000000000067
  0
LINE
  5
DF22
  8
0
  6
CONTINUOUS
 62
     3
 10
31.999999999999801
 20
74.0000000000001137
 30
0.0000000000000071
 11
33.999999999999801
 21
74.0000000000001137
 31
0.0000000000000075
  0
LINE
  5
DF23
  8
0
  6
CONTINUOUS
 62
     3
 10
33.999999999999801
 20
-67.5999999999998948
 30
0.0000000000000071
 11
31.9999999999997691
 21
-67.5999999999998948
 31
0.0000000000000067
  0
LINE
  5
DF24
  8
0
  6
CONTINUOUS
 62
     3
 10
31.9999999999997691
 20
-73.9999999999998721
 30
0.0000000000000071
 11
31.9999999999997691
 21
-67.5999999999998948
 31
0.0000000000000071
  0
LINE
  5
DF25
  8
0
  6
CONTINUOUS
 62
     3
 10
33.9999999999998082
 20
10.1000000000000796
 30
0.0000000000000071
 11
31.9999999999997797
 21
10.1000000000000796
 31
0.0000000000000067
  0
LINE
  5
DF26
  8
0
  6
CONTINUOUS
 62
     3
 10
31.9999999999997797
 20
1.000000000000083
 30
0.0000000000000071
 11
31.9999999999997797
 21
10.1000000000000902
 31
0.0000000000000071
  0
LINE
  5
DF27
  8
0
  6
CONTINUOUS
 62
     3
 10
31.9999999999997797
 20
1.000000000000079
 30
0.0000000000000071
 11
33.999999999999801
 21
1.000000000000079
 31
0.0000000000000075
  0
LINE
  5
DF28
  8
0
  6
CONTINUOUS
 62
     3
 10
33.9999999999998082
 20
-0.9999999999999133
 30
0.0000000000000071
 11
31.9999999999997797
 21
-0.9999999999999131
 31
0.0000000000000067
  0
LINE
  5
DF29
  8
0
  6
CONTINUOUS
 62
     3
 10
31.9999999999997797
 20
12.1000000000000796
 30
0.0000000000000071
 11
33.999999999999801
 21
12.1000000000000796
 31
0.0000000000000075
  0
LINE
  5
DF2A
  8
0
  6
CONTINUOUS
 62
     3
 10
33.9999999999998082
 20
21.2000000000000917
 30
0.0000000000000071
 11
31.9999999999997797
 21
21.2000000000000917
 31
0.0000000000000067
  0
LINE
  5
DF2B
  8
0
  6
CONTINUOUS
 62
     3
 10
31.9999999999997797
 20
12.1000000000000796
 30
0.0000000000000071
 11
31.9999999999997797
 21
21.2000000000000988
 31
0.0000000000000071
  0
LINE
  5
DF2C
  8
0
  6
CONTINUOUS
 62
     3
 10
31.9999999999997797
 20
23.2000000000000917
 30
0.0000000000000071
 11
33.999999999999801
 21
23.2000000000000917
 31
0.0000000000000075
  0
LINE
  5
DF2D
  8
0
  6
CONTINUOUS
 62
     3
 10
33.9999999999998082
 20
32.3000000000000895
 30
0.0000000000000071
 11
31.9999999999997797
 21
32.3000000000000895
 31
0.0000000000000067
  0
LINE
  5
DF2E
  8
0
  6
CONTINUOUS
 62
     3
 10
31.9999999999997797
 20
23.2000000000000917
 30
0.0000000000000071
 11
31.9999999999997797
 21
32.3000000000000966
 31
0.0000000000000071
  0
LINE
  5
DF2F
  8
0
  6
CONTINUOUS
 62
     3
 10
31.9999999999997797
 20
34.3000000000000895
 30
0.0000000000000071
 11
33.999999999999801
 21
34.3000000000000895
 31
0.0000000000000075
  0
LINE
  5
DF30
  8
0
  6
CONTINUOUS
 62
     3
 10
33.9999999999998082
 20
43.4000000000000767
 30
0.0000000000000071
 11
31.9999999999997797
 21
43.4000000000000767
 31
0.0000000000000067
  0
LINE
  5
DF31
  8
0
  6
CONTINUOUS
 62
     3
 10
31.9999999999997797
 20
34.3000000000000895
 30
0.0000000000000071
 11
31.9999999999997797
 21
43.4000000000000909
 31
0.0000000000000071
  0
LINE
  5
DF32
  8
0
  6
CONTINUOUS
 62
     3
 10
31.9999999999997797
 20
45.4000000000000767
 30
0.0000000000000071
 11
33.9999999999998224
 21
45.4000000000000767
 31
0.0000000000000075
  0
LINE
  5
DF33
  8
0
  6
CONTINUOUS
 62
     3
 10
33.9999999999998082
 20
54.5000000000000924
 30
0.0000000000000071
 11
31.9999999999997797
 21
54.5000000000000924
 31
0.0000000000000067
  0
LINE
  5
DF34
  8
0
  6
CONTINUOUS
 62
     3
 10
31.9999999999997797
 20
45.4000000000000909
 30
0.0000000000000071
 11
31.9999999999997797
 21
54.5000000000000924
 31
0.0000000000000071
  0
LINE
  5
DF35
  8
0
  6
CONTINUOUS
 62
     3
 10
31.9999999999997797
 20
56.5000000000000924
 30
0.0000000000000071
 11
33.9999999999998224
 21
56.5000000000000924
 31
0.0000000000000075
  0
LINE
  5
DF36
  8
0
  6
CONTINUOUS
 62
     3
 10
33.9999999999998082
 20
65.6000000000000938
 30
0.0000000000000071
 11
31.9999999999997797
 21
65.6000000000000938
 31
0.0000000000000067
  0
LINE
  5
DF37
  8
0
  6
CONTINUOUS
 62
     3
 10
31.9999999999997797
 20
56.5000000000000924
 30
0.0000000000000071
 11
31.9999999999997797
 21
65.6000000000000938
 31
0.0000000000000071
  0
LINE
  5
DF38
  8
0
  6
CONTINUOUS
 62
     3
 10
31.9999999999997797
 20
67.6000000000000796
 30
0.0000000000000071
 11
33.9999999999998224
 21
67.6000000000000796
 31
0.0000000000000075
  0
LINE
  5
DF39
  8
0
  6
CONTINUOUS
 62
     3
 10
31.9999999999997797
 20
67.6000000000000796
 30
0.0000000000000071
 11
31.9999999999997797
 21
74.0000000000001137
 31
0.0000000000000071
  0
LINE
  5
DF3A
  8
0
  6
CONTINUOUS
 62
     3
 10
31.9999999999997691
 20
-65.5999999999999233
 30
0.0000000000000071
 11
31.9999999999997691
 21
-56.4999999999999289
 31
0.0000000000000071
  0
LINE
  5
DF3B
  8
0
  6
CONTINUOUS
 62
     3
 10
31.9999999999997691
 20
-54.4999999999999289
 30
0.0000000000000071
 11
31.9999999999997691
 21
-45.3999999999999204
 31
0.0000000000000071
  0
LINE
  5
DF3C
  8
0
  6
CONTINUOUS
 62
     3
 10
31.9999999999997691
 20
-43.3999999999999275
 30
0.0000000000000071
 11
31.9999999999997691
 21
-34.2999999999999119
 31
0.0000000000000071
  0
LINE
  5
DF3D
  8
0
  6
CONTINUOUS
 62
     3
 10
31.9999999999997691
 20
-32.2999999999999119
 30
0.0000000000000071
 11
31.9999999999997691
 21
-23.1999999999999211
 31
0.0000000000000071
  0
LINE
  5
DF3E
  8
0
  6
CONTINUOUS
 62
     3
 10
31.9999999999997691
 20
-21.1999999999999211
 30
0.0000000000000071
 11
31.9999999999997691
 21
-12.0999999999999002
 31
0.0000000000000071
  0
LINE
  5
DF3F
  8
0
  6
CONTINUOUS
 62
     3
 10
31.9999999999997797
 20
-10.0999999999999108
 30
0.0000000000000071
 11
31.9999999999997797
 21
-0.9999999999999023
 31
0.0000000000000071
  0
LINE
  5
DF40
  8
0
  6
CONTINUOUS
 62
     3
 10
31.9999999999997691
 20
-65.5999999999999233
 30
0.0000000000000071
 11
33.999999999999801
 21
-65.5999999999999233
 31
0.0000000000000075
  0
LINE
  5
DF41
  8
0
  6
CONTINUOUS
 62
     3
 10
33.999999999999801
 20
-56.4999999999999076
 30
0.0000000000000071
 11
31.9999999999997691
 21
-56.4999999999999076
 31
0.0000000000000067
  0
LINE
  5
DF42
  8
0
  6
CONTINUOUS
 62
     3
 10
31.9999999999997691
 20
-54.4999999999999289
 30
0.0000000000000071
 11
33.999999999999801
 21
-54.4999999999999289
 31
0.0000000000000075
  0
LINE
  5
DF43
  8
0
  6
CONTINUOUS
 62
     3
 10
33.9999999999998082
 20
-45.3999999999999204
 30
0.0000000000000071
 11
31.9999999999997797
 21
-45.3999999999999204
 31
0.0000000000000067
  0
LINE
  5
DF44
  8
0
  6
CONTINUOUS
 62
     3
 10
31.9999999999997691
 20
-43.3999999999999275
 30
0.0000000000000071
 11
33.999999999999801
 21
-43.3999999999999275
 31
0.0000000000000075
  0
LINE
  5
DF45
  8
0
  6
CONTINUOUS
 62
     3
 10
33.9999999999998082
 20
-34.2999999999999119
 30
0.0000000000000071
 11
31.9999999999997797
 21
-34.2999999999999119
 31
0.0000000000000067
  0
LINE
  5
DF46
  8
0
  6
CONTINUOUS
 62
     3
 10
31.9999999999997691
 20
-32.299999999999919
 30
0.0000000000000071
 11
33.999999999999801
 21
-32.299999999999919
 31
0.0000000000000075
  0
LINE
  5
DF47
  8
0
  6
CONTINUOUS
 62
     3
 10
33.9999999999998082
 20
-23.1999999999999211
 30
0.0000000000000071
 11
31.9999999999997797
 21
-23.1999999999999211
 31
0.0000000000000067
  0
LINE
  5
DF48
  8
0
  6
CONTINUOUS
 62
     3
 10
31.9999999999997691
 20
-21.1999999999999282
 30
0.0000000000000071
 11
33.999999999999801
 21
-21.1999999999999282
 31
0.0000000000000075
  0
LINE
  5
DF49
  8
0
  6
CONTINUOUS
 62
     3
 10
33.9999999999998082
 20
-12.0999999999999108
 30
0.0000000000000071
 11
31.9999999999997797
 21
-12.0999999999999108
 31
0.0000000000000067
  0
LINE
  5
DF4A
  8
0
  6
CONTINUOUS
 62
     3
 10
31.9999999999997797
 20
-10.0999999999999197
 30
0.0000000000000071
 11
33.999999999999801
 21
-10.0999999999999197
 31
0.0000000000000075
  0
LINE
  5
DF4B
  8
0
  6
CONTINUOUS
 62
     3
 10
-164.000000000000199
 20
-67.5999999999998948
 30
-0.0000000000000355
 11
-166.000000000000199
 21
-67.5999999999998948
 31
-0.000000000000036
  0
LINE
  5
DF4C
  8
0
  6
CONTINUOUS
 62
     3
 10
-166.000000000000199
 20
-65.5999999999999091
 30
-0.0000000000000355
 11
-164.000000000000199
 21
-65.5999999999999091
 31
-0.0000000000000351
  0
LINE
  5
DF4D
  8
0
  6
CONTINUOUS
 62
     3
 10
-164.000000000000199
 20
-56.4999999999999076
 30
-0.0000000000000355
 11
-166.000000000000199
 21
-56.4999999999999076
 31
-0.000000000000036
  0
LINE
  5
DF4E
  8
0
  6
CONTINUOUS
 62
     3
 10
-166.000000000000199
 20
-54.4999999999999218
 30
-0.0000000000000355
 11
-164.000000000000199
 21
-54.4999999999999218
 31
-0.0000000000000351
  0
LINE
  5
DF4F
  8
0
  6
CONTINUOUS
 62
     3
 10
-164.000000000000199
 20
-45.3999999999999133
 30
-0.0000000000000355
 11
-166.000000000000199
 21
-45.3999999999999133
 31
-0.000000000000036
  0
LINE
  5
DF50
  8
0
  6
CONTINUOUS
 62
     3
 10
-166.000000000000199
 20
-43.3999999999999204
 30
-0.0000000000000355
 11
-164.000000000000199
 21
-43.3999999999999204
 31
-0.0000000000000351
  0
LINE
  5
DF51
  8
0
  6
CONTINUOUS
 62
     3
 10
-164.000000000000199
 20
-34.2999999999999119
 30
-0.0000000000000355
 11
-166.000000000000199
 21
-34.2999999999999119
 31
-0.000000000000036
  0
LINE
  5
DF52
  8
0
  6
CONTINUOUS
 62
     3
 10
-166.000000000000199
 20
-32.2999999999999119
 30
-0.0000000000000355
 11
-164.000000000000199
 21
-32.2999999999999119
 31
-0.0000000000000351
  0
LINE
  5
DF53
  8
0
  6
CONTINUOUS
 62
     3
 10
-164.000000000000199
 20
-23.1999999999999105
 30
-0.0000000000000355
 11
-166.000000000000199
 21
-23.1999999999999105
 31
-0.000000000000036
  0
LINE
  5
DF54
  8
0
  6
CONTINUOUS
 62
     3
 10
-166.000000000000199
 20
-21.1999999999999211
 30
-0.0000000000000355
 11
-164.000000000000199
 21
-21.1999999999999211
 31
-0.0000000000000351
  0
LINE
  5
DF55
  8
0
  6
CONTINUOUS
 62
     3
 10
-164.000000000000199
 20
-12.0999999999999002
 30
-0.0000000000000355
 11
-166.000000000000199
 21
-12.0999999999999002
 31
-0.000000000000036
  0
LINE
  5
DF56
  8
0
  6
CONTINUOUS
 62
     3
 10
-166.000000000000199
 20
-10.0999999999999002
 30
-0.0000000000000355
 11
-164.000000000000199
 21
-10.0999999999999002
 31
-0.0000000000000351
  0
LINE
  5
DF57
  8
0
  6
CONTINUOUS
 62
     3
 10
-164.000000000000199
 20
10.1000000000000991
 30
-0.0000000000000355
 11
-166.000000000000199
 21
10.1000000000000991
 31
-0.000000000000036
  0
LINE
  5
DF58
  8
0
  6
CONTINUOUS
 62
     3
 10
-166.000000000000199
 20
12.1000000000000902
 30
-0.0000000000000355
 11
-164.000000000000199
 21
12.1000000000000902
 31
-0.0000000000000351
  0
LINE
  5
DF59
  8
0
  6
CONTINUOUS
 62
     3
 10
-164.000000000000199
 20
21.2000000000001094
 30
-0.0000000000000355
 11
-166.000000000000199
 21
21.2000000000001094
 31
-0.000000000000036
  0
LINE
  5
DF5A
  8
0
  6
CONTINUOUS
 62
     3
 10
-166.000000000000199
 20
23.2000000000000988
 30
-0.0000000000000355
 11
-164.000000000000199
 21
23.2000000000000988
 31
-0.0000000000000351
  0
LINE
  5
DF5B
  8
0
  6
CONTINUOUS
 62
     3
 10
-164.000000000000199
 20
32.3000000000000966
 30
-0.0000000000000355
 11
-166.000000000000199
 21
32.3000000000000966
 31
-0.000000000000036
  0
LINE
  5
DF5C
  8
0
  6
CONTINUOUS
 62
     3
 10
-166.000000000000199
 20
34.3000000000000895
 30
-0.0000000000000355
 11
-164.000000000000199
 21
34.3000000000000895
 31
-0.0000000000000351
  0
LINE
  5
DF5D
  8
0
  6
CONTINUOUS
 62
     3
 10
-164.000000000000199
 20
43.4000000000000909
 30
-0.0000000000000355
 11
-166.000000000000199
 21
43.4000000000000909
 31
-0.000000000000036
  0
LINE
  5
DF5E
  8
0
  6
CONTINUOUS
 62
     3
 10
-166.000000000000199
 20
45.4000000000000909
 30
-0.0000000000000355
 11
-164.000000000000199
 21
45.4000000000000909
 31
-0.0000000000000351
  0
LINE
  5
DF5F
  8
0
  6
CONTINUOUS
 62
     3
 10
-164.000000000000199
 20
54.5000000000000995
 30
-0.0000000000000355
 11
-166.000000000000199
 21
54.5000000000000995
 31
-0.000000000000036
  0
LINE
  5
DF60
  8
0
  6
CONTINUOUS
 62
     3
 10
-166.000000000000199
 20
56.5000000000000924
 30
-0.0000000000000355
 11
-164.000000000000199
 21
56.5000000000000924
 31
-0.0000000000000351
  0
LINE
  5
DF61
  8
0
  6
CONTINUOUS
 62
     3
 10
-164.000000000000199
 20
65.600000000000108
 30
-0.0000000000000355
 11
-166.000000000000199
 21
65.600000000000108
 31
-0.000000000000036
  0
LINE
  5
DF62
  8
0
  6
CONTINUOUS
 62
     3
 10
-166.000000000000199
 20
67.6000000000000938
 30
-0.0000000000000355
 11
-164.000000000000199
 21
67.6000000000000938
 31
-0.0000000000000351
  0
LINE
  5
DF63
  8
0
  6
CONTINUOUS
 62
     3
 10
-164.000000000000199
 20
-0.9999999999998905
 30
-0.0000000000000355
 11
-164.000000000000199
 21
-10.0999999999999002
 31
-0.0000000000000355
  0
LINE
  5
DF64
  8
0
  6
CONTINUOUS
 62
     3
 10
-164.000000000000199
 20
-0.9999999999999012
 30
-0.0000000000000355
 11
-166.000000000000199
 21
-0.999999999999901
 31
-0.000000000000036
  0
LINE
  5
DF65
  8
0
  6
CONTINUOUS
 62
     3
 10
-166.000000000000199
 20
-10.0999999999999002
 30
-0.0000000000000355
 11
-166.000000000000199
 21
-0.9999999999998898
 31
-0.0000000000000355
  0
LINE
  5
DF66
  8
0
  6
CONTINUOUS
 62
     3
 10
-164.000000000000199
 20
-12.0999999999998806
 30
-0.0000000000000355
 11
-164.000000000000199
 21
-21.1999999999999105
 31
-0.0000000000000355
  0
LINE
  5
DF67
  8
0
  6
CONTINUOUS
 62
     3
 10
-166.000000000000199
 20
-21.1999999999999105
 30
-0.0000000000000355
 11
-166.000000000000199
 21
-12.0999999999998806
 31
-0.0000000000000355
  0
LINE
  5
DF68
  8
0
  6
CONTINUOUS
 62
     3
 10
-164.000000000000199
 20
-23.1999999999999105
 30
-0.0000000000000355
 11
-164.000000000000199
 21
-32.2999999999998977
 31
-0.0000000000000355
  0
LINE
  5
DF69
  8
0
  6
CONTINUOUS
 62
     3
 10
-166.000000000000199
 20
-32.2999999999999119
 30
-0.0000000000000355
 11
-166.000000000000199
 21
-23.1999999999999105
 31
-0.0000000000000355
  0
LINE
  5
DF6A
  8
0
  6
CONTINUOUS
 62
     3
 10
-164.000000000000199
 20
-34.2999999999999119
 30
-0.0000000000000355
 11
-164.000000000000199
 21
-43.3999999999999204
 31
-0.0000000000000355
  0
LINE
  5
DF6B
  8
0
  6
CONTINUOUS
 62
     3
 10
-166.000000000000199
 20
-43.3999999999999204
 30
-0.0000000000000355
 11
-166.000000000000199
 21
-34.2999999999999119
 31
-0.0000000000000355
  0
LINE
  5
DF6C
  8
0
  6
CONTINUOUS
 62
     3
 10
-164.000000000000199
 20
-45.3999999999999133
 30
-0.0000000000000355
 11
-164.000000000000199
 21
-54.4999999999999218
 31
-0.0000000000000355
  0
LINE
  5
DF6D
  8
0
  6
CONTINUOUS
 62
     3
 10
-166.000000000000199
 20
-54.4999999999999218
 30
-0.0000000000000355
 11
-166.000000000000199
 21
-45.3999999999999133
 31
-0.0000000000000355
  0
LINE
  5
DF6E
  8
0
  6
CONTINUOUS
 62
     3
 10
-164.000000000000199
 20
-56.4999999999999218
 30
-0.0000000000000355
 11
-164.000000000000199
 21
-65.5999999999999091
 31
-0.0000000000000355
  0
LINE
  5
DF6F
  8
0
  6
CONTINUOUS
 62
     3
 10
-166.000000000000199
 20
-65.5999999999999091
 30
-0.0000000000000355
 11
-166.000000000000199
 21
-56.4999999999999076
 31
-0.0000000000000355
  0
LINE
  5
DF70
  8
0
  6
CONTINUOUS
 62
     3
 10
-166.000000000000199
 20
-73.9999999999998579
 30
-0.0000000000000355
 11
-166.000000000000199
 21
-67.5999999999998806
 31
-0.0000000000000355
  0
LINE
  5
DF71
  8
0
  6
CONTINUOUS
 62
     3
 10
-164.000000000000199
 20
-73.9999999999998721
 30
-0.0000000000000355
 11
-166.000000000000199
 21
-73.9999999999998721
 31
-0.000000000000036
  0
LINE
  5
DF72
  8
0
  6
CONTINUOUS
 62
     3
 10
-164.000000000000199
 20
-67.5999999999998806
 30
-0.0000000000000355
 11
-164.000000000000199
 21
-73.9999999999998579
 31
-0.0000000000000355
  0
LINE
  5
DF73
  8
0
  6
CONTINUOUS
 62
     3
 10
-164.000000000000199
 20
74.0000000000001421
 30
-0.0000000000000355
 11
-164.000000000000199
 21
67.6000000000000938
 31
-0.0000000000000355
  0
LINE
  5
DF74
  8
0
  6
CONTINUOUS
 62
     3
 10
-166.000000000000199
 20
74.0000000000001421
 30
-0.0000000000000355
 11
-164.000000000000199
 21
74.0000000000001421
 31
-0.0000000000000351
  0
LINE
  5
DF75
  8
0
  6
CONTINUOUS
 62
     3
 10
-166.000000000000199
 20
67.6000000000000938
 30
-0.0000000000000355
 11
-166.000000000000199
 21
74.0000000000001421
 31
-0.0000000000000355
  0
LINE
  5
DF76
  8
0
  6
CONTINUOUS
 62
     3
 10
-164.000000000000199
 20
65.600000000000108
 30
-0.0000000000000355
 11
-164.000000000000199
 21
56.5000000000001066
 31
-0.0000000000000355
  0
LINE
  5
DF77
  8
0
  6
CONTINUOUS
 62
     3
 10
-166.000000000000199
 20
56.5000000000000995
 30
-0.0000000000000355
 11
-166.000000000000199
 21
65.600000000000108
 31
-0.0000000000000355
  0
LINE
  5
DF78
  8
0
  6
CONTINUOUS
 62
     3
 10
-164.000000000000199
 20
54.5000000000000995
 30
-0.0000000000000355
 11
-164.000000000000199
 21
45.4000000000000981
 31
-0.0000000000000355
  0
LINE
  5
DF79
  8
0
  6
CONTINUOUS
 62
     3
 10
-166.000000000000199
 20
45.4000000000000981
 30
-0.0000000000000355
 11
-166.000000000000199
 21
54.5000000000000995
 31
-0.0000000000000355
  0
LINE
  5
DF7A
  8
0
  6
CONTINUOUS
 62
     3
 10
-164.000000000000199
 20
43.4000000000000909
 30
-0.0000000000000355
 11
-164.000000000000199
 21
34.3000000000000966
 31
-0.0000000000000355
  0
LINE
  5
DF7B
  8
0
  6
CONTINUOUS
 62
     3
 10
-166.000000000000199
 20
34.3000000000000966
 30
-0.0000000000000355
 11
-166.000000000000199
 21
43.4000000000000909
 31
-0.0000000000000355
  0
LINE
  5
DF7C
  8
0
  6
CONTINUOUS
 62
     3
 10
-164.000000000000199
 20
32.3000000000001108
 30
-0.0000000000000355
 11
-164.000000000000199
 21
23.2000000000000988
 31
-0.0000000000000355
  0
LINE
  5
DF7D
  8
0
  6
CONTINUOUS
 62
     3
 10
-166.000000000000199
 20
23.2000000000000988
 30
-0.0000000000000355
 11
-166.000000000000199
 21
32.3000000000001108
 31
-0.0000000000000355
  0
LINE
  5
DF7E
  8
0
  6
CONTINUOUS
 62
     3
 10
-164.000000000000199
 20
21.2000000000001094
 30
-0.0000000000000355
 11
-164.000000000000199
 21
12.1000000000000902
 31
-0.0000000000000355
  0
LINE
  5
DF7F
  8
0
  6
CONTINUOUS
 62
     3
 10
-166.000000000000199
 20
12.1000000000000902
 30
-0.0000000000000355
 11
-166.000000000000199
 21
21.2000000000001094
 31
-0.0000000000000355
  0
LINE
  5
DF80
  8
0
  6
CONTINUOUS
 62
     3
 10
-166.000000000000199
 20
1.000000000000095
 30
-0.0000000000000355
 11
-166.000000000000199
 21
10.1000000000000991
 31
-0.0000000000000355
  0
LINE
  5
DF81
  8
0
  6
CONTINUOUS
 62
     3
 10
-166.000000000000199
 20
1.000000000000091
 30
-0.0000000000000355
 11
-164.000000000000199
 21
1.000000000000091
 31
-0.0000000000000351
  0
LINE
  5
DF82
  8
0
  6
CONTINUOUS
 62
     3
 10
-164.000000000000199
 20
10.1000000000000991
 30
-0.0000000000000355
 11
-164.000000000000199
 21
1.000000000000095
 31
-0.0000000000000355
  0
LINE
  5
DF83
  8
0
  6
CONTINUOUS
 62
     3
 10
165.9999999999996874
 20
-67.5999999999998948
 30
0.0000000000000355
 11
165.9999999999996874
 21
-73.9999999999998863
 31
0.0000000000000355
  0
LINE
  5
DF84
  8
0
  6
CONTINUOUS
 62
     3
 10
165.9999999999996874
 20
74.0000000000001137
 30
0.0000000000000355
 11
165.9999999999996874
 21
67.6000000000000654
 31
0.0000000000000355
  0
LINE
  5
DF85
  8
0
  6
CONTINUOUS
 62
     3
 10
165.9999999999996874
 20
65.6000000000000796
 30
0.0000000000000355
 11
165.9999999999996874
 21
56.5000000000000782
 31
0.0000000000000355
  0
LINE
  5
DF86
  8
0
  6
CONTINUOUS
 62
     3
 10
165.9999999999996874
 20
54.5000000000000924
 30
0.0000000000000355
 11
165.9999999999996874
 21
45.4000000000000767
 31
0.0000000000000355
  0
LINE
  5
DF87
  8
0
  6
CONTINUOUS
 62
     3
 10
165.9999999999996874
 20
43.4000000000000767
 30
0.0000000000000355
 11
165.9999999999996874
 21
34.3000000000000895
 31
0.0000000000000355
  0
LINE
  5
DF88
  8
0
  6
CONTINUOUS
 62
     3
 10
165.9999999999996874
 20
32.3000000000000895
 30
0.0000000000000355
 11
165.9999999999996874
 21
23.200000000000081
 31
0.0000000000000355
  0
LINE
  5
DF89
  8
0
  6
CONTINUOUS
 62
     3
 10
165.9999999999996874
 20
21.2000000000000917
 30
0.0000000000000355
 11
165.9999999999996874
 21
12.1000000000000707
 31
0.0000000000000355
  0
LINE
  5
DF8A
  8
0
  6
CONTINUOUS
 62
     3
 10
165.9999999999996874
 20
10.1000000000000796
 30
0.0000000000000355
 11
165.9999999999996874
 21
1.0000000000000739
 31
0.0000000000000355
  0
LINE
  5
DF8B
  8
0
  6
CONTINUOUS
 62
     3
 10
165.9999999999996874
 20
-0.9999999999999108
 30
0.0000000000000355
 11
165.9999999999996874
 21
-10.0999999999999197
 31
0.0000000000000355
  0
LINE
  5
DF8C
  8
0
  6
CONTINUOUS
 62
     3
 10
165.9999999999996874
 20
-12.0999999999999002
 30
0.0000000000000355
 11
165.9999999999996874
 21
-21.1999999999999282
 31
0.0000000000000355
  0
LINE
  5
DF8D
  8
0
  6
CONTINUOUS
 62
     3
 10
165.9999999999996874
 20
-23.1999999999999282
 30
0.0000000000000355
 11
165.9999999999996874
 21
-32.2999999999999332
 31
0.0000000000000355
  0
LINE
  5
DF8E
  8
0
  6
CONTINUOUS
 62
     3
 10
165.9999999999996874
 20
-34.299999999999919
 30
0.0000000000000355
 11
165.9999999999996874
 21
-43.3999999999999417
 31
0.0000000000000355
  0
LINE
  5
DF8F
  8
0
  6
CONTINUOUS
 62
     3
 10
165.9999999999996874
 20
-45.3999999999999204
 30
0.0000000000000355
 11
165.9999999999996874
 21
-54.4999999999999289
 31
0.0000000000000355
  0
LINE
  5
DF90
  8
0
  6
CONTINUOUS
 62
     3
 10
165.9999999999996874
 20
-56.4999999999999432
 30
0.0000000000000355
 11
165.9999999999996874
 21
-65.5999999999999375
 31
0.0000000000000355
  0
LINE
  5
DF91
  8
0
  6
CONTINUOUS
 62
     3
 10
165.9999999999996874
 20
-73.9999999999999005
 30
0.0000000000000355
 11
163.9999999999996874
 21
-73.9999999999999005
 31
0.0000000000000351
  0
LINE
  5
DF92
  8
0
  6
CONTINUOUS
 62
     3
 10
163.9999999999996874
 20
74.0000000000001137
 30
0.0000000000000355
 11
165.9999999999996874
 21
74.0000000000001137
 31
0.000000000000036
  0
LINE
  5
DF93
  8
0
  6
CONTINUOUS
 62
     3
 10
165.9999999999996874
 20
-67.5999999999999233
 30
0.0000000000000355
 11
163.9999999999996874
 21
-67.5999999999999233
 31
0.0000000000000351
  0
LINE
  5
DF94
  8
0
  6
CONTINUOUS
 62
     3
 10
163.9999999999996874
 20
-73.9999999999998863
 30
0.0000000000000355
 11
163.9999999999996874
 21
-67.5999999999998948
 31
0.0000000000000355
  0
LINE
  5
DF95
  8
0
  6
CONTINUOUS
 62
     3
 10
165.9999999999996874
 20
10.1000000000000707
 30
0.0000000000000355
 11
163.9999999999996874
 21
10.1000000000000707
 31
0.0000000000000351
  0
LINE
  5
DF96
  8
0
  6
CONTINUOUS
 62
     3
 10
163.9999999999996874
 20
1.0000000000000751
 30
0.0000000000000355
 11
163.9999999999996874
 21
10.1000000000000796
 31
0.0000000000000355
  0
LINE
  5
DF97
  8
0
  6
CONTINUOUS
 62
     3
 10
163.9999999999996874
 20
1.0000000000000711
 30
0.0000000000000355
 11
165.9999999999996874
 21
1.0000000000000711
 31
0.000000000000036
  0
LINE
  5
DF98
  8
0
  6
CONTINUOUS
 62
     3
 10
165.9999999999996874
 20
-0.9999999999999214
 30
0.0000000000000355
 11
163.9999999999996874
 21
-0.9999999999999213
 31
0.0000000000000351
  0
LINE
  5
DF99
  8
0
  6
CONTINUOUS
 62
     3
 10
163.9999999999996874
 20
12.1000000000000707
 30
0.0000000000000355
 11
165.9999999999996874
 21
12.1000000000000707
 31
0.000000000000036
  0
LINE
  5
DF9A
  8
0
  6
CONTINUOUS
 62
     3
 10
165.9999999999996874
 20
21.200000000000081
 30
0.0000000000000355
 11
163.9999999999996874
 21
21.200000000000081
 31
0.0000000000000351
  0
LINE
  5
DF9B
  8
0
  6
CONTINUOUS
 62
     3
 10
163.9999999999996874
 20
12.1000000000000707
 30
0.0000000000000355
 11
163.9999999999996874
 21
21.2000000000000917
 31
0.0000000000000355
  0
LINE
  5
DF9C
  8
0
  6
CONTINUOUS
 62
     3
 10
163.9999999999996874
 20
23.200000000000081
 30
0.0000000000000355
 11
165.9999999999996874
 21
23.200000000000081
 31
0.000000000000036
  0
LINE
  5
DF9D
  8
0
  6
CONTINUOUS
 62
     3
 10
165.9999999999996874
 20
32.3000000000000824
 30
0.0000000000000355
 11
163.9999999999996874
 21
32.3000000000000824
 31
0.0000000000000351
  0
LINE
  5
DF9E
  8
0
  6
CONTINUOUS
 62
     3
 10
163.9999999999996874
 20
23.200000000000081
 30
0.0000000000000355
 11
163.9999999999996874
 21
32.3000000000000824
 31
0.0000000000000355
  0
LINE
  5
DF9F
  8
0
  6
CONTINUOUS
 62
     3
 10
163.9999999999996874
 20
34.3000000000000824
 30
0.0000000000000355
 11
165.9999999999996874
 21
34.3000000000000824
 31
0.000000000000036
  0
LINE
  5
DFA0
  8
0
  6
CONTINUOUS
 62
     3
 10
165.9999999999996874
 20
43.4000000000000696
 30
0.0000000000000355
 11
163.9999999999996874
 21
43.4000000000000696
 31
0.0000000000000351
  0
LINE
  5
DFA1
  8
0
  6
CONTINUOUS
 62
     3
 10
163.9999999999996874
 20
34.3000000000000895
 30
0.0000000000000355
 11
163.9999999999996874
 21
43.4000000000000767
 31
0.0000000000000355
  0
LINE
  5
DFA2
  8
0
  6
CONTINUOUS
 62
     3
 10
163.9999999999996874
 20
45.4000000000000767
 30
0.0000000000000355
 11
165.9999999999996874
 21
45.4000000000000767
 31
0.000000000000036
  0
LINE
  5
DFA3
  8
0
  6
CONTINUOUS
 62
     3
 10
165.9999999999996874
 20
54.5000000000000924
 30
0.0000000000000355
 11
163.9999999999996874
 21
54.5000000000000924
 31
0.0000000000000351
  0
LINE
  5
DFA4
  8
0
  6
CONTINUOUS
 62
     3
 10
163.9999999999996874
 20
45.4000000000000767
 30
0.0000000000000355
 11
163.9999999999996874
 21
54.5000000000000924
 31
0.0000000000000355
  0
LINE
  5
DFA5
  8
0
  6
CONTINUOUS
 62
     3
 10
163.9999999999996874
 20
56.5000000000000782
 30
0.0000000000000355
 11
165.9999999999996874
 21
56.5000000000000782
 31
0.000000000000036
  0
LINE
  5
DFA6
  8
0
  6
CONTINUOUS
 62
     3
 10
165.9999999999996874
 20
65.6000000000000796
 30
0.0000000000000355
 11
163.9999999999996874
 21
65.6000000000000796
 31
0.0000000000000351
  0
LINE
  5
DFA7
  8
0
  6
CONTINUOUS
 62
     3
 10
163.9999999999996874
 20
56.5000000000000924
 30
0.0000000000000355
 11
163.9999999999996874
 21
65.6000000000000796
 31
0.0000000000000355
  0
LINE
  5
DFA8
  8
0
  6
CONTINUOUS
 62
     3
 10
163.9999999999996874
 20
67.6000000000000654
 30
0.0000000000000355
 11
165.9999999999996874
 21
67.6000000000000654
 31
0.000000000000036
  0
LINE
  5
DFA9
  8
0
  6
CONTINUOUS
 62
     3
 10
163.9999999999996874
 20
67.6000000000000654
 30
0.0000000000000355
 11
163.9999999999996874
 21
74.0000000000001137
 31
0.0000000000000355
  0
LINE
  5
DFAA
  8
0
  6
CONTINUOUS
 62
     3
 10
163.9999999999996874
 20
-65.5999999999999375
 30
0.0000000000000355
 11
163.9999999999996874
 21
-56.4999999999999503
 31
0.0000000000000355
  0
LINE
  5
DFAB
  8
0
  6
CONTINUOUS
 62
     3
 10
163.9999999999996874
 20
-54.4999999999999289
 30
0.0000000000000355
 11
163.9999999999996874
 21
-45.3999999999999204
 31
0.0000000000000355
  0
LINE
  5
DFAC
  8
0
  6
CONTINUOUS
 62
     3
 10
163.9999999999996874
 20
-43.3999999999999417
 30
0.0000000000000355
 11
163.9999999999996874
 21
-34.299999999999919
 31
0.0000000000000355
  0
LINE
  5
DFAD
  8
0
  6
CONTINUOUS
 62
     3
 10
163.9999999999996874
 20
-32.299999999999919
 30
0.0000000000000355
 11
163.9999999999996874
 21
-23.1999999999999282
 31
0.0000000000000355
  0
LINE
  5
DFAE
  8
0
  6
CONTINUOUS
 62
     3
 10
163.9999999999996874
 20
-21.1999999999999282
 30
0.0000000000000355
 11
163.9999999999996874
 21
-12.0999999999999002
 31
0.0000000000000355
  0
LINE
  5
DFAF
  8
0
  6
CONTINUOUS
 62
     3
 10
163.9999999999996874
 20
-10.0999999999999197
 30
0.0000000000000355
 11
163.9999999999996874
 21
-0.9999999999999111
 31
0.0000000000000355
  0
LINE
  5
DFB0
  8
0
  6
CONTINUOUS
 62
     3
 10
163.9999999999996874
 20
-65.5999999999999375
 30
0.0000000000000355
 11
165.9999999999996874
 21
-65.5999999999999375
 31
0.000000000000036
  0
LINE
  5
DFB1
  8
0
  6
CONTINUOUS
 62
     3
 10
165.9999999999996874
 20
-56.4999999999999218
 30
0.0000000000000355
 11
163.9999999999996874
 21
-56.4999999999999218
 31
0.0000000000000351
  0
LINE
  5
DFB2
  8
0
  6
CONTINUOUS
 62
     3
 10
163.9999999999996874
 20
-54.4999999999999289
 30
0.0000000000000355
 11
165.9999999999996874
 21
-54.4999999999999289
 31
0.000000000000036
  0
LINE
  5
DFB3
  8
0
  6
CONTINUOUS
 62
     3
 10
165.9999999999996874
 20
-45.3999999999999204
 30
0.0000000000000355
 11
163.9999999999996874
 21
-45.3999999999999204
 31
0.0000000000000351
  0
LINE
  5
DFB4
  8
0
  6
CONTINUOUS
 62
     3
 10
163.9999999999996874
 20
-43.3999999999999417
 30
0.0000000000000355
 11
165.9999999999996874
 21
-43.3999999999999417
 31
0.000000000000036
  0
LINE
  5
DFB5
  8
0
  6
CONTINUOUS
 62
     3
 10
165.9999999999996874
 20
-34.299999999999919
 30
0.0000000000000355
 11
163.9999999999996874
 21
-34.299999999999919
 31
0.0000000000000351
  0
LINE
  5
DFB6
  8
0
  6
CONTINUOUS
 62
     3
 10
163.9999999999996874
 20
-32.2999999999999332
 30
0.0000000000000355
 11
165.9999999999996874
 21
-32.2999999999999332
 31
0.000000000000036
  0
LINE
  5
DFB7
  8
0
  6
CONTINUOUS
 62
     3
 10
165.9999999999996874
 20
-23.1999999999999282
 30
0.0000000000000355
 11
163.9999999999996874
 21
-23.1999999999999282
 31
0.0000000000000351
  0
LINE
  5
DFB8
  8
0
  6
CONTINUOUS
 62
     3
 10
163.9999999999996874
 20
-21.1999999999999282
 30
0.0000000000000355
 11
165.9999999999996874
 21
-21.1999999999999282
 31
0.000000000000036
  0
LINE
  5
DFB9
  8
0
  6
CONTINUOUS
 62
     3
 10
165.9999999999996874
 20
-12.0999999999999197
 30
0.0000000000000355
 11
163.9999999999996874
 21
-12.0999999999999197
 31
0.0000000000000351
  0
LINE
  5
DFBA
  8
0
  6
CONTINUOUS
 62
     3
 10
163.9999999999996874
 20
-10.0999999999999197
 30
0.0000000000000355
 11
165.9999999999996874
 21
-10.0999999999999197
 31
0.000000000000036
  0
ARC
  5
DFBB
  8
0
  6
VERDECKT
 62
     1
 10
140.0000000000003979
 20
-50.0000000000003695
 30
0.000000000000032
 40
5.0000000000004983
 50
66.9260819343688382
 51
113.0739180656312044
  0
ARC
  5
DFBC
  8
0
  6
VERDECKT
 62
     1
 10
140.0000000000003979
 20
-49.9999999999998295
 30
0.000000000000032
 40
4.9999999999999902
 50
244.1580672368357057
 51
295.8419327631643228
  0
CIRCLE
  5
DFBD
  8
0
  6
VERDECKT
 62
     1
 10
140.0000000000003979
 20
-49.9999999999998224
 30
0.000000000000032
 40
10.0
  0
ARC
  5
DFBE
  8
0
  6
VERDECKT
 62
     1
 10
140.0000000000003979
 20
49.999999999999801
 30
0.000000000000032
 40
4.9999999999999414
 50
246.9260819343633102
 51
293.0739180656366898
  0
ARC
  5
DFBF
  8
0
  6
VERDECKT
 62
     1
 10
140.0000000000003979
 20
50.0000000000003268
 30
0.000000000000032
 40
4.9999999999995737
 50
64.1580672368362599
 51
115.8419327631636975
  0
CIRCLE
  5
DFC0
  8
0
  6
VERDECKT
 62
     1
 10
140.0000000000003979
 20
49.9999999999998508
 30
0.000000000000032
 40
10.0
  0
LINE
  5
DFC1
  8
0
  6
VERDECKT
 62
     1
 10
132.999999999999801
 20
-40.0000000000000568
 30
0.0000000000000284
 11
130.9999999999996874
 21
-40.0000000000000568
 31
0.000000000000028
  0
LINE
  5
DFC2
  8
0
  6
VERDECKT
 62
     1
 10
99.9999999999997868
 20
-40.0000000000000497
 30
0.0000000000000213
 11
97.9999999999997442
 21
-40.0000000000000497
 31
0.0000000000000209
  0
LINE
  5
DFC3
  8
0
  6
VERDECKT
 62
     1
 10
66.9999999999998153
 20
-40.0000000000000284
 30
0.0000000000000142
 11
64.9999999999997868
 21
-40.0000000000000284
 31
0.0000000000000138
  0
LINE
  5
DFC4
  8
0
  6
VERDECKT
 62
     1
 10
33.9999999999998295
 20
-40.0000000000000213
 30
0.0000000000000071
 11
31.9999999999997904
 21
-40.0000000000000213
 31
0.0000000000000067
  0
LINE
  5
DFC5
  8
0
  6
VERDECKT
 62
     1
 10
0.9999999999997841
 20
-40.0
 30
0.0
 11
-1.000000000000244
 21
-40.0
 31
-0.0000000000000004
  0
LINE
  5
DFC6
  8
0
  6
VERDECKT
 62
     1
 10
-32.0000000000002203
 20
-40.0
 30
-0.0000000000000071
 11
-34.0000000000002203
 21
-40.0
 31
-0.0000000000000075
  0
LINE
  5
DFC7
  8
0
  6
VERDECKT
 62
     1
 10
-65.0000000000002416
 20
-39.9999999999999929
 30
-0.0000000000000142
 11
-67.0000000000002416
 21
-39.9999999999999929
 31
-0.0000000000000147
  0
LINE
  5
DFC8
  8
0
  6
VERDECKT
 62
     1
 10
-98.0000000000002558
 20
-39.9999999999999716
 30
-0.0000000000000213
 11
-100.0000000000000995
 21
-39.9999999999999716
 31
-0.0000000000000218
  0
LINE
  5
DFC9
  8
0
  6
VERDECKT
 62
     1
 10
-131.000000000000199
 20
-39.9999999999999574
 30
-0.0000000000000284
 11
-133.000000000000199
 21
-39.9999999999999574
 31
-0.0000000000000289
  0
LINE
  5
DFCA
  8
0
  6
VERDECKT
 62
     1
 10
-133.000000000000199
 20
40.0000000000000568
 30
-0.0000000000000284
 11
-131.000000000000199
 21
40.0000000000000568
 31
-0.000000000000028
  0
LINE
  5
DFCB
  8
0
  6
VERDECKT
 62
     1
 10
-100.000000000000199
 20
40.0000000000000426
 30
-0.0000000000000213
 11
-98.0000000000002132
 21
40.0000000000000426
 31
-0.0000000000000209
  0
LINE
  5
DFCC
  8
0
  6
VERDECKT
 62
     1
 10
-67.0000000000002416
 20
40.0000000000000071
 30
-0.0000000000000142
 11
-65.0000000000002274
 21
40.0000000000000071
 31
-0.0000000000000138
  0
LINE
  5
DFCD
  8
0
  6
VERDECKT
 62
     1
 10
-34.0000000000002274
 20
40.0000000000000071
 30
-0.0000000000000071
 11
-32.0000000000002274
 21
40.0000000000000071
 31
-0.0000000000000067
  0
LINE
  5
DFCE
  8
0
  6
VERDECKT
 62
     1
 10
-1.0000000000002189
 20
40.0
 30
0.0
 11
0.9999999999998085
 21
40.0
 31
0.0000000000000004
  0
LINE
  5
DFCF
  8
0
  6
VERDECKT
 62
     1
 10
31.9999999999997797
 20
39.9999999999999929
 30
0.0000000000000071
 11
33.9999999999998082
 21
39.9999999999999929
 31
0.0000000000000075
  0
LINE
  5
DFD0
  8
0
  6
VERDECKT
 62
     1
 10
64.9999999999997868
 20
39.9999999999999929
 30
0.0000000000000142
 11
66.9999999999998153
 21
39.9999999999999929
 31
0.0000000000000147
  0
LINE
  5
DFD1
  8
0
  6
VERDECKT
 62
     1
 10
97.9999999999997158
 20
39.9999999999999716
 30
0.0000000000000213
 11
99.9999999999997868
 21
39.9999999999999716
 31
0.0000000000000218
  0
LINE
  5
DFD2
  8
0
  6
VERDECKT
 62
     1
 10
130.999999999999801
 20
39.9999999999999503
 30
0.0000000000000284
 11
132.999999999999801
 21
39.9999999999999503
 31
0.0000000000000289
  0
ARC
  5
DFD3
  8
0
  6
VERDECKT
 62
     1
 10
-164.0000000000003979
 20
-38.9999999999999574
 30
-0.0000000000000355
 40
1.0
 50
179.9999999999996021
 51
270.0000000000001137
  0
LINE
  5
DFD4
  8
0
  6
VERDECKT
 62
     1
 10
-165.0000000000003979
 20
-38.9999999999999503
 30
-0.0000000000000355
 11
-165.0000000000003979
 21
39.0000000000000568
 31
-0.0000000000000355
  0
ARC
  5
DFD5
  8
0
  6
VERDECKT
 62
     1
 10
-164.0000000000003979
 20
39.0000000000000568
 30
-0.0000000000000355
 40
1.0
 50
90.0
 51
180.0
  0
ARC
  5
DFD6
  8
0
  6
VERDECKT
 62
     1
 10
163.9999999999994884
 20
-39.0000000000000711
 30
0.0000000000000355
 40
0.9999999999999857
 50
270.0
 51
0.0000000000006107
  0
ARC
  5
DFD7
  8
0
  6
VERDECKT
 62
     1
 10
163.9999999999996021
 20
38.9999999999999574
 30
0.0000000000000355
 40
0.9999999999999715
 50
0.0000000000000175
 51
90.0000000000024585
  0
LINE
  5
DFD8
  8
0
  6
VERDECKT
 62
     1
 10
164.9999999999996021
 20
38.9999999999999503
 30
0.0000000000000355
 11
164.9999999999994884
 21
-39.0000000000000568
 31
0.0000000000000355
  0
ARC
  5
DFD9
  8
0
  6
VERDECKT
 62
     1
 10
-140.0000000000003979
 20
-49.9999999999998295
 30
-0.0000000000000284
 40
5.9999999999998863
 50
50.0554948101854293
 51
90.0000000000002558
  0
ARC
  5
DFDA
  8
0
  6
VERDECKT
 62
     1
 10
-140.0000000000003979
 20
-49.9999999999999005
 30
-0.0000000000000284
 40
6.0000000000000302
 50
228.5903778907288029
 51
311.4096221092711971
  0
ARC
  5
DFDB
  8
0
  6
VERDECKT
 62
     1
 10
-140.0000000000003979
 20
-50.0000000000000568
 30
-0.0000000000000284
 40
6.000000000000111
 50
90.0000000000002558
 51
129.9445051898140946
  0
ARC
  5
DFDC
  8
0
  6
VERDECKT
 62
     1
 10
-140.0000000000003126
 20
50.0000000000002416
 30
-0.0000000000000284
 40
5.9999999999998153
 50
48.5903778907294921
 51
90.0000000000004832
  0
ARC
  5
DFDD
  8
0
  6
VERDECKT
 62
     1
 10
-140.0000000000003979
 20
50.0000000000000568
 30
-0.0000000000000284
 40
6.0000000000000213
 50
230.0554948101843991
 51
309.9445051898155725
  0
ARC
  5
DFDE
  8
0
  6
VERDECKT
 62
     1
 10
-140.0000000000003126
 20
49.9999999999999218
 30
-0.0000000000000284
 40
6.0000000000001483
 50
90.0000000000005542
 51
131.4096221092698045
  0
ARC
  5
DFDF
  8
0
  6
VERDECKT
 62
     1
 10
139.9999999999994884
 20
-49.9999999999999076
 30
0.0000000000000284
 40
5.9999999999998677
 50
50.0554948101863388
 51
90.0000000000002558
  0
ARC
  5
DFE0
  8
0
  6
VERDECKT
 62
     1
 10
139.9999999999994884
 20
-50.0
 30
0.0000000000000284
 40
6.0000000000000222
 50
228.5903778907280071
 51
311.4096221092718793
  0
ARC
  5
DFE1
  8
0
  6
VERDECKT
 62
     1
 10
139.9999999999994884
 20
-50.0000000000000568
 30
0.0000000000000284
 40
6.0000000000000266
 50
89.9999999999999858
 51
129.9445051898134125
  0
ARC
  5
DFE2
  8
0
  6
VERDECKT
 62
     1
 10
139.9999999999994884
 20
49.9999999999999432
 30
0.000000000000032
 40
6.0000000000000142
 50
48.5903778907315029
 51
89.9999999999999858
  0
ARC
  5
DFE3
  8
0
  6
VERDECKT
 62
     1
 10
139.9999999999994884
 20
49.9999999999999574
 30
0.000000000000032
 40
5.9999999999999991
 50
230.0554948101832053
 51
309.9445051898168799
  0
ARC
  5
DFE4
  8
0
  6
VERDECKT
 62
     1
 10
139.9999999999994884
 20
50.0000000000000284
 30
0.000000000000032
 40
5.9999999999999396
 50
89.9999999999999858
 51
131.4096221092692929
  0
ARC
  5
DFE5
  8
0
  6
VERDECKT
 62
     1
 10
-140.0000000000003979
 20
-50.0000000000003908
 30
-0.000000000000032
 40
5.000000000000524
 50
66.9260819343689661
 51
113.0739180656310054
  0
ARC
  5
DFE6
  8
0
  6
VERDECKT
 62
     1
 10
-140.0000000000003979
 20
-49.9999999999998579
 30
-0.000000000000032
 40
4.9999999999999583
 50
244.1580672368355067
 51
295.8419327631644933
  0
CIRCLE
  5
DFE7
  8
0
  6
VERDECKT
 62
     1
 10
-140.0000000000003979
 20
-49.9999999999998224
 30
-0.000000000000032
 40
10.0
  0
ARC
  5
DFE8
  8
0
  6
VERDECKT
 62
     1
 10
-140.0000000000003979
 20
49.9999999999993605
 30
-0.000000000000032
 40
4.9999999999995568
 50
246.9260819343585922
 51
293.0739180656414078
  0
ARC
  5
DFE9
  8
0
  6
VERDECKT
 62
     1
 10
-140.0000000000003979
 20
50.0000000000003126
 30
-0.000000000000032
 40
4.9999999999995914
 50
64.1580672368363594
 51
115.841932763163598
  0
CIRCLE
  5
DFEA
  8
0
  6
VERDECKT
 62
     1
 10
-140.0000000000003979
 20
49.9999999999998508
 30
-0.000000000000032
 40
10.0
  0
LINE
  5
DFEB
  8
0
  6
VERDECKT
 62
     1
 10
132.999999999999801
 20
-65.5999999999999375
 30
0.0000000000000284
 11
132.999999999999801
 21
-67.5999999999999233
 31
0.0000000000000284
  0
LINE
  5
DFEC
  8
0
  6
VERDECKT
 62
     1
 10
130.999999999999801
 20
-67.5999999999999233
 30
0.0000000000000284
 11
130.999999999999801
 21
-65.5999999999999375
 31
0.0000000000000284
  0
LINE
  5
DFED
  8
0
  6
VERDECKT
 62
     1
 10
132.999999999999801
 20
-54.4999999999999289
 30
0.0000000000000284
 11
132.999999999999801
 21
-56.4999999999999218
 31
0.0000000000000284
  0
LINE
  5
DFEE
  8
0
  6
VERDECKT
 62
     1
 10
130.999999999999801
 20
-56.4999999999999218
 30
0.0000000000000284
 11
130.999999999999801
 21
-54.4999999999999289
 31
0.0000000000000284
  0
LINE
  5
DFEF
  8
0
  6
VERDECKT
 62
     1
 10
132.999999999999801
 20
-43.3999999999999417
 30
0.0000000000000284
 11
132.999999999999801
 21
-45.3999999999999204
 31
0.0000000000000284
  0
LINE
  5
DFF0
  8
0
  6
VERDECKT
 62
     1
 10
130.999999999999801
 20
-45.3999999999999204
 30
0.0000000000000284
 11
130.999999999999801
 21
-43.3999999999999417
 31
0.0000000000000284
  0
LINE
  5
DFF1
  8
0
  6
VERDECKT
 62
     1
 10
132.999999999999801
 20
-32.2999999999999332
 30
0.0000000000000284
 11
132.999999999999801
 21
-34.299999999999919
 31
0.0000000000000284
  0
LINE
  5
DFF2
  8
0
  6
VERDECKT
 62
     1
 10
130.999999999999801
 20
-34.299999999999919
 30
0.0000000000000284
 11
130.999999999999801
 21
-32.2999999999999332
 31
0.0000000000000284
  0
LINE
  5
DFF3
  8
0
  6
VERDECKT
 62
     1
 10
132.999999999999801
 20
-21.1999999999999282
 30
0.0000000000000284
 11
132.999999999999801
 21
-23.1999999999999282
 31
0.0000000000000284
  0
LINE
  5
DFF4
  8
0
  6
VERDECKT
 62
     1
 10
130.999999999999801
 20
-23.1999999999999282
 30
0.0000000000000284
 11
130.999999999999801
 21
-21.1999999999999282
 31
0.0000000000000284
  0
LINE
  5
DFF5
  8
0
  6
VERDECKT
 62
     1
 10
132.999999999999801
 20
-10.0999999999999304
 30
0.0000000000000284
 11
132.999999999999801
 21
-12.0999999999999197
 31
0.0000000000000284
  0
LINE
  5
DFF6
  8
0
  6
VERDECKT
 62
     1
 10
130.999999999999801
 20
-12.0999999999999197
 30
0.0000000000000284
 11
130.999999999999801
 21
-10.0999999999999304
 31
0.0000000000000284
  0
LINE
  5
DFF7
  8
0
  6
VERDECKT
 62
     1
 10
132.999999999999801
 20
12.1000000000000707
 30
0.0000000000000284
 11
132.999999999999801
 21
10.1000000000000796
 31
0.0000000000000284
  0
LINE
  5
DFF8
  8
0
  6
VERDECKT
 62
     1
 10
130.999999999999801
 20
10.1000000000000796
 30
0.0000000000000284
 11
130.999999999999801
 21
12.1000000000000707
 31
0.0000000000000284
  0
LINE
  5
DFF9
  8
0
  6
VERDECKT
 62
     1
 10
132.999999999999801
 20
23.200000000000081
 30
0.0000000000000284
 11
132.999999999999801
 21
21.2000000000000917
 31
0.0000000000000284
  0
LINE
  5
DFFA
  8
0
  6
VERDECKT
 62
     1
 10
130.999999999999801
 20
21.2000000000000917
 30
0.0000000000000284
 11
130.999999999999801
 21
23.200000000000081
 31
0.0000000000000284
  0
LINE
  5
DFFB
  8
0
  6
VERDECKT
 62
     1
 10
132.999999999999801
 20
34.3000000000000895
 30
0.0000000000000284
 11
132.999999999999801
 21
32.3000000000000682
 31
0.0000000000000284
  0
LINE
  5
DFFC
  8
0
  6
VERDECKT
 62
     1
 10
130.999999999999801
 20
32.3000000000000682
 30
0.0000000000000284
 11
130.999999999999801
 21
34.3000000000000895
 31
0.0000000000000284
  0
LINE
  5
DFFD
  8
0
  6
VERDECKT
 62
     1
 10
132.999999999999801
 20
45.4000000000000767
 30
0.0000000000000284
 11
132.999999999999801
 21
43.4000000000000696
 31
0.0000000000000284
  0
LINE
  5
DFFE
  8
0
  6
VERDECKT
 62
     1
 10
130.999999999999801
 20
43.4000000000000696
 30
0.0000000000000284
 11
130.999999999999801
 21
45.4000000000000767
 31
0.0000000000000284
  0
LINE
  5
DFFF
  8
0
  6
VERDECKT
 62
     1
 10
132.999999999999801
 20
56.5000000000000782
 30
0.0000000000000284
 11
132.999999999999801
 21
54.5000000000000924
 31
0.0000000000000284
  0
LINE
  5
E000
  8
0
  6
VERDECKT
 62
     1
 10
130.999999999999801
 20
54.5000000000000924
 30
0.0000000000000284
 11
130.999999999999801
 21
56.5000000000000782
 31
0.0000000000000284
  0
LINE
  5
E001
  8
0
  6
VERDECKT
 62
     1
 10
132.999999999999801
 20
67.6000000000000654
 30
0.0000000000000284
 11
132.999999999999801
 21
65.6000000000000654
 31
0.0000000000000284
  0
LINE
  5
E002
  8
0
  6
VERDECKT
 62
     1
 10
130.999999999999801
 20
65.6000000000000654
 30
0.0000000000000284
 11
130.999999999999801
 21
67.6000000000000654
 31
0.0000000000000284
  0
LINE
  5
E003
  8
0
  6
VERDECKT
 62
     1
 10
130.999999999999801
 20
-0.9999999999999227
 30
0.0000000000000284
 11
130.999999999999801
 21
1.000000000000077
 31
0.0000000000000284
  0
LINE
  5
E004
  8
0
  6
VERDECKT
 62
     1
 10
132.999999999999801
 20
1.000000000000077
 30
0.0000000000000284
 11
132.999999999999801
 21
-0.9999999999999227
 31
0.0000000000000284
  0
LINE
  5
E005
  8
0
  6
VERDECKT
 62
     1
 10
0.9999999999997744
 20
-65.5999999999999233
 30
0.0
 11
0.9999999999997742
 21
-67.5999999999998948
 31
0.0
  0
LINE
  5
E006
  8
0
  6
VERDECKT
 62
     1
 10
-1.000000000000218
 20
-67.5999999999998948
 30
0.0
 11
-1.000000000000218
 21
-65.5999999999999233
 31
0.0
  0
LINE
  5
E007
  8
0
  6
VERDECKT
 62
     1
 10
0.9999999999997751
 20
-54.4999999999999289
 30
0.0
 11
0.9999999999997748
 21
-56.4999999999999076
 31
0.0
  0
LINE
  5
E008
  8
0
  6
VERDECKT
 62
     1
 10
-1.000000000000218
 20
-56.4999999999999076
 30
0.0
 11
-1.0000000000002169
 21
-54.4999999999999289
 31
0.0
  0
LINE
  5
E009
  8
0
  6
VERDECKT
 62
     1
 10
0.9999999999997758
 20
-43.3999999999999275
 30
0.0
 11
0.9999999999997756
 21
-45.3999999999999204
 31
0.0
  0
LINE
  5
E00A
  8
0
  6
VERDECKT
 62
     1
 10
-1.0000000000002169
 20
-45.3999999999999204
 30
0.0
 11
-1.000000000000216
 21
-43.3999999999999275
 31
0.0
  0
LINE
  5
E00B
  8
0
  6
VERDECKT
 62
     1
 10
0.9999999999997763
 20
-32.299999999999919
 30
0.0
 11
0.9999999999997763
 21
-34.2999999999999119
 31
0.0
  0
LINE
  5
E00C
  8
0
  6
VERDECKT
 62
     1
 10
-1.000000000000216
 20
-34.2999999999999119
 30
0.0
 11
-1.000000000000216
 21
-32.299999999999919
 31
0.0
  0
LINE
  5
E00D
  8
0
  6
VERDECKT
 62
     1
 10
0.999999999999777
 20
-21.1999999999999282
 30
0.0
 11
0.9999999999997768
 21
-23.1999999999999211
 31
0.0
  0
LINE
  5
E00E
  8
0
  6
VERDECKT
 62
     1
 10
-1.0000000000002149
 20
-23.1999999999999211
 30
0.0
 11
-1.0000000000002149
 21
-21.1999999999999282
 31
0.0
  0
LINE
  5
E00F
  8
0
  6
VERDECKT
 62
     1
 10
0.9999999999997777
 20
-10.0999999999999197
 30
0.0
 11
0.9999999999997776
 21
-12.0999999999999108
 31
0.0
  0
LINE
  5
E010
  8
0
  6
VERDECKT
 62
     1
 10
-1.0000000000002149
 20
-12.0999999999999108
 30
0.0
 11
-1.0000000000002149
 21
-10.0999999999999197
 31
0.0
  0
LINE
  5
E011
  8
0
  6
VERDECKT
 62
     1
 10
0.9999999999997793
 20
12.1000000000000796
 30
0.0
 11
0.9999999999997791
 21
10.1000000000000902
 31
0.0
  0
LINE
  5
E012
  8
0
  6
VERDECKT
 62
     1
 10
-1.0000000000002129
 20
10.1000000000000902
 30
0.0
 11
-1.0000000000002129
 21
12.1000000000000796
 31
0.0
  0
LINE
  5
E013
  8
0
  6
VERDECKT
 62
     1
 10
0.9999999999997797
 20
23.2000000000000917
 30
0.0
 11
0.9999999999997795
 21
21.2000000000000917
 31
0.0
  0
LINE
  5
E014
  8
0
  6
VERDECKT
 62
     1
 10
-1.0000000000002129
 20
21.2000000000000917
 30
0.0
 11
-1.0000000000002121
 21
23.2000000000000917
 31
0.0
  0
LINE
  5
E015
  8
0
  6
VERDECKT
 62
     1
 10
0.9999999999997806
 20
34.3000000000000895
 30
0.0
 11
0.9999999999997804
 21
32.3000000000000824
 31
0.0
  0
LINE
  5
E016
  8
0
  6
VERDECKT
 62
     1
 10
-1.0000000000002121
 20
32.3000000000000824
 30
0.0
 11
-1.0000000000002121
 21
34.3000000000000895
 31
0.0
  0
LINE
  5
E017
  8
0
  6
VERDECKT
 62
     1
 10
0.9999999999997811
 20
45.4000000000000767
 30
0.0
 11
0.999999999999781
 21
43.4000000000000767
 31
0.0
  0
LINE
  5
E018
  8
0
  6
VERDECKT
 62
     1
 10
-1.0000000000002109
 20
43.4000000000000767
 30
0.0
 11
-1.0000000000002109
 21
45.4000000000000767
 31
0.0
  0
LINE
  5
E019
  8
0
  6
VERDECKT
 62
     1
 10
0.9999999999997818
 20
56.5000000000000924
 30
0.0
 11
0.9999999999997818
 21
54.5000000000000924
 31
0.0
  0
LINE
  5
E01A
  8
0
  6
VERDECKT
 62
     1
 10
-1.0000000000002109
 20
54.5000000000000924
 30
0.0
 11
-1.0000000000002101
 21
56.5000000000000924
 31
0.0
  0
LINE
  5
E01B
  8
0
  6
VERDECKT
 62
     1
 10
0.9999999999997825
 20
67.6000000000000796
 30
0.0
 11
0.9999999999997825
 21
65.6000000000000796
 31
0.0
  0
LINE
  5
E01C
  8
0
  6
VERDECKT
 62
     1
 10
-1.0000000000002101
 20
65.6000000000000796
 30
0.0
 11
-1.0000000000002101
 21
67.6000000000000796
 31
0.0
  0
LINE
  5
E01D
  8
0
  6
VERDECKT
 62
     1
 10
-1.0000000000002141
 20
-0.9999999999999145
 30
0.0
 11
-1.0000000000002141
 21
1.000000000000085
 31
0.0
  0
LINE
  5
E01E
  8
0
  6
VERDECKT
 62
     1
 10
0.9999999999997783
 20
1.000000000000085
 30
0.0
 11
0.9999999999997783
 21
-0.9999999999999147
 31
0.0
  0
LINE
  5
E01F
  8
0
  6
VERDECKT
 62
     1
 10
66.9999999999998153
 20
67.6000000000000796
 30
0.0000000000000142
 11
66.9999999999998153
 21
65.6000000000000796
 31
0.0000000000000142
  0
LINE
  5
E020
  8
0
  6
VERDECKT
 62
     1
 10
66.9999999999998153
 20
56.5000000000000782
 30
0.0000000000000142
 11
66.9999999999998153
 21
54.5000000000000924
 31
0.0000000000000142
  0
LINE
  5
E021
  8
0
  6
VERDECKT
 62
     1
 10
66.9999999999998153
 20
45.4000000000000767
 30
0.0000000000000142
 11
66.9999999999998153
 21
43.4000000000000696
 31
0.0000000000000142
  0
LINE
  5
E022
  8
0
  6
VERDECKT
 62
     1
 10
66.9999999999998153
 20
34.3000000000000895
 30
0.0000000000000142
 11
66.9999999999998153
 21
32.3000000000000682
 31
0.0000000000000142
  0
LINE
  5
E023
  8
0
  6
VERDECKT
 62
     1
 10
66.9999999999998153
 20
23.2000000000000917
 30
0.0000000000000142
 11
66.9999999999998153
 21
21.2000000000000917
 31
0.0000000000000142
  0
LINE
  5
E024
  8
0
  6
VERDECKT
 62
     1
 10
66.9999999999998153
 20
12.1000000000000796
 30
0.0000000000000142
 11
66.9999999999998153
 21
10.1000000000000902
 31
0.0000000000000142
  0
LINE
  5
E025
  8
0
  6
VERDECKT
 62
     1
 10
66.9999999999998153
 20
1.000000000000081
 30
0.0000000000000142
 11
66.9999999999998153
 21
-0.9999999999999186
 31
0.0000000000000142
  0
LINE
  5
E026
  8
0
  6
VERDECKT
 62
     1
 10
66.9999999999998153
 20
-10.0999999999999197
 30
0.0000000000000142
 11
66.9999999999998153
 21
-12.0999999999999197
 31
0.0000000000000142
  0
LINE
  5
E027
  8
0
  6
VERDECKT
 62
     1
 10
66.9999999999998153
 20
-21.1999999999999282
 30
0.0000000000000142
 11
66.9999999999998153
 21
-23.1999999999999211
 31
0.0000000000000142
  0
LINE
  5
E028
  8
0
  6
VERDECKT
 62
     1
 10
66.9999999999998153
 20
-32.2999999999999332
 30
0.0000000000000142
 11
66.9999999999998153
 21
-34.299999999999919
 31
0.0000000000000142
  0
LINE
  5
E029
  8
0
  6
VERDECKT
 62
     1
 10
66.9999999999998153
 20
-43.3999999999999417
 30
0.0000000000000142
 11
66.9999999999998153
 21
-45.3999999999999204
 31
0.0000000000000142
  0
LINE
  5
E02A
  8
0
  6
VERDECKT
 62
     1
 10
66.9999999999998153
 20
-54.4999999999999289
 30
0.0000000000000142
 11
66.9999999999998153
 21
-56.4999999999999218
 31
0.0000000000000142
  0
LINE
  5
E02B
  8
0
  6
VERDECKT
 62
     1
 10
66.9999999999998153
 20
-65.5999999999999233
 30
0.0000000000000142
 11
66.9999999999998153
 21
-67.5999999999998948
 31
0.0000000000000142
  0
LINE
  5
E02C
  8
0
  6
VERDECKT
 62
     1
 10
64.9999999999997868
 20
-0.9999999999999186
 30
0.0000000000000142
 11
64.9999999999997868
 21
1.000000000000081
 31
0.0000000000000142
  0
LINE
  5
E02D
  8
0
  6
VERDECKT
 62
     1
 10
64.9999999999997868
 20
-67.5999999999998948
 30
0.0000000000000142
 11
64.9999999999997868
 21
-65.5999999999999233
 31
0.0000000000000142
  0
LINE
  5
E02E
  8
0
  6
VERDECKT
 62
     1
 10
64.9999999999997868
 20
-56.4999999999999218
 30
0.0000000000000142
 11
64.9999999999997868
 21
-54.4999999999999289
 31
0.0000000000000142
  0
LINE
  5
E02F
  8
0
  6
VERDECKT
 62
     1
 10
64.9999999999997868
 20
-45.3999999999999204
 30
0.0000000000000142
 11
64.9999999999997868
 21
-43.3999999999999417
 31
0.0000000000000142
  0
LINE
  5
E030
  8
0
  6
VERDECKT
 62
     1
 10
64.9999999999997868
 20
-34.299999999999919
 30
0.0000000000000142
 11
64.9999999999997868
 21
-32.2999999999999332
 31
0.0000000000000142
  0
LINE
  5
E031
  8
0
  6
VERDECKT
 62
     1
 10
64.9999999999997868
 20
-23.1999999999999211
 30
0.0000000000000142
 11
64.9999999999997868
 21
-21.1999999999999282
 31
0.0000000000000142
  0
LINE
  5
E032
  8
0
  6
VERDECKT
 62
     1
 10
64.9999999999997868
 20
-12.0999999999999197
 30
0.0000000000000142
 11
64.9999999999997868
 21
-10.0999999999999197
 31
0.0000000000000142
  0
LINE
  5
E033
  8
0
  6
VERDECKT
 62
     1
 10
64.9999999999997868
 20
10.1000000000000902
 30
0.0000000000000142
 11
64.9999999999997868
 21
12.1000000000000796
 31
0.0000000000000142
  0
LINE
  5
E034
  8
0
  6
VERDECKT
 62
     1
 10
64.9999999999997868
 20
21.2000000000000917
 30
0.0000000000000142
 11
64.9999999999997868
 21
23.2000000000000917
 31
0.0000000000000142
  0
LINE
  5
E035
  8
0
  6
VERDECKT
 62
     1
 10
64.9999999999997868
 20
32.3000000000000682
 30
0.0000000000000142
 11
64.9999999999997868
 21
34.3000000000000895
 31
0.0000000000000142
  0
LINE
  5
E036
  8
0
  6
VERDECKT
 62
     1
 10
64.9999999999997868
 20
43.4000000000000696
 30
0.0000000000000142
 11
64.9999999999997868
 21
45.4000000000000767
 31
0.0000000000000142
  0
LINE
  5
E037
  8
0
  6
VERDECKT
 62
     1
 10
64.9999999999997868
 20
54.5000000000000924
 30
0.0000000000000142
 11
64.9999999999997868
 21
56.5000000000000782
 31
0.0000000000000142
  0
LINE
  5
E038
  8
0
  6
VERDECKT
 62
     1
 10
64.9999999999997868
 20
65.6000000000000796
 30
0.0000000000000142
 11
64.9999999999997868
 21
67.6000000000000796
 31
0.0000000000000142
  0
LINE
  5
E039
  8
0
  6
VERDECKT
 62
     1
 10
-98.0000000000002132
 20
-65.5999999999999233
 30
-0.0000000000000213
 11
-98.0000000000002132
 21
-67.5999999999998948
 31
-0.0000000000000213
  0
LINE
  5
E03A
  8
0
  6
VERDECKT
 62
     1
 10
-100.000000000000199
 20
-67.5999999999998948
 30
-0.0000000000000213
 11
-100.000000000000199
 21
-65.5999999999999233
 31
-0.0000000000000213
  0
LINE
  5
E03B
  8
0
  6
VERDECKT
 62
     1
 10
-98.0000000000002132
 20
-54.4999999999999218
 30
-0.0000000000000213
 11
-98.0000000000002132
 21
-56.4999999999999076
 31
-0.0000000000000213
  0
LINE
  5
E03C
  8
0
  6
VERDECKT
 62
     1
 10
-100.000000000000199
 20
-56.4999999999999076
 30
-0.0000000000000213
 11
-100.000000000000199
 21
-54.4999999999999218
 31
-0.0000000000000213
  0
LINE
  5
E03D
  8
0
  6
VERDECKT
 62
     1
 10
-98.0000000000002132
 20
-43.3999999999999204
 30
-0.0000000000000213
 11
-98.0000000000002132
 21
-45.3999999999999133
 31
-0.0000000000000213
  0
LINE
  5
E03E
  8
0
  6
VERDECKT
 62
     1
 10
-100.000000000000199
 20
-45.3999999999999133
 30
-0.0000000000000213
 11
-100.000000000000199
 21
-43.3999999999999204
 31
-0.0000000000000213
  0
LINE
  5
E03F
  8
0
  6
VERDECKT
 62
     1
 10
-98.0000000000002132
 20
-32.2999999999999119
 30
-0.0000000000000213
 11
-98.0000000000002132
 21
-34.2999999999999119
 31
-0.0000000000000213
  0
LINE
  5
E040
  8
0
  6
VERDECKT
 62
     1
 10
-100.000000000000199
 20
-34.2999999999999119
 30
-0.0000000000000213
 11
-100.000000000000199
 21
-32.2999999999999119
 31
-0.0000000000000213
  0
LINE
  5
E041
  8
0
  6
VERDECKT
 62
     1
 10
-98.0000000000002132
 20
-21.1999999999999211
 30
-0.0000000000000213
 11
-98.0000000000002132
 21
-23.1999999999999105
 31
-0.0000000000000213
  0
LINE
  5
E042
  8
0
  6
VERDECKT
 62
     1
 10
-100.000000000000199
 20
-23.1999999999999105
 30
-0.0000000000000213
 11
-100.000000000000199
 21
-21.1999999999999211
 31
-0.0000000000000213
  0
LINE
  5
E043
  8
0
  6
VERDECKT
 62
     1
 10
-98.0000000000002132
 20
-10.0999999999999108
 30
-0.0000000000000213
 11
-98.0000000000002132
 21
-12.0999999999999108
 31
-0.0000000000000213
  0
LINE
  5
E044
  8
0
  6
VERDECKT
 62
     1
 10
-100.000000000000199
 20
-12.0999999999999108
 30
-0.0000000000000213
 11
-100.000000000000199
 21
-10.0999999999999108
 31
-0.0000000000000213
  0
LINE
  5
E045
  8
0
  6
VERDECKT
 62
     1
 10
-98.0000000000002132
 20
12.1000000000000902
 30
-0.0000000000000213
 11
-98.0000000000002132
 21
10.1000000000000991
 31
-0.0000000000000213
  0
LINE
  5
E046
  8
0
  6
VERDECKT
 62
     1
 10
-100.000000000000199
 20
10.1000000000000991
 30
-0.0000000000000213
 11
-100.000000000000199
 21
12.1000000000000902
 31
-0.0000000000000213
  0
LINE
  5
E047
  8
0
  6
VERDECKT
 62
     1
 10
-98.0000000000002132
 20
23.2000000000000988
 30
-0.0000000000000213
 11
-98.0000000000002132
 21
21.2000000000000988
 31
-0.0000000000000213
  0
LINE
  5
E048
  8
0
  6
VERDECKT
 62
     1
 10
-100.000000000000199
 20
21.2000000000000988
 30
-0.0000000000000213
 11
-100.000000000000199
 21
23.2000000000000988
 31
-0.0000000000000213
  0
LINE
  5
E049
  8
0
  6
VERDECKT
 62
     1
 10
-98.0000000000002132
 20
34.3000000000000966
 30
-0.0000000000000213
 11
-98.0000000000002132
 21
32.3000000000000895
 31
-0.0000000000000213
  0
LINE
  5
E04A
  8
0
  6
VERDECKT
 62
     1
 10
-100.000000000000199
 20
32.3000000000000895
 30
-0.0000000000000213
 11
-100.000000000000199
 21
34.3000000000000966
 31
-0.0000000000000213
  0
LINE
  5
E04B
  8
0
  6
VERDECKT
 62
     1
 10
-98.0000000000002132
 20
45.4000000000000909
 30
-0.0000000000000213
 11
-98.0000000000002132
 21
43.4000000000000909
 31
-0.0000000000000213
  0
LINE
  5
E04C
  8
0
  6
VERDECKT
 62
     1
 10
-100.000000000000199
 20
43.4000000000000909
 30
-0.0000000000000213
 11
-100.000000000000199
 21
45.4000000000000909
 31
-0.0000000000000213
  0
LINE
  5
E04D
  8
0
  6
VERDECKT
 62
     1
 10
-98.0000000000002132
 20
56.5000000000000924
 30
-0.0000000000000213
 11
-98.0000000000002132
 21
54.5000000000000995
 31
-0.0000000000000213
  0
LINE
  5
E04E
  8
0
  6
VERDECKT
 62
     1
 10
-100.000000000000199
 20
54.5000000000000995
 30
-0.0000000000000213
 11
-100.000000000000199
 21
56.5000000000000924
 31
-0.0000000000000213
  0
LINE
  5
E04F
  8
0
  6
VERDECKT
 62
     1
 10
-98.0000000000002132
 20
67.6000000000000796
 30
-0.0000000000000213
 11
-98.0000000000002132
 21
65.6000000000000796
 31
-0.0000000000000213
  0
LINE
  5
E050
  8
0
  6
VERDECKT
 62
     1
 10
-100.000000000000199
 20
65.6000000000000796
 30
-0.0000000000000213
 11
-100.000000000000199
 21
67.6000000000000796
 31
-0.0000000000000213
  0
LINE
  5
E051
  8
0
  6
VERDECKT
 62
     1
 10
-100.000000000000199
 20
-0.9999999999999086
 30
-0.0000000000000213
 11
-100.000000000000199
 21
1.000000000000091
 31
-0.0000000000000213
  0
LINE
  5
E052
  8
0
  6
VERDECKT
 62
     1
 10
-98.0000000000002132
 20
1.000000000000091
 30
-0.0000000000000213
 11
-98.0000000000002132
 21
-0.9999999999999086
 31
-0.0000000000000213
  0
LINE
  5
E053
  8
0
  6
VERDECKT
 62
     1
 10
-65.0000000000002274
 20
67.6000000000000796
 30
-0.0000000000000142
 11
-65.0000000000002274
 21
65.6000000000000796
 31
-0.0000000000000142
  0
LINE
  5
E054
  8
0
  6
VERDECKT
 62
     1
 10
-65.0000000000002274
 20
56.5000000000000924
 30
-0.0000000000000142
 11
-65.0000000000002274
 21
54.5000000000000995
 31
-0.0000000000000142
  0
LINE
  5
E055
  8
0
  6
VERDECKT
 62
     1
 10
-65.0000000000002274
 20
45.4000000000000909
 30
-0.0000000000000142
 11
-65.0000000000002274
 21
43.4000000000000909
 31
-0.0000000000000142
  0
LINE
  5
E056
  8
0
  6
VERDECKT
 62
     1
 10
-65.0000000000002274
 20
34.3000000000000966
 30
-0.0000000000000142
 11
-65.0000000000002274
 21
32.3000000000000895
 31
-0.0000000000000142
  0
LINE
  5
E057
  8
0
  6
VERDECKT
 62
     1
 10
-65.0000000000002274
 20
23.2000000000000917
 30
-0.0000000000000142
 11
-65.0000000000002274
 21
21.2000000000000988
 31
-0.0000000000000142
  0
LINE
  5
E058
  8
0
  6
VERDECKT
 62
     1
 10
-65.0000000000002274
 20
12.1000000000000902
 30
-0.0000000000000142
 11
-65.0000000000002274
 21
10.1000000000000902
 31
-0.0000000000000142
  0
LINE
  5
E059
  8
0
  6
VERDECKT
 62
     1
 10
-65.0000000000002274
 20
1.000000000000089
 30
-0.0000000000000142
 11
-65.0000000000002274
 21
-0.9999999999999108
 31
-0.0000000000000142
  0
LINE
  5
E05A
  8
0
  6
VERDECKT
 62
     1
 10
-65.0000000000002274
 20
-10.0999999999999197
 30
-0.0000000000000142
 11
-65.0000000000002274
 21
-12.0999999999999108
 31
-0.0000000000000142
  0
LINE
  5
E05B
  8
0
  6
VERDECKT
 62
     1
 10
-65.0000000000002274
 20
-21.1999999999999211
 30
-0.0000000000000142
 11
-65.0000000000002274
 21
-23.1999999999999105
 31
-0.0000000000000142
  0
LINE
  5
E05C
  8
0
  6
VERDECKT
 62
     1
 10
-65.0000000000002274
 20
-32.2999999999999119
 30
-0.0000000000000142
 11
-65.0000000000002274
 21
-34.2999999999999119
 31
-0.0000000000000142
  0
LINE
  5
E05D
  8
0
  6
VERDECKT
 62
     1
 10
-65.0000000000002274
 20
-43.3999999999999204
 30
-0.0000000000000142
 11
-65.0000000000002274
 21
-45.3999999999999133
 31
-0.0000000000000142
  0
LINE
  5
E05E
  8
0
  6
VERDECKT
 62
     1
 10
-65.0000000000002274
 20
-54.4999999999999218
 30
-0.0000000000000142
 11
-65.0000000000002274
 21
-56.4999999999999076
 31
-0.0000000000000142
  0
LINE
  5
E05F
  8
0
  6
VERDECKT
 62
     1
 10
-65.0000000000002274
 20
-65.5999999999999233
 30
-0.0000000000000142
 11
-65.0000000000002274
 21
-67.5999999999998948
 31
-0.0000000000000142
  0
LINE
  5
E060
  8
0
  6
VERDECKT
 62
     1
 10
-67.0000000000002274
 20
-0.9999999999999106
 30
-0.0000000000000142
 11
-67.0000000000002274
 21
1.000000000000089
 31
-0.0000000000000142
  0
LINE
  5
E061
  8
0
  6
VERDECKT
 62
     1
 10
-67.0000000000002274
 20
-67.5999999999998948
 30
-0.0000000000000142
 11
-67.0000000000002274
 21
-65.5999999999999233
 31
-0.0000000000000142
  0
LINE
  5
E062
  8
0
  6
VERDECKT
 62
     1
 10
-67.0000000000002274
 20
-56.4999999999999076
 30
-0.0000000000000142
 11
-67.0000000000002274
 21
-54.4999999999999218
 31
-0.0000000000000142
  0
LINE
  5
E063
  8
0
  6
VERDECKT
 62
     1
 10
-67.0000000000002274
 20
-45.3999999999999133
 30
-0.0000000000000142
 11
-67.0000000000002274
 21
-43.3999999999999204
 31
-0.0000000000000142
  0
LINE
  5
E064
  8
0
  6
VERDECKT
 62
     1
 10
-67.0000000000002274
 20
-34.2999999999999119
 30
-0.0000000000000142
 11
-67.0000000000002274
 21
-32.2999999999999119
 31
-0.0000000000000142
  0
LINE
  5
E065
  8
0
  6
VERDECKT
 62
     1
 10
-67.0000000000002274
 20
-23.1999999999999105
 30
-0.0000000000000142
 11
-67.0000000000002274
 21
-21.1999999999999211
 31
-0.0000000000000142
  0
LINE
  5
E066
  8
0
  6
VERDECKT
 62
     1
 10
-67.0000000000002274
 20
-12.0999999999999108
 30
-0.0000000000000142
 11
-67.0000000000002274
 21
-10.0999999999999197
 31
-0.0000000000000142
  0
LINE
  5
E067
  8
0
  6
VERDECKT
 62
     1
 10
-67.0000000000002274
 20
10.1000000000000902
 30
-0.0000000000000142
 11
-67.0000000000002274
 21
12.1000000000000902
 31
-0.0000000000000142
  0
LINE
  5
E068
  8
0
  6
VERDECKT
 62
     1
 10
-67.0000000000002274
 20
21.2000000000000988
 30
-0.0000000000000142
 11
-67.0000000000002274
 21
23.2000000000000917
 31
-0.0000000000000142
  0
LINE
  5
E069
  8
0
  6
VERDECKT
 62
     1
 10
-67.0000000000002274
 20
32.3000000000000895
 30
-0.0000000000000142
 11
-67.0000000000002274
 21
34.3000000000000966
 31
-0.0000000000000142
  0
LINE
  5
E06A
  8
0
  6
VERDECKT
 62
     1
 10
-67.0000000000002274
 20
43.4000000000000909
 30
-0.0000000000000142
 11
-67.0000000000002274
 21
45.4000000000000909
 31
-0.0000000000000142
  0
LINE
  5
E06B
  8
0
  6
VERDECKT
 62
     1
 10
-67.0000000000002274
 20
54.5000000000000995
 30
-0.0000000000000142
 11
-67.0000000000002274
 21
56.5000000000000924
 31
-0.0000000000000142
  0
LINE
  5
E06C
  8
0
  6
VERDECKT
 62
     1
 10
-67.0000000000002274
 20
65.6000000000000796
 30
-0.0000000000000142
 11
-67.0000000000002274
 21
67.6000000000000796
 31
-0.0000000000000142
  0
LINE
  5
E06D
  8
0
  6
VERDECKT
 62
     1
 10
-131.000000000000199
 20
-65.5999999999999091
 30
-0.0000000000000284
 11
-131.000000000000199
 21
-67.5999999999998948
 31
-0.0000000000000284
  0
LINE
  5
E06E
  8
0
  6
VERDECKT
 62
     1
 10
-133.000000000000199
 20
-67.5999999999998948
 30
-0.0000000000000284
 11
-133.000000000000199
 21
-65.5999999999999091
 31
-0.0000000000000284
  0
LINE
  5
E06F
  8
0
  6
VERDECKT
 62
     1
 10
-131.000000000000199
 20
-54.4999999999999218
 30
-0.0000000000000284
 11
-131.000000000000199
 21
-56.4999999999999076
 31
-0.0000000000000284
  0
LINE
  5
E070
  8
0
  6
VERDECKT
 62
     1
 10
-133.000000000000199
 20
-56.4999999999999076
 30
-0.0000000000000284
 11
-133.000000000000199
 21
-54.4999999999999218
 31
-0.0000000000000284
  0
LINE
  5
E071
  8
0
  6
VERDECKT
 62
     1
 10
-131.000000000000199
 20
-43.3999999999999204
 30
-0.0000000000000284
 11
-131.000000000000199
 21
-45.3999999999999133
 31
-0.0000000000000284
  0
LINE
  5
E072
  8
0
  6
VERDECKT
 62
     1
 10
-133.000000000000199
 20
-45.3999999999999133
 30
-0.0000000000000284
 11
-133.000000000000199
 21
-43.3999999999999204
 31
-0.0000000000000284
  0
LINE
  5
E073
  8
0
  6
VERDECKT
 62
     1
 10
-131.000000000000199
 20
-32.2999999999999119
 30
-0.0000000000000284
 11
-131.000000000000199
 21
-34.2999999999999119
 31
-0.0000000000000284
  0
LINE
  5
E074
  8
0
  6
VERDECKT
 62
     1
 10
-133.000000000000199
 20
-34.2999999999999119
 30
-0.0000000000000284
 11
-133.000000000000199
 21
-32.2999999999999119
 31
-0.0000000000000284
  0
LINE
  5
E075
  8
0
  6
VERDECKT
 62
     1
 10
-131.000000000000199
 20
-21.1999999999999211
 30
-0.0000000000000284
 11
-131.000000000000199
 21
-23.1999999999999105
 31
-0.0000000000000284
  0
LINE
  5
E076
  8
0
  6
VERDECKT
 62
     1
 10
-133.000000000000199
 20
-23.1999999999999105
 30
-0.0000000000000284
 11
-133.000000000000199
 21
-21.1999999999999211
 31
-0.0000000000000284
  0
LINE
  5
E077
  8
0
  6
VERDECKT
 62
     1
 10
-131.000000000000199
 20
-10.0999999999999108
 30
-0.0000000000000284
 11
-131.000000000000199
 21
-12.0999999999999002
 31
-0.0000000000000284
  0
LINE
  5
E078
  8
0
  6
VERDECKT
 62
     1
 10
-133.000000000000199
 20
-12.0999999999999002
 30
-0.0000000000000284
 11
-133.000000000000199
 21
-10.0999999999999108
 31
-0.0000000000000284
  0
LINE
  5
E079
  8
0
  6
VERDECKT
 62
     1
 10
-131.000000000000199
 20
12.1000000000000902
 30
-0.0000000000000284
 11
-131.000000000000199
 21
10.1000000000000991
 31
-0.0000000000000284
  0
LINE
  5
E07A
  8
0
  6
VERDECKT
 62
     1
 10
-133.000000000000199
 20
10.1000000000000991
 30
-0.0000000000000284
 11
-133.000000000000199
 21
12.1000000000000902
 31
-0.0000000000000284
  0
LINE
  5
E07B
  8
0
  6
VERDECKT
 62
     1
 10
-131.000000000000199
 20
23.2000000000000988
 30
-0.0000000000000284
 11
-131.000000000000199
 21
21.2000000000000988
 31
-0.0000000000000284
  0
LINE
  5
E07C
  8
0
  6
VERDECKT
 62
     1
 10
-133.000000000000199
 20
21.2000000000000988
 30
-0.0000000000000284
 11
-133.000000000000199
 21
23.2000000000000988
 31
-0.0000000000000284
  0
LINE
  5
E07D
  8
0
  6
VERDECKT
 62
     1
 10
-131.000000000000199
 20
34.3000000000000966
 30
-0.0000000000000284
 11
-131.000000000000199
 21
32.3000000000000895
 31
-0.0000000000000284
  0
LINE
  5
E07E
  8
0
  6
VERDECKT
 62
     1
 10
-133.000000000000199
 20
32.3000000000000895
 30
-0.0000000000000284
 11
-133.000000000000199
 21
34.3000000000000966
 31
-0.0000000000000284
  0
LINE
  5
E07F
  8
0
  6
VERDECKT
 62
     1
 10
-131.000000000000199
 20
45.4000000000000909
 30
-0.0000000000000284
 11
-131.000000000000199
 21
43.4000000000000909
 31
-0.0000000000000284
  0
LINE
  5
E080
  8
0
  6
VERDECKT
 62
     1
 10
-133.000000000000199
 20
43.4000000000000909
 30
-0.0000000000000284
 11
-133.000000000000199
 21
45.4000000000000909
 31
-0.0000000000000284
  0
LINE
  5
E081
  8
0
  6
VERDECKT
 62
     1
 10
-131.000000000000199
 20
56.5000000000000924
 30
-0.0000000000000284
 11
-131.000000000000199
 21
54.5000000000000995
 31
-0.0000000000000284
  0
LINE
  5
E082
  8
0
  6
VERDECKT
 62
     1
 10
-133.000000000000199
 20
54.5000000000000995
 30
-0.0000000000000284
 11
-133.000000000000199
 21
56.5000000000000924
 31
-0.0000000000000284
  0
LINE
  5
E083
  8
0
  6
VERDECKT
 62
     1
 10
-131.000000000000199
 20
67.6000000000000938
 30
-0.0000000000000284
 11
-131.000000000000199
 21
65.6000000000000938
 31
-0.0000000000000284
  0
LINE
  5
E084
  8
0
  6
VERDECKT
 62
     1
 10
-133.000000000000199
 20
65.6000000000000938
 30
-0.0000000000000284
 11
-133.000000000000199
 21
67.6000000000000938
 31
-0.0000000000000284
  0
LINE
  5
E085
  8
0
  6
VERDECKT
 62
     1
 10
-133.000000000000199
 20
-0.9999999999999065
 30
-0.0000000000000284
 11
-133.000000000000199
 21
1.000000000000093
 31
-0.0000000000000284
  0
LINE
  5
E086
  8
0
  6
VERDECKT
 62
     1
 10
-131.000000000000199
 20
1.000000000000093
 30
-0.0000000000000284
 11
-131.000000000000199
 21
-0.9999999999999067
 31
-0.0000000000000284
  0
LINE
  5
E087
  8
0
  6
VERDECKT
 62
     1
 10
-32.0000000000002416
 20
1.000000000000087
 30
-0.0000000000000071
 11
-32.0000000000002416
 21
-0.9999999999999127
 31
-0.0000000000000071
  0
LINE
  5
E088
  8
0
  6
VERDECKT
 62
     1
 10
-34.0000000000002203
 20
-0.9999999999999126
 30
-0.0000000000000071
 11
-34.0000000000002203
 21
1.000000000000087
 31
-0.0000000000000071
  0
LINE
  5
E089
  8
0
  6
VERDECKT
 62
     1
 10
-32.0000000000002274
 20
67.6000000000000796
 30
-0.0000000000000071
 11
-32.0000000000002274
 21
65.6000000000000796
 31
-0.0000000000000071
  0
LINE
  5
E08A
  8
0
  6
VERDECKT
 62
     1
 10
-32.0000000000002416
 20
56.5000000000000924
 30
-0.0000000000000071
 11
-32.0000000000002416
 21
54.5000000000000924
 31
-0.0000000000000071
  0
LINE
  5
E08B
  8
0
  6
VERDECKT
 62
     1
 10
-32.0000000000002416
 20
45.4000000000000767
 30
-0.0000000000000071
 11
-32.0000000000002416
 21
43.4000000000000767
 31
-0.0000000000000071
  0
LINE
  5
E08C
  8
0
  6
VERDECKT
 62
     1
 10
-32.0000000000002416
 20
34.3000000000000895
 30
-0.0000000000000071
 11
-32.0000000000002416
 21
32.3000000000000824
 31
-0.0000000000000071
  0
LINE
  5
E08D
  8
0
  6
VERDECKT
 62
     1
 10
-32.0000000000002416
 20
23.2000000000000917
 30
-0.0000000000000071
 11
-32.0000000000002416
 21
21.2000000000000988
 31
-0.0000000000000071
  0
LINE
  5
E08E
  8
0
  6
VERDECKT
 62
     1
 10
-32.0000000000002416
 20
12.1000000000000902
 30
-0.0000000000000071
 11
-32.0000000000002416
 21
10.1000000000000902
 31
-0.0000000000000071
  0
LINE
  5
E08F
  8
0
  6
VERDECKT
 62
     1
 10
-32.0000000000002416
 20
-10.0999999999999197
 30
-0.0000000000000071
 11
-32.0000000000002416
 21
-12.0999999999999108
 31
-0.0000000000000071
  0
LINE
  5
E090
  8
0
  6
VERDECKT
 62
     1
 10
-32.0000000000002416
 20
-21.1999999999999211
 30
-0.0000000000000071
 11
-32.0000000000002416
 21
-23.1999999999999105
 31
-0.0000000000000071
  0
LINE
  5
E091
  8
0
  6
VERDECKT
 62
     1
 10
-32.0000000000002416
 20
-32.299999999999919
 30
-0.0000000000000071
 11
-32.0000000000002416
 21
-34.2999999999999119
 31
-0.0000000000000071
  0
LINE
  5
E092
  8
0
  6
VERDECKT
 62
     1
 10
-32.0000000000002416
 20
-43.3999999999999275
 30
-0.0000000000000071
 11
-32.0000000000002416
 21
-45.3999999999999204
 31
-0.0000000000000071
  0
LINE
  5
E093
  8
0
  6
VERDECKT
 62
     1
 10
-32.0000000000002416
 20
-54.4999999999999289
 30
-0.0000000000000071
 11
-32.0000000000002416
 21
-56.4999999999999076
 31
-0.0000000000000071
  0
LINE
  5
E094
  8
0
  6
VERDECKT
 62
     1
 10
-32.0000000000002416
 20
-65.5999999999999233
 30
-0.0000000000000071
 11
-32.0000000000002416
 21
-67.5999999999998948
 31
-0.0000000000000071
  0
LINE
  5
E095
  8
0
  6
VERDECKT
 62
     1
 10
-34.0000000000002274
 20
-67.5999999999998948
 30
-0.0000000000000071
 11
-34.0000000000002274
 21
-65.5999999999999233
 31
-0.0000000000000071
  0
LINE
  5
E096
  8
0
  6
VERDECKT
 62
     1
 10
-34.0000000000002203
 20
-56.4999999999999076
 30
-0.0000000000000071
 11
-34.0000000000002203
 21
-54.4999999999999289
 31
-0.0000000000000071
  0
LINE
  5
E097
  8
0
  6
VERDECKT
 62
     1
 10
-34.0000000000002203
 20
-45.3999999999999204
 30
-0.0000000000000071
 11
-34.0000000000002203
 21
-43.3999999999999275
 31
-0.0000000000000071
  0
LINE
  5
E098
  8
0
  6
VERDECKT
 62
     1
 10
-34.0000000000002203
 20
-34.2999999999999119
 30
-0.0000000000000071
 11
-34.0000000000002203
 21
-32.299999999999919
 31
-0.0000000000000071
  0
LINE
  5
E099
  8
0
  6
VERDECKT
 62
     1
 10
-34.0000000000002203
 20
-23.1999999999999105
 30
-0.0000000000000071
 11
-34.0000000000002203
 21
-21.1999999999999211
 31
-0.0000000000000071
  0
LINE
  5
E09A
  8
0
  6
VERDECKT
 62
     1
 10
-34.0000000000002203
 20
-12.0999999999999108
 30
-0.0000000000000071
 11
-34.0000000000002203
 21
-10.0999999999999197
 31
-0.0000000000000071
  0
LINE
  5
E09B
  8
0
  6
VERDECKT
 62
     1
 10
-34.0000000000002203
 20
10.1000000000000902
 30
-0.0000000000000071
 11
-34.0000000000002203
 21
12.1000000000000902
 31
-0.0000000000000071
  0
LINE
  5
E09C
  8
0
  6
VERDECKT
 62
     1
 10
-34.0000000000002203
 20
21.2000000000000988
 30
-0.0000000000000071
 11
-34.0000000000002203
 21
23.2000000000000917
 31
-0.0000000000000071
  0
LINE
  5
E09D
  8
0
  6
VERDECKT
 62
     1
 10
-34.0000000000002203
 20
32.3000000000000824
 30
-0.0000000000000071
 11
-34.0000000000002203
 21
34.3000000000000895
 31
-0.0000000000000071
  0
LINE
  5
E09E
  8
0
  6
VERDECKT
 62
     1
 10
-34.0000000000002203
 20
43.4000000000000767
 30
-0.0000000000000071
 11
-34.0000000000002203
 21
45.4000000000000767
 31
-0.0000000000000071
  0
LINE
  5
E09F
  8
0
  6
VERDECKT
 62
     1
 10
-34.0000000000002203
 20
54.5000000000000924
 30
-0.0000000000000071
 11
-34.0000000000002203
 21
56.5000000000000924
 31
-0.0000000000000071
  0
LINE
  5
E0A0
  8
0
  6
VERDECKT
 62
     1
 10
-34.0000000000002203
 20
65.6000000000000796
 30
-0.0000000000000071
 11
-34.0000000000002203
 21
67.6000000000000796
 31
-0.0000000000000071
  0
LINE
  5
E0A1
  8
0
  6
VERDECKT
 62
     1
 10
99.9999999999997868
 20
-65.5999999999999233
 30
0.0000000000000213
 11
99.9999999999997868
 21
-67.5999999999998948
 31
0.0000000000000213
  0
LINE
  5
E0A2
  8
0
  6
VERDECKT
 62
     1
 10
97.9999999999997442
 20
-67.5999999999998948
 30
0.0000000000000213
 11
97.9999999999997442
 21
-65.5999999999999233
 31
0.0000000000000213
  0
LINE
  5
E0A3
  8
0
  6
VERDECKT
 62
     1
 10
99.9999999999997868
 20
-54.4999999999999289
 30
0.0000000000000213
 11
99.9999999999997868
 21
-56.4999999999999218
 31
0.0000000000000213
  0
LINE
  5
E0A4
  8
0
  6
VERDECKT
 62
     1
 10
97.9999999999997442
 20
-56.4999999999999218
 30
0.0000000000000213
 11
97.9999999999997442
 21
-54.4999999999999289
 31
0.0000000000000213
  0
LINE
  5
E0A5
  8
0
  6
VERDECKT
 62
     1
 10
99.9999999999997868
 20
-43.3999999999999417
 30
0.0000000000000213
 11
99.9999999999997868
 21
-45.3999999999999204
 31
0.0000000000000213
  0
LINE
  5
E0A6
  8
0
  6
VERDECKT
 62
     1
 10
97.9999999999997442
 20
-45.3999999999999204
 30
0.0000000000000213
 11
97.9999999999997442
 21
-43.3999999999999417
 31
0.0000000000000213
  0
LINE
  5
E0A7
  8
0
  6
VERDECKT
 62
     1
 10
99.9999999999997868
 20
-32.2999999999999332
 30
0.0000000000000213
 11
99.9999999999997868
 21
-34.299999999999919
 31
0.0000000000000213
  0
LINE
  5
E0A8
  8
0
  6
VERDECKT
 62
     1
 10
97.9999999999997442
 20
-34.299999999999919
 30
0.0000000000000213
 11
97.9999999999997442
 21
-32.2999999999999332
 31
0.0000000000000213
  0
LINE
  5
E0A9
  8
0
  6
VERDECKT
 62
     1
 10
99.9999999999997868
 20
-21.1999999999999282
 30
0.0000000000000213
 11
99.9999999999997868
 21
-23.1999999999999282
 31
0.0000000000000213
  0
LINE
  5
E0AA
  8
0
  6
VERDECKT
 62
     1
 10
97.9999999999997442
 20
-23.1999999999999282
 30
0.0000000000000213
 11
97.9999999999997442
 21
-21.1999999999999282
 31
0.0000000000000213
  0
LINE
  5
E0AB
  8
0
  6
VERDECKT
 62
     1
 10
99.9999999999997868
 20
-10.0999999999999197
 30
0.0000000000000213
 11
99.9999999999997868
 21
-12.0999999999999197
 31
0.0000000000000213
  0
LINE
  5
E0AC
  8
0
  6
VERDECKT
 62
     1
 10
97.9999999999997442
 20
-12.0999999999999197
 30
0.0000000000000213
 11
97.9999999999997442
 21
-10.0999999999999197
 31
0.0000000000000213
  0
LINE
  5
E0AD
  8
0
  6
VERDECKT
 62
     1
 10
99.9999999999997868
 20
12.1000000000000796
 30
0.0000000000000213
 11
99.9999999999997868
 21
10.1000000000000796
 31
0.0000000000000213
  0
LINE
  5
E0AE
  8
0
  6
VERDECKT
 62
     1
 10
97.9999999999997442
 20
10.1000000000000796
 30
0.0000000000000213
 11
97.9999999999997442
 21
12.1000000000000796
 31
0.0000000000000213
  0
LINE
  5
E0AF
  8
0
  6
VERDECKT
 62
     1
 10
99.9999999999997868
 20
23.200000000000081
 30
0.0000000000000213
 11
99.9999999999997868
 21
21.2000000000000917
 31
0.0000000000000213
  0
LINE
  5
E0B0
  8
0
  6
VERDECKT
 62
     1
 10
97.9999999999997442
 20
21.2000000000000917
 30
0.0000000000000213
 11
97.9999999999997442
 21
23.200000000000081
 31
0.0000000000000213
  0
LINE
  5
E0B1
  8
0
  6
VERDECKT
 62
     1
 10
99.9999999999997868
 20
34.3000000000000895
 30
0.0000000000000213
 11
99.9999999999997868
 21
32.3000000000000682
 31
0.0000000000000213
  0
LINE
  5
E0B2
  8
0
  6
VERDECKT
 62
     1
 10
97.9999999999997442
 20
32.3000000000000682
 30
0.0000000000000213
 11
97.9999999999997442
 21
34.3000000000000895
 31
0.0000000000000213
  0
LINE
  5
E0B3
  8
0
  6
VERDECKT
 62
     1
 10
99.9999999999997868
 20
45.4000000000000767
 30
0.0000000000000213
 11
99.9999999999997868
 21
43.4000000000000696
 31
0.0000000000000213
  0
LINE
  5
E0B4
  8
0
  6
VERDECKT
 62
     1
 10
97.9999999999997442
 20
43.4000000000000696
 30
0.0000000000000213
 11
97.9999999999997442
 21
45.4000000000000767
 31
0.0000000000000213
  0
LINE
  5
E0B5
  8
0
  6
VERDECKT
 62
     1
 10
99.9999999999997868
 20
56.5000000000000782
 30
0.0000000000000213
 11
99.9999999999997868
 21
54.5000000000000924
 31
0.0000000000000213
  0
LINE
  5
E0B6
  8
0
  6
VERDECKT
 62
     1
 10
97.9999999999997442
 20
54.5000000000000924
 30
0.0000000000000213
 11
97.9999999999997442
 21
56.5000000000000782
 31
0.0000000000000213
  0
LINE
  5
E0B7
  8
0
  6
VERDECKT
 62
     1
 10
99.9999999999997868
 20
67.6000000000000796
 30
0.0000000000000213
 11
99.9999999999997868
 21
65.6000000000000796
 31
0.0000000000000213
  0
LINE
  5
E0B8
  8
0
  6
VERDECKT
 62
     1
 10
97.9999999999997442
 20
65.6000000000000796
 30
0.0000000000000213
 11
97.9999999999997442
 21
67.6000000000000796
 31
0.0000000000000213
  0
LINE
  5
E0B9
  8
0
  6
VERDECKT
 62
     1
 10
97.9999999999997442
 20
-0.9999999999999207
 30
0.0000000000000213
 11
97.9999999999997442
 21
1.000000000000079
 31
0.0000000000000213
  0
LINE
  5
E0BA
  8
0
  6
VERDECKT
 62
     1
 10
99.9999999999997868
 20
1.000000000000079
 30
0.0000000000000213
 11
99.9999999999997868
 21
-0.999999999999921
 31
0.0000000000000213
  0
LINE
  5
E0BB
  8
0
  6
VERDECKT
 62
     1
 10
33.9999999999998082
 20
67.6000000000000796
 30
0.0000000000000071
 11
33.9999999999998082
 21
65.6000000000000796
 31
0.0000000000000071
  0
LINE
  5
E0BC
  8
0
  6
VERDECKT
 62
     1
 10
33.999999999999801
 20
56.5000000000000924
 30
0.0000000000000071
 11
33.999999999999801
 21
54.5000000000000924
 31
0.0000000000000071
  0
LINE
  5
E0BD
  8
0
  6
VERDECKT
 62
     1
 10
33.999999999999801
 20
45.4000000000000767
 30
0.0000000000000071
 11
33.999999999999801
 21
43.4000000000000767
 31
0.0000000000000071
  0
LINE
  5
E0BE
  8
0
  6
VERDECKT
 62
     1
 10
33.999999999999801
 20
34.3000000000000895
 30
0.0000000000000071
 11
33.999999999999801
 21
32.3000000000000824
 31
0.0000000000000071
  0
LINE
  5
E0BF
  8
0
  6
VERDECKT
 62
     1
 10
33.999999999999801
 20
23.2000000000000917
 30
0.0000000000000071
 11
33.999999999999801
 21
21.2000000000000917
 31
0.0000000000000071
  0
LINE
  5
E0C0
  8
0
  6
VERDECKT
 62
     1
 10
33.999999999999801
 20
12.1000000000000796
 30
0.0000000000000071
 11
33.999999999999801
 21
10.1000000000000902
 31
0.0000000000000071
  0
LINE
  5
E0C1
  8
0
  6
VERDECKT
 62
     1
 10
33.999999999999801
 20
1.000000000000083
 30
0.0000000000000071
 11
33.999999999999801
 21
-0.9999999999999168
 31
0.0000000000000071
  0
LINE
  5
E0C2
  8
0
  6
VERDECKT
 62
     1
 10
33.999999999999801
 20
-10.0999999999999197
 30
0.0000000000000071
 11
33.999999999999801
 21
-12.0999999999999108
 31
0.0000000000000071
  0
LINE
  5
E0C3
  8
0
  6
VERDECKT
 62
     1
 10
33.999999999999801
 20
-21.1999999999999282
 30
0.0000000000000071
 11
33.999999999999801
 21
-23.1999999999999211
 31
0.0000000000000071
  0
LINE
  5
E0C4
  8
0
  6
VERDECKT
 62
     1
 10
33.999999999999801
 20
-32.299999999999919
 30
0.0000000000000071
 11
33.999999999999801
 21
-34.2999999999999119
 31
0.0000000000000071
  0
LINE
  5
E0C5
  8
0
  6
VERDECKT
 62
     1
 10
33.999999999999801
 20
-43.3999999999999275
 30
0.0000000000000071
 11
33.999999999999801
 21
-45.3999999999999204
 31
0.0000000000000071
  0
LINE
  5
E0C6
  8
0
  6
VERDECKT
 62
     1
 10
33.999999999999801
 20
-54.4999999999999289
 30
0.0000000000000071
 11
33.999999999999801
 21
-56.4999999999999076
 31
0.0000000000000071
  0
LINE
  5
E0C7
  8
0
  6
VERDECKT
 62
     1
 10
33.9999999999997868
 20
-65.5999999999999233
 30
0.0000000000000071
 11
33.9999999999997868
 21
-67.5999999999998948
 31
0.0000000000000071
  0
LINE
  5
E0C8
  8
0
  6
VERDECKT
 62
     1
 10
31.9999999999997797
 20
-0.9999999999999166
 30
0.0000000000000071
 11
31.9999999999997797
 21
1.000000000000083
 31
0.0000000000000071
  0
LINE
  5
E0C9
  8
0
  6
VERDECKT
 62
     1
 10
31.9999999999997691
 20
-67.5999999999998948
 30
0.0000000000000071
 11
31.9999999999997691
 21
-65.5999999999999233
 31
0.0000000000000071
  0
LINE
  5
E0CA
  8
0
  6
VERDECKT
 62
     1
 10
31.9999999999997691
 20
-56.4999999999999076
 30
0.0000000000000071
 11
31.9999999999997691
 21
-54.4999999999999289
 31
0.0000000000000071
  0
LINE
  5
E0CB
  8
0
  6
VERDECKT
 62
     1
 10
31.9999999999997691
 20
-45.3999999999999204
 30
0.0000000000000071
 11
31.9999999999997691
 21
-43.3999999999999275
 31
0.0000000000000071
  0
LINE
  5
E0CC
  8
0
  6
VERDECKT
 62
     1
 10
31.9999999999997691
 20
-34.2999999999999119
 30
0.0000000000000071
 11
31.9999999999997691
 21
-32.299999999999919
 31
0.0000000000000071
  0
LINE
  5
E0CD
  8
0
  6
VERDECKT
 62
     1
 10
31.9999999999997797
 20
-23.1999999999999211
 30
0.0000000000000071
 11
31.9999999999997797
 21
-21.1999999999999282
 31
0.0000000000000071
  0
LINE
  5
E0CE
  8
0
  6
VERDECKT
 62
     1
 10
31.9999999999997797
 20
-12.0999999999999108
 30
0.0000000000000071
 11
31.9999999999997797
 21
-10.0999999999999197
 31
0.0000000000000071
  0
LINE
  5
E0CF
  8
0
  6
VERDECKT
 62
     1
 10
31.9999999999997797
 20
10.1000000000000902
 30
0.0000000000000071
 11
31.9999999999997797
 21
12.1000000000000796
 31
0.0000000000000071
  0
LINE
  5
E0D0
  8
0
  6
VERDECKT
 62
     1
 10
31.9999999999997797
 20
21.2000000000000917
 30
0.0000000000000071
 11
31.9999999999997797
 21
23.2000000000000917
 31
0.0000000000000071
  0
LINE
  5
E0D1
  8
0
  6
VERDECKT
 62
     1
 10
31.9999999999997797
 20
32.3000000000000824
 30
0.0000000000000071
 11
31.9999999999997797
 21
34.3000000000000895
 31
0.0000000000000071
  0
LINE
  5
E0D2
  8
0
  6
VERDECKT
 62
     1
 10
31.9999999999997797
 20
43.4000000000000767
 30
0.0000000000000071
 11
31.9999999999997797
 21
45.4000000000000767
 31
0.0000000000000071
  0
LINE
  5
E0D3
  8
0
  6
VERDECKT
 62
     1
 10
31.9999999999997797
 20
54.5000000000000924
 30
0.0000000000000071
 11
31.9999999999997797
 21
56.5000000000000924
 31
0.0000000000000071
  0
LINE
  5
E0D4
  8
0
  6
VERDECKT
 62
     1
 10
31.9999999999997797
 20
65.6000000000000796
 30
0.0000000000000071
 11
31.9999999999997797
 21
67.6000000000000796
 31
0.0000000000000071
  0
LINE
  5
E0D5
  8
0
  6
VERDECKT
 62
     1
 10
-164.000000000000199
 20
-65.5999999999999091
 30
-0.0000000000000355
 11
-164.000000000000199
 21
-67.5999999999998948
 31
-0.0000000000000355
  0
LINE
  5
E0D6
  8
0
  6
VERDECKT
 62
     1
 10
-166.000000000000199
 20
-67.5999999999998948
 30
-0.0000000000000355
 11
-166.000000000000199
 21
-65.5999999999999091
 31
-0.0000000000000355
  0
LINE
  5
E0D7
  8
0
  6
VERDECKT
 62
     1
 10
-164.000000000000199
 20
-54.4999999999999218
 30
-0.0000000000000355
 11
-164.000000000000199
 21
-56.4999999999999076
 31
-0.0000000000000355
  0
LINE
  5
E0D8
  8
0
  6
VERDECKT
 62
     1
 10
-166.000000000000199
 20
-56.4999999999999076
 30
-0.0000000000000355
 11
-166.000000000000199
 21
-54.4999999999999218
 31
-0.0000000000000355
  0
LINE
  5
E0D9
  8
0
  6
VERDECKT
 62
     1
 10
-164.000000000000199
 20
-43.3999999999999204
 30
-0.0000000000000355
 11
-164.000000000000199
 21
-45.3999999999999133
 31
-0.0000000000000355
  0
LINE
  5
E0DA
  8
0
  6
VERDECKT
 62
     1
 10
-166.000000000000199
 20
-45.3999999999999133
 30
-0.0000000000000355
 11
-166.000000000000199
 21
-43.3999999999999204
 31
-0.0000000000000355
  0
LINE
  5
E0DB
  8
0
  6
VERDECKT
 62
     1
 10
-164.000000000000199
 20
-32.2999999999999119
 30
-0.0000000000000355
 11
-164.000000000000199
 21
-34.2999999999999119
 31
-0.0000000000000355
  0
LINE
  5
E0DC
  8
0
  6
VERDECKT
 62
     1
 10
-166.000000000000199
 20
-34.2999999999999119
 30
-0.0000000000000355
 11
-166.000000000000199
 21
-32.2999999999999119
 31
-0.0000000000000355
  0
LINE
  5
E0DD
  8
0
  6
VERDECKT
 62
     1
 10
-164.000000000000199
 20
-21.1999999999999211
 30
-0.0000000000000355
 11
-164.000000000000199
 21
-23.1999999999999105
 31
-0.0000000000000355
  0
LINE
  5
E0DE
  8
0
  6
VERDECKT
 62
     1
 10
-166.000000000000199
 20
-23.1999999999999105
 30
-0.0000000000000355
 11
-166.000000000000199
 21
-21.1999999999999211
 31
-0.0000000000000355
  0
LINE
  5
E0DF
  8
0
  6
VERDECKT
 62
     1
 10
-164.000000000000199
 20
-10.0999999999999108
 30
-0.0000000000000355
 11
-164.000000000000199
 21
-12.0999999999999002
 31
-0.0000000000000355
  0
LINE
  5
E0E0
  8
0
  6
VERDECKT
 62
     1
 10
-166.000000000000199
 20
-12.0999999999999002
 30
-0.0000000000000355
 11
-166.000000000000199
 21
-10.0999999999999108
 31
-0.0000000000000355
  0
LINE
  5
E0E1
  8
0
  6
VERDECKT
 62
     1
 10
-164.000000000000199
 20
12.1000000000000902
 30
-0.0000000000000355
 11
-164.000000000000199
 21
10.1000000000000991
 31
-0.0000000000000355
  0
LINE
  5
E0E2
  8
0
  6
VERDECKT
 62
     1
 10
-166.000000000000199
 20
10.1000000000000991
 30
-0.0000000000000355
 11
-166.000000000000199
 21
12.1000000000000902
 31
-0.0000000000000355
  0
LINE
  5
E0E3
  8
0
  6
VERDECKT
 62
     1
 10
-164.000000000000199
 20
23.2000000000000988
 30
-0.0000000000000355
 11
-164.000000000000199
 21
21.2000000000001094
 31
-0.0000000000000355
  0
LINE
  5
E0E4
  8
0
  6
VERDECKT
 62
     1
 10
-166.000000000000199
 20
21.2000000000001094
 30
-0.0000000000000355
 11
-166.000000000000199
 21
23.2000000000000988
 31
-0.0000000000000355
  0
LINE
  5
E0E5
  8
0
  6
VERDECKT
 62
     1
 10
-164.000000000000199
 20
34.3000000000000966
 30
-0.0000000000000355
 11
-164.000000000000199
 21
32.3000000000000895
 31
-0.0000000000000355
  0
LINE
  5
E0E6
  8
0
  6
VERDECKT
 62
     1
 10
-166.000000000000199
 20
32.3000000000000895
 30
-0.0000000000000355
 11
-166.000000000000199
 21
34.3000000000000966
 31
-0.0000000000000355
  0
LINE
  5
E0E7
  8
0
  6
VERDECKT
 62
     1
 10
-164.000000000000199
 20
45.4000000000000909
 30
-0.0000000000000355
 11
-164.000000000000199
 21
43.4000000000000909
 31
-0.0000000000000355
  0
LINE
  5
E0E8
  8
0
  6
VERDECKT
 62
     1
 10
-166.000000000000199
 20
43.4000000000000909
 30
-0.0000000000000355
 11
-166.000000000000199
 21
45.4000000000000909
 31
-0.0000000000000355
  0
LINE
  5
E0E9
  8
0
  6
VERDECKT
 62
     1
 10
-164.000000000000199
 20
56.5000000000000924
 30
-0.0000000000000355
 11
-164.000000000000199
 21
54.5000000000000995
 31
-0.0000000000000355
  0
LINE
  5
E0EA
  8
0
  6
VERDECKT
 62
     1
 10
-166.000000000000199
 20
54.5000000000000995
 30
-0.0000000000000355
 11
-166.000000000000199
 21
56.5000000000000924
 31
-0.0000000000000355
  0
LINE
  5
E0EB
  8
0
  6
VERDECKT
 62
     1
 10
-164.000000000000199
 20
67.6000000000000938
 30
-0.0000000000000355
 11
-164.000000000000199
 21
65.6000000000000938
 31
-0.0000000000000355
  0
LINE
  5
E0EC
  8
0
  6
VERDECKT
 62
     1
 10
-166.000000000000199
 20
65.6000000000000938
 30
-0.0000000000000355
 11
-166.000000000000199
 21
67.6000000000000938
 31
-0.0000000000000355
  0
LINE
  5
E0ED
  8
0
  6
VERDECKT
 62
     1
 10
-166.000000000000199
 20
-0.9999999999999044
 30
-0.0000000000000355
 11
-166.000000000000199
 21
1.000000000000095
 31
-0.0000000000000355
  0
LINE
  5
E0EE
  8
0
  6
VERDECKT
 62
     1
 10
-164.000000000000199
 20
1.000000000000095
 30
-0.0000000000000355
 11
-164.000000000000199
 21
-0.9999999999999047
 31
-0.0000000000000355
  0
LINE
  5
E0EF
  8
0
  6
VERDECKT
 62
     1
 10
165.9999999999996874
 20
67.6000000000000654
 30
0.0000000000000355
 11
165.9999999999996874
 21
65.6000000000000654
 31
0.0000000000000355
  0
LINE
  5
E0F0
  8
0
  6
VERDECKT
 62
     1
 10
165.9999999999996874
 20
56.5000000000000782
 30
0.0000000000000355
 11
165.9999999999996874
 21
54.5000000000000924
 31
0.0000000000000355
  0
LINE
  5
E0F1
  8
0
  6
VERDECKT
 62
     1
 10
165.9999999999996874
 20
45.4000000000000767
 30
0.0000000000000355
 11
165.9999999999996874
 21
43.4000000000000696
 31
0.0000000000000355
  0
LINE
  5
E0F2
  8
0
  6
VERDECKT
 62
     1
 10
165.9999999999996874
 20
34.3000000000000895
 30
0.0000000000000355
 11
165.9999999999996874
 21
32.3000000000000682
 31
0.0000000000000355
  0
LINE
  5
E0F3
  8
0
  6
VERDECKT
 62
     1
 10
165.9999999999996874
 20
23.200000000000081
 30
0.0000000000000355
 11
165.9999999999996874
 21
21.200000000000081
 31
0.0000000000000355
  0
LINE
  5
E0F4
  8
0
  6
VERDECKT
 62
     1
 10
165.9999999999996874
 20
12.1000000000000707
 30
0.0000000000000355
 11
165.9999999999996874
 21
10.1000000000000796
 31
0.0000000000000355
  0
LINE
  5
E0F5
  8
0
  6
VERDECKT
 62
     1
 10
165.9999999999996874
 20
1.0000000000000751
 30
0.0000000000000355
 11
165.9999999999996874
 21
-0.9999999999999249
 31
0.0000000000000355
  0
LINE
  5
E0F6
  8
0
  6
VERDECKT
 62
     1
 10
165.9999999999996874
 20
-10.0999999999999304
 30
0.0000000000000355
 11
165.9999999999996874
 21
-12.0999999999999197
 31
0.0000000000000355
  0
LINE
  5
E0F7
  8
0
  6
VERDECKT
 62
     1
 10
165.9999999999996874
 20
-21.1999999999999282
 30
0.0000000000000355
 11
165.9999999999996874
 21
-23.1999999999999282
 31
0.0000000000000355
  0
LINE
  5
E0F8
  8
0
  6
VERDECKT
 62
     1
 10
165.9999999999996874
 20
-32.2999999999999332
 30
0.0000000000000355
 11
165.9999999999996874
 21
-34.299999999999919
 31
0.0000000000000355
  0
LINE
  5
E0F9
  8
0
  6
VERDECKT
 62
     1
 10
165.9999999999996874
 20
-43.3999999999999417
 30
0.0000000000000355
 11
165.9999999999996874
 21
-45.3999999999999204
 31
0.0000000000000355
  0
LINE
  5
E0FA
  8
0
  6
VERDECKT
 62
     1
 10
165.9999999999996874
 20
-54.4999999999999289
 30
0.0000000000000355
 11
165.9999999999996874
 21
-56.4999999999999218
 31
0.0000000000000355
  0
LINE
  5
E0FB
  8
0
  6
VERDECKT
 62
     1
 10
165.9999999999996874
 20
-65.5999999999999375
 30
0.0000000000000355
 11
165.9999999999996874
 21
-67.5999999999999233
 31
0.0000000000000355
  0
LINE
  5
E0FC
  8
0
  6
VERDECKT
 62
     1
 10
163.9999999999996874
 20
-0.9999999999999246
 30
0.0000000000000355
 11
163.9999999999996874
 21
1.0000000000000751
 31
0.0000000000000355
  0
LINE
  5
E0FD
  8
0
  6
VERDECKT
 62
     1
 10
163.9999999999996874
 20
-67.5999999999999233
 30
0.0000000000000355
 11
163.9999999999996874
 21
-65.5999999999999375
 31
0.0000000000000355
  0
LINE
  5
E0FE
  8
0
  6
VERDECKT
 62
     1
 10
163.9999999999996874
 20
-56.4999999999999218
 30
0.0000000000000355
 11
163.9999999999996874
 21
-54.4999999999999289
 31
0.0000000000000355
  0
LINE
  5
E0FF
  8
0
  6
VERDECKT
 62
     1
 10
163.9999999999996874
 20
-45.3999999999999204
 30
0.0000000000000355
 11
163.9999999999996874
 21
-43.3999999999999417
 31
0.0000000000000355
  0
LINE
  5
E100
  8
0
  6
VERDECKT
 62
     1
 10
163.9999999999996874
 20
-34.299999999999919
 30
0.0000000000000355
 11
163.9999999999996874
 21
-32.2999999999999332
 31
0.0000000000000355
  0
LINE
  5
E101
  8
0
  6
VERDECKT
 62
     1
 10
163.9999999999996874
 20
-23.1999999999999282
 30
0.0000000000000355
 11
163.9999999999996874
 21
-21.1999999999999282
 31
0.0000000000000355
  0
LINE
  5
E102
  8
0
  6
VERDECKT
 62
     1
 10
163.9999999999996874
 20
-12.0999999999999197
 30
0.0000000000000355
 11
163.9999999999996874
 21
-10.0999999999999304
 31
0.0000000000000355
  0
LINE
  5
E103
  8
0
  6
VERDECKT
 62
     1
 10
163.9999999999996874
 20
10.1000000000000796
 30
0.0000000000000355
 11
163.9999999999996874
 21
12.1000000000000707
 31
0.0000000000000355
  0
LINE
  5
E104
  8
0
  6
VERDECKT
 62
     1
 10
163.9999999999996874
 20
21.200000000000081
 30
0.0000000000000355
 11
163.9999999999996874
 21
23.200000000000081
 31
0.0000000000000355
  0
LINE
  5
E105
  8
0
  6
VERDECKT
 62
     1
 10
163.9999999999996874
 20
32.3000000000000682
 30
0.0000000000000355
 11
163.9999999999996874
 21
34.3000000000000895
 31
0.0000000000000355
  0
LINE
  5
E106
  8
0
  6
VERDECKT
 62
     1
 10
163.9999999999996874
 20
43.4000000000000696
 30
0.0000000000000355
 11
163.9999999999996874
 21
45.4000000000000767
 31
0.0000000000000355
  0
LINE
  5
E107
  8
0
  6
VERDECKT
 62
     1
 10
163.9999999999996874
 20
54.5000000000000924
 30
0.0000000000000355
 11
163.9999999999996874
 21
56.5000000000000782
 31
0.0000000000000355
  0
LINE
  5
E108
  8
0
  6
VERDECKT
 62
     1
 10
163.9999999999996874
 20
65.6000000000000654
 30
0.0000000000000355
 11
163.9999999999996874
 21
67.6000000000000654
 31
0.0000000000000355
  0
ENDBLK
  5
E10A
  8
0
  0
BLOCK
  8
0
  2
A$C444D4970
 70
     0
 10
0.0
 20
0.0
 30
0.0
  3
A$C444D4970
  1

  0
LINE
  5
E10E
  8
0
  6
CONTINUOUS
 62
     3
 10
130.0000000000003979
 20
0.0
 30
0.0
 11
150.0000000000003979
 21
0.0
 31
0.0
210
0.0
220
1.0
230
-0.0000000000000002
  0
LINE
  5
E10F
  8
0
  6
CONTINUOUS
 62
     3
 10
150.0000000000003979
 20
30.0000000000000107
 30
-0.0000000000000067
 11
150.0000000000003979
 21
0.0
 31
0.0
210
0.0
220
1.0
230
-0.0000000000000002
  0
LINE
  5
E110
  8
0
  6
CONTINUOUS
 62
     3
 10
130.0000000000003979
 20
30.0000000000000107
 30
-0.0000000000000067
 11
130.0000000000003979
 21
0.0
 31
0.0
210
0.0
220
1.0
230
-0.0000000000000002
  0
LINE
  5
E111
  8
0
  6
CONTINUOUS
 62
     3
 10
199.9999999999990052
 20
52.0000000000000213
 30
-0.0000000000000115
 11
199.9999999999990052
 21
51.0000000000000497
 31
-0.0000000000000113
210
0.0
220
1.0
230
-0.0000000000000002
  0
LINE
  5
E112
  8
0
  6
CONTINUOUS
 62
     3
 10
-199.999999999999801
 20
52.0000000000000284
 30
-0.0000000000000115
 11
-199.0000000000003126
 21
52.0000000000000284
 31
-0.0000000000000115
210
0.0
220
1.0
230
-0.0000000000000002
  0
LINE
  5
E113
  8
0
  6
CONTINUOUS
 62
     3
 10
198.9999999999994884
 20
52.0000000000000213
 30
-0.0000000000000115
 11
199.9999999999990052
 21
52.0000000000000213
 31
-0.0000000000000115
210
0.0
220
1.0
230
-0.0000000000000002
  0
LINE
  5
E114
  8
0
  6
CONTINUOUS
 62
     3
 10
-199.999999999999801
 20
51.0000000000001492
 30
-0.0000000000000113
 11
-199.999999999999801
 21
52.0000000000000426
 31
-0.0000000000000115
210
0.0
220
1.0
230
-0.0000000000000002
  0
ARC
  5
E115
  8
0
  6
CONTINUOUS
 62
     3
 10
-198.9999999999994884
 20
51.0000000000000497
 30
0.0
 40
0.9999999999999928
210
0.0
220
-0.0000000000000002
230
-1.0
 50
90.0
 51
180.0000000000003979
  0
LINE
  5
E116
  8
0
  6
CONTINUOUS
 62
     3
 10
-199.0000000000003126
 20
52.0000000000001634
 30
-0.0000000000000115
 11
198.9999999999994884
 21
52.0000000000000568
 31
-0.0000000000000115
210
0.0
220
1.0
230
-0.0000000000000002
  0
ARC
  5
E117
  8
0
  6
CONTINUOUS
 62
     3
 10
199.0000000000003126
 20
51.0000000000001492
 30
0.0
 40
1.0
210
0.0
220
-0.0000000000000002
230
-1.0
 50
359.9999999999996021
 51
90.0
  0
LINE
  5
E118
  8
0
  6
CONTINUOUS
 62
     3
 10
-200.0000000000003979
 20
34.0000000000000497
 30
-0.0000000000000075
 11
-200.0000000000003979
 21
30.0000000000000284
 31
-0.0000000000000067
210
0.0
220
1.0
230
-0.0000000000000002
  0
LINE
  5
E119
  8
0
  6
CONTINUOUS
 62
     3
 10
199.9999999999994884
 20
30.0000000000000497
 30
-0.0000000000000067
 11
-200.0000000000003126
 21
30.0000000000000497
 31
-0.0000000000000067
210
0.0
220
1.0
230
-0.0000000000000002
  0
LINE
  5
E11A
  8
0
  6
CONTINUOUS
 62
     3
 10
199.9999999999994884
 20
30.0000000000000604
 30
-0.0000000000000067
 11
199.9999999999994884
 21
34.0000000000000497
 31
-0.0000000000000075
210
0.0
220
1.0
230
-0.0000000000000002
  0
LINE
  5
E11B
  8
0
  6
CONTINUOUS
 62
     3
 10
-200.0000000000003979
 20
34.0000000000000497
 30
-0.0000000000000075
 11
-200.0000000000003979
 21
51.0000000000001492
 31
-0.0000000000000113
210
0.0
220
1.0
230
-0.0000000000000002
  0
LINE
  5
E11C
  8
0
  6
CONTINUOUS
 62
     3
 10
199.9999999999994884
 20
51.0000000000000497
 30
-0.0000000000000113
 11
199.9999999999994884
 21
34.0000000000000497
 31
-0.0000000000000075
210
0.0
220
1.0
230
-0.0000000000000002
  0
LINE
  5
E11D
  8
0
  6
CONTINUOUS
 62
     3
 10
-150.0000000000003979
 20
0.0
 30
0.0
 11
-130.0000000000003979
 21
0.0
 31
0.0
210
0.0
220
1.0
230
-0.0000000000000002
  0
LINE
  5
E11E
  8
0
  6
CONTINUOUS
 62
     3
 10
-150.0000000000003979
 20
0.0
 30
0.0
 11
-150.0000000000003979
 21
30.0000000000000107
 31
-0.0000000000000067
210
0.0
220
1.0
230
-0.0000000000000002
  0
LINE
  5
E11F
  8
0
  6
CONTINUOUS
 62
     3
 10
-130.0000000000003979
 20
0.0
 30
0.0
 11
-130.0000000000003979
 21
30.0000000000000107
 31
-0.0000000000000067
210
0.0
220
1.0
230
-0.0000000000000002
  0
LINE
  5
E120
  8
0
  6
VERDECKT
 62
     1
 10
136.000000000000199
 20
19.0
 30
-0.0000000000000042
 11
144.0000000000007105
 21
19.0
 31
-0.0000000000000042
210
0.0
220
1.0
230
-0.0000000000000002
  0
LINE
  5
E121
  8
0
  6
VERDECKT
 62
     1
 10
135.0000000000003979
 20
20.0000000000001208
 30
-0.0000000000000044
 11
145.0000000000003979
 21
20.0000000000001208
 31
-0.0000000000000044
210
0.0
220
1.0
230
-0.0000000000000002
  0
LINE
  5
E122
  8
0
  6
VERDECKT
 62
     1
 10
135.0000000000003979
 20
18.0
 30
-0.000000000000004
 11
145.0000000000003979
 21
18.0
 31
-0.000000000000004
210
0.0
220
1.0
230
-0.0000000000000002
  0
LINE
  5
E123
  8
0
  6
VERDECKT
 62
     1
 10
136.000000000000199
 20
17.0
 30
-0.0000000000000038
 11
144.0000000000007105
 21
17.0
 31
-0.0000000000000038
210
0.0
220
1.0
230
-0.0000000000000002
  0
LINE
  5
E124
  8
0
  6
VERDECKT
 62
     1
 10
135.0000000000003979
 20
16.0
 30
-0.0000000000000036
 11
145.0000000000003979
 21
16.0
 31
-0.0000000000000036
210
0.0
220
1.0
230
-0.0000000000000002
  0
LINE
  5
E125
  8
0
  6
VERDECKT
 62
     1
 10
136.0
 20
15.0
 30
-0.0000000000000033
 11
144.0000000000009095
 21
15.0
 31
-0.0000000000000033
210
0.0
220
1.0
230
-0.0000000000000002
  0
LINE
  5
E126
  8
0
  6
VERDECKT
 62
     1
 10
135.000000000000199
 20
14.0
 30
-0.0000000000000031
 11
145.0000000000007105
 21
14.0
 31
-0.0000000000000031
210
0.0
220
1.0
230
-0.0000000000000002
  0
LINE
  5
E127
  8
0
  6
VERDECKT
 62
     1
 10
136.0
 20
13.0
 30
-0.0000000000000029
 11
144.0000000000009095
 21
13.0
 31
-0.0000000000000029
210
0.0
220
1.0
230
-0.0000000000000002
  0
LINE
  5
E128
  8
0
  6
VERDECKT
 62
     1
 10
135.0000000000003979
 20
12.0
 30
-0.0000000000000027
 11
145.0000000000003979
 21
12.0
 31
-0.0000000000000027
210
0.0
220
1.0
230
-0.0000000000000002
  0
LINE
  5
E129
  8
0
  6
VERDECKT
 62
     1
 10
136.0
 20
11.0
 30
-0.0000000000000024
 11
144.0000000000009095
 21
11.0
 31
-0.0000000000000024
210
0.0
220
1.0
230
-0.0000000000000002
  0
LINE
  5
E12A
  8
0
  6
VERDECKT
 62
     1
 10
135.0000000000003979
 20
10.0
 30
-0.0000000000000022
 11
145.0000000000003979
 21
10.0
 31
-0.0000000000000022
210
0.0
220
1.0
230
-0.0000000000000002
  0
LINE
  5
E12B
  8
0
  6
VERDECKT
 62
     1
 10
136.0
 20
9.0000000000000018
 30
-0.000000000000002
 11
144.0000000000009095
 21
9.0000000000000018
 31
-0.000000000000002
210
0.0
220
1.0
230
-0.0000000000000002
  0
LINE
  5
E12C
  8
0
  6
VERDECKT
 62
     1
 10
135.0000000000003979
 20
8.0000000000000018
 30
-0.0000000000000018
 11
145.0000000000003979
 21
8.0000000000000018
 31
-0.0000000000000018
210
0.0
220
1.0
230
-0.0000000000000002
  0
LINE
  5
E12D
  8
0
  6
VERDECKT
 62
     1
 10
136.0
 20
7.0000000000000009
 30
-0.0000000000000016
 11
144.0000000000009095
 21
7.0000000000000009
 31
-0.0000000000000016
210
0.0
220
1.0
230
-0.0000000000000002
  0
LINE
  5
E12E
  8
0
  6
VERDECKT
 62
     1
 10
135.0000000000003979
 20
6.0000000000000009
 30
-0.0000000000000013
 11
145.0000000000003979
 21
6.0000000000000009
 31
-0.0000000000000013
210
0.0
220
1.0
230
-0.0000000000000002
  0
LINE
  5
E12F
  8
0
  6
VERDECKT
 62
     1
 10
136.0
 20
5.0
 30
-0.0000000000000011
 11
144.0000000000009095
 21
5.0
 31
-0.0000000000000011
210
0.0
220
1.0
230
-0.0000000000000002
  0
LINE
  5
E130
  8
0
  6
VERDECKT
 62
     1
 10
135.000000000000199
 20
4.0
 30
-0.0000000000000009
 11
145.0000000000007105
 21
4.0
 31
-0.0000000000000009
210
0.0
220
1.0
230
-0.0000000000000002
  0
LINE
  5
E131
  8
0
  6
VERDECKT
 62
     1
 10
136.0
 20
3.0
 30
-0.0000000000000007
 11
144.0000000000009095
 21
3.0
 31
-0.0000000000000007
210
0.0
220
1.0
230
-0.0000000000000002
  0
LINE
  5
E132
  8
0
  6
VERDECKT
 62
     1
 10
135.0000000000003979
 20
2.0
 30
-0.0000000000000004
 11
145.0000000000003979
 21
2.0
 31
-0.0000000000000004
210
0.0
220
1.0
230
-0.0000000000000002
  0
LINE
  5
E133
  8
0
  6
VERDECKT
 62
     1
 10
136.0
 20
1.0
 30
-0.0000000000000002
 11
144.0000000000009095
 21
1.0
 31
-0.0000000000000002
210
0.0
220
1.0
230
-0.0000000000000002
  0
LINE
  5
E134
  8
0
  6
VERDECKT
 62
     1
 10
136.000000000000199
 20
29.0000000000000107
 30
-0.0000000000000064
 11
144.0000000000007105
 21
29.0000000000000107
 31
-0.0000000000000064
210
0.0
220
1.0
230
-0.0000000000000002
  0
LINE
  5
E135
  8
0
  6
VERDECKT
 62
     1
 10
135.0000000000003979
 20
28.0000000000000107
 30
-0.0000000000000062
 11
145.0000000000003979
 21
28.0000000000000107
 31
-0.0000000000000062
210
0.0
220
1.0
230
-0.0000000000000002
  0
LINE
  5
E136
  8
0
  6
VERDECKT
 62
     1
 10
136.000000000000199
 20
27.0000000000000107
 30
-0.000000000000006
 11
144.0000000000007105
 21
27.0000000000000107
 31
-0.000000000000006
210
0.0
220
1.0
230
-0.0000000000000002
  0
LINE
  5
E137
  8
0
  6
VERDECKT
 62
     1
 10
135.0000000000003979
 20
26.0000000000000107
 30
-0.0000000000000058
 11
145.0000000000003979
 21
26.0000000000000107
 31
-0.0000000000000058
210
0.0
220
1.0
230
-0.0000000000000002
  0
LINE
  5
E138
  8
0
  6
VERDECKT
 62
     1
 10
136.0
 20
25.0000000000000107
 30
-0.0000000000000056
 11
144.0000000000009095
 21
25.0000000000000107
 31
-0.0000000000000056
210
0.0
220
1.0
230
-0.0000000000000002
  0
LINE
  5
E139
  8
0
  6
VERDECKT
 62
     1
 10
135.000000000000199
 20
24.0000000000000107
 30
-0.0000000000000053
 11
145.0000000000007105
 21
24.0000000000000107
 31
-0.0000000000000053
210
0.0
220
1.0
230
-0.0000000000000002
  0
LINE
  5
E13A
  8
0
  6
VERDECKT
 62
     1
 10
136.0
 20
23.0
 30
-0.0000000000000051
 11
144.0000000000009095
 21
23.0
 31
-0.0000000000000051
210
0.0
220
1.0
230
-0.0000000000000002
  0
LINE
  5
E13B
  8
0
  6
VERDECKT
 62
     1
 10
135.0000000000003979
 20
22.0000000000000107
 30
-0.0000000000000049
 11
145.0000000000003979
 21
22.0000000000000107
 31
-0.0000000000000049
210
0.0
220
1.0
230
-0.0000000000000002
  0
LINE
  5
E13C
  8
0
  6
VERDECKT
 62
     1
 10
136.0
 20
21.0
 30
-0.0000000000000047
 11
144.0000000000009095
 21
21.0
 31
-0.0000000000000047
210
0.0
220
1.0
230
-0.0000000000000002
  0
LINE
  5
E13D
  8
0
  6
VERDECKT
 62
     1
 10
136.0000000000003126
 20
19.0000000000000888
 30
-0.0000000000000042
 11
135.0000000000005116
 21
20.000000000000199
 31
-0.0000000000000044
210
0.0
220
1.0
230
-0.0000000000000002
  0
LINE
  5
E13E
  8
0
  6
VERDECKT
 62
     1
 10
144.0000000000005969
 20
19.0000000000000888
 30
-0.0000000000000042
 11
145.0000000000003126
 21
20.000000000000199
 31
-0.0000000000000044
210
0.0
220
1.0
230
-0.0000000000000002
  0
LINE
  5
E13F
  8
0
  6
VERDECKT
 62
     1
 10
144.0000000000005969
 20
18.9999999999999503
 30
-0.0000000000000042
 11
145.0000000000003979
 21
17.9999999999999396
 31
-0.000000000000004
210
0.0
220
1.0
230
-0.0000000000000002
  0
LINE
  5
E140
  8
0
  6
VERDECKT
 62
     1
 10
136.000000000000199
 20
18.9999999999999503
 30
-0.0000000000000042
 11
135.0000000000005116
 21
17.9999999999999396
 31
-0.000000000000004
210
0.0
220
1.0
230
-0.0000000000000002
  0
LINE
  5
E141
  8
0
  6
VERDECKT
 62
     1
 10
136.000000000000199
 20
17.0000000000000604
 30
-0.0000000000000038
 11
135.0000000000005116
 21
18.0000000000000604
 31
-0.000000000000004
210
0.0
220
1.0
230
-0.0000000000000002
  0
LINE
  5
E142
  8
0
  6
VERDECKT
 62
     1
 10
144.0000000000005969
 20
17.0000000000000604
 30
-0.0000000000000038
 11
145.0000000000003979
 21
18.0000000000000604
 31
-0.000000000000004
210
0.0
220
1.0
230
-0.0000000000000002
  0
LINE
  5
E143
  8
0
  6
VERDECKT
 62
     1
 10
144.0000000000005969
 20
16.9999999999999503
 30
-0.0000000000000038
 11
145.0000000000003979
 21
15.9999999999999503
 31
-0.0000000000000036
210
0.0
220
1.0
230
-0.0000000000000002
  0
LINE
  5
E144
  8
0
  6
VERDECKT
 62
     1
 10
136.000000000000199
 20
16.9999999999999503
 30
-0.0000000000000038
 11
135.0000000000005116
 21
15.9999999999999503
 31
-0.0000000000000036
210
0.0
220
1.0
230
-0.0000000000000002
  0
LINE
  5
E145
  8
0
  6
VERDECKT
 62
     1
 10
136.0
 20
15.0
 30
-0.0000000000000033
 11
135.0000000000003979
 21
16.0
 31
-0.0000000000000036
210
0.0
220
1.0
230
-0.0000000000000002
  0
LINE
  5
E146
  8
0
  6
VERDECKT
 62
     1
 10
144.0000000000009095
 20
15.0
 30
-0.0000000000000033
 11
145.0000000000003979
 21
16.0
 31
-0.0000000000000036
210
0.0
220
1.0
230
-0.0000000000000002
  0
LINE
  5
E147
  8
0
  6
VERDECKT
 62
     1
 10
144.0000000000009095
 20
15.0000000000000604
 30
-0.0000000000000033
 11
145.0000000000007105
 21
14.0000000000000604
 31
-0.0000000000000031
210
0.0
220
1.0
230
-0.0000000000000002
  0
LINE
  5
E148
  8
0
  6
VERDECKT
 62
     1
 10
135.9999999999998863
 20
15.0000000000000604
 30
-0.0000000000000033
 11
135.0000000000001137
 21
14.0000000000000604
 31
-0.0000000000000031
210
0.0
220
1.0
230
-0.0000000000000002
  0
LINE
  5
E149
  8
0
  6
VERDECKT
 62
     1
 10
135.9999999999998863
 20
12.9999999999999396
 30
-0.0000000000000029
 11
135.0000000000001137
 21
13.9999999999999503
 31
-0.0000000000000031
210
0.0
220
1.0
230
-0.0000000000000002
  0
LINE
  5
E14A
  8
0
  6
VERDECKT
 62
     1
 10
144.0000000000009095
 20
12.9999999999999396
 30
-0.0000000000000029
 11
145.0000000000007105
 21
13.9999999999999503
 31
-0.0000000000000031
210
0.0
220
1.0
230
-0.0000000000000002
  0
LINE
  5
E14B
  8
0
  6
VERDECKT
 62
     1
 10
144.0000000000009095
 20
13.0
 30
-0.0000000000000029
 11
145.0000000000003979
 21
12.0
 31
-0.0000000000000027
210
0.0
220
1.0
230
-0.0000000000000002
  0
LINE
  5
E14C
  8
0
  6
VERDECKT
 62
     1
 10
136.0
 20
13.0
 30
-0.0000000000000029
 11
135.0000000000003979
 21
12.0
 31
-0.0000000000000027
210
0.0
220
1.0
230
-0.0000000000000002
  0
LINE
  5
E14D
  8
0
  6
VERDECKT
 62
     1
 10
136.0
 20
11.0
 30
-0.0000000000000024
 11
135.0000000000003979
 21
12.0
 31
-0.0000000000000027
210
0.0
220
1.0
230
-0.0000000000000002
  0
LINE
  5
E14E
  8
0
  6
VERDECKT
 62
     1
 10
144.0000000000009095
 20
11.0
 30
-0.0000000000000024
 11
145.0000000000003979
 21
12.0
 31
-0.0000000000000027
210
0.0
220
1.0
230
-0.0000000000000002
  0
LINE
  5
E14F
  8
0
  6
VERDECKT
 62
     1
 10
144.0000000000009095
 20
11.0
 30
-0.0000000000000024
 11
145.0000000000003979
 21
10.0
 31
-0.0000000000000022
210
0.0
220
1.0
230
-0.0000000000000002
  0
LINE
  5
E150
  8
0
  6
VERDECKT
 62
     1
 10
136.0
 20
11.0
 30
-0.0000000000000024
 11
135.0000000000003979
 21
10.0
 31
-0.0000000000000022
210
0.0
220
1.0
230
-0.0000000000000002
  0
LINE
  5
E151
  8
0
  6
VERDECKT
 62
     1
 10
136.0
 20
9.0000000000000018
 30
-0.000000000000002
 11
135.0000000000003979
 21
10.0
 31
-0.0000000000000022
210
0.0
220
1.0
230
-0.0000000000000002
  0
LINE
  5
E152
  8
0
  6
VERDECKT
 62
     1
 10
144.0000000000009095
 20
9.0000000000000018
 30
-0.000000000000002
 11
145.0000000000003979
 21
10.0
 31
-0.0000000000000022
210
0.0
220
1.0
230
-0.0000000000000002
  0
LINE
  5
E153
  8
0
  6
VERDECKT
 62
     1
 10
144.0000000000009095
 20
9.0000000000000018
 30
-0.000000000000002
 11
145.0000000000003979
 21
8.0000000000000018
 31
-0.0000000000000018
210
0.0
220
1.0
230
-0.0000000000000002
  0
LINE
  5
E154
  8
0
  6
VERDECKT
 62
     1
 10
136.0
 20
9.0000000000000018
 30
-0.000000000000002
 11
135.0000000000003979
 21
8.0000000000000018
 31
-0.0000000000000018
210
0.0
220
1.0
230
-0.0000000000000002
  0
LINE
  5
E155
  8
0
  6
VERDECKT
 62
     1
 10
136.0
 20
7.0000000000000009
 30
-0.0000000000000016
 11
135.0000000000003979
 21
8.0000000000000018
 31
-0.0000000000000018
210
0.0
220
1.0
230
-0.0000000000000002
  0
LINE
  5
E156
  8
0
  6
VERDECKT
 62
     1
 10
144.0000000000009095
 20
7.0000000000000009
 30
-0.0000000000000016
 11
145.0000000000003979
 21
8.0000000000000018
 31
-0.0000000000000018
210
0.0
220
1.0
230
-0.0000000000000002
  0
LINE
  5
E157
  8
0
  6
VERDECKT
 62
     1
 10
144.0000000000009095
 20
7.0000000000000009
 30
-0.0000000000000016
 11
145.0000000000003979
 21
6.0000000000000009
 31
-0.0000000000000013
210
0.0
220
1.0
230
-0.0000000000000002
  0
LINE
  5
E158
  8
0
  6
VERDECKT
 62
     1
 10
136.0
 20
7.0000000000000009
 30
-0.0000000000000016
 11
135.0000000000003979
 21
6.0000000000000009
 31
-0.0000000000000013
210
0.0
220
1.0
230
-0.0000000000000002
  0
LINE
  5
E159
  8
0
  6
VERDECKT
 62
     1
 10
136.0
 20
5.0
 30
-0.0000000000000011
 11
135.0000000000003979
 21
6.0000000000000009
 31
-0.0000000000000013
210
0.0
220
1.0
230
-0.0000000000000002
  0
LINE
  5
E15A
  8
0
  6
VERDECKT
 62
     1
 10
144.0000000000009095
 20
5.0
 30
-0.0000000000000011
 11
145.0000000000003979
 21
6.0000000000000009
 31
-0.0000000000000013
210
0.0
220
1.0
230
-0.0000000000000002
  0
LINE
  5
E15B
  8
0
  6
VERDECKT
 62
     1
 10
144.0000000000009095
 20
5.0000000000000568
 30
-0.0000000000000011
 11
145.0000000000007105
 21
4.0000000000000568
 31
-0.0000000000000009
210
0.0
220
1.0
230
-0.0000000000000002
  0
LINE
  5
E15C
  8
0
  6
VERDECKT
 62
     1
 10
135.9999999999998863
 20
5.0000000000000568
 30
-0.0000000000000011
 11
135.0000000000001137
 21
4.0000000000000568
 31
-0.0000000000000009
210
0.0
220
1.0
230
-0.0000000000000002
  0
LINE
  5
E15D
  8
0
  6
VERDECKT
 62
     1
 10
135.9999999999998863
 20
2.9999999999999432
 30
-0.0000000000000007
 11
135.0000000000001137
 21
3.999999999999944
 31
-0.0000000000000009
210
0.0
220
1.0
230
-0.0000000000000002
  0
LINE
  5
E15E
  8
0
  6
VERDECKT
 62
     1
 10
144.0000000000009095
 20
2.9999999999999432
 30
-0.0000000000000007
 11
145.0000000000007105
 21
3.999999999999944
 31
-0.0000000000000009
210
0.0
220
1.0
230
-0.0000000000000002
  0
LINE
  5
E15F
  8
0
  6
VERDECKT
 62
     1
 10
144.0000000000009095
 20
3.0
 30
-0.0000000000000007
 11
145.0000000000003979
 21
2.0
 31
-0.0000000000000004
210
0.0
220
1.0
230
-0.0000000000000002
  0
LINE
  5
E160
  8
0
  6
VERDECKT
 62
     1
 10
136.0
 20
3.0
 30
-0.0000000000000007
 11
135.0000000000003979
 21
2.0
 31
-0.0000000000000004
210
0.0
220
1.0
230
-0.0000000000000002
  0
LINE
  5
E161
  8
0
  6
VERDECKT
 62
     1
 10
136.0
 20
1.0
 30
-0.0000000000000002
 11
135.0000000000003979
 21
2.0
 31
-0.0000000000000004
210
0.0
220
1.0
230
-0.0000000000000002
  0
LINE
  5
E162
  8
0
  6
VERDECKT
 62
     1
 10
144.0000000000009095
 20
1.0
 30
-0.0000000000000002
 11
145.0000000000003979
 21
2.0
 31
-0.0000000000000004
210
0.0
220
1.0
230
-0.0000000000000002
  0
LINE
  5
E163
  8
0
  6
VERDECKT
 62
     1
 10
144.0000000000009095
 20
1.0000000000000571
 30
-0.0000000000000002
 11
145.0000000000007105
 21
0.0000000000000568
 31
0.0
210
0.0
220
1.0
230
-0.0000000000000002
  0
LINE
  5
E164
  8
0
  6
VERDECKT
 62
     1
 10
135.9999999999998863
 20
1.0000000000000571
 30
-0.0000000000000002
 11
135.0000000000001137
 21
0.0000000000000568
 31
0.0
210
0.0
220
1.0
230
-0.0000000000000002
  0
LINE
  5
E165
  8
0
  6
VERDECKT
 62
     1
 10
136.0000000000003126
 20
29.0000000000000888
 30
-0.0000000000000064
 11
135.0000000000005116
 21
30.0000000000002096
 31
-0.0000000000000067
210
0.0
220
1.0
230
-0.0000000000000002
  0
LINE
  5
E166
  8
0
  6
VERDECKT
 62
     1
 10
144.0000000000005969
 20
29.0000000000000888
 30
-0.0000000000000064
 11
145.0000000000003126
 21
30.0000000000002096
 31
-0.0000000000000067
210
0.0
220
1.0
230
-0.0000000000000002
  0
LINE
  5
E167
  8
0
  6
VERDECKT
 62
     1
 10
144.0000000000005969
 20
28.9999999999999503
 30
-0.0000000000000064
 11
145.0000000000003979
 21
27.9999999999999503
 31
-0.0000000000000062
210
0.0
220
1.0
230
-0.0000000000000002
  0
LINE
  5
E168
  8
0
  6
VERDECKT
 62
     1
 10
136.000000000000199
 20
28.9999999999999503
 30
-0.0000000000000064
 11
135.0000000000005116
 21
27.9999999999999503
 31
-0.0000000000000062
210
0.0
220
1.0
230
-0.0000000000000002
  0
LINE
  5
E169
  8
0
  6
VERDECKT
 62
     1
 10
136.000000000000199
 20
27.0000000000000604
 30
-0.000000000000006
 11
135.0000000000005116
 21
28.0000000000000604
 31
-0.0000000000000062
210
0.0
220
1.0
230
-0.0000000000000002
  0
LINE
  5
E16A
  8
0
  6
VERDECKT
 62
     1
 10
144.0000000000005969
 20
27.0000000000000604
 30
-0.000000000000006
 11
145.0000000000003979
 21
28.0000000000000604
 31
-0.0000000000000062
210
0.0
220
1.0
230
-0.0000000000000002
  0
LINE
  5
E16B
  8
0
  6
VERDECKT
 62
     1
 10
144.0000000000005969
 20
26.9999999999999503
 30
-0.000000000000006
 11
145.0000000000003979
 21
25.9999999999999503
 31
-0.0000000000000058
210
0.0
220
1.0
230
-0.0000000000000002
  0
LINE
  5
E16C
  8
0
  6
VERDECKT
 62
     1
 10
136.000000000000199
 20
26.9999999999999503
 30
-0.000000000000006
 11
135.0000000000005116
 21
25.9999999999999503
 31
-0.0000000000000058
210
0.0
220
1.0
230
-0.0000000000000002
  0
LINE
  5
E16D
  8
0
  6
VERDECKT
 62
     1
 10
136.0
 20
25.0000000000000107
 30
-0.0000000000000056
 11
135.0000000000003979
 21
26.0000000000000107
 31
-0.0000000000000058
210
0.0
220
1.0
230
-0.0000000000000002
  0
LINE
  5
E16E
  8
0
  6
VERDECKT
 62
     1
 10
144.0000000000009095
 20
25.0000000000000107
 30
-0.0000000000000056
 11
145.0000000000003979
 21
26.0000000000000107
 31
-0.0000000000000058
210
0.0
220
1.0
230
-0.0000000000000002
  0
LINE
  5
E16F
  8
0
  6
VERDECKT
 62
     1
 10
144.0000000000009095
 20
25.0000000000000711
 30
-0.0000000000000056
 11
145.0000000000007105
 21
24.0000000000000711
 31
-0.0000000000000053
210
0.0
220
1.0
230
-0.0000000000000002
  0
LINE
  5
E170
  8
0
  6
VERDECKT
 62
     1
 10
135.9999999999998863
 20
25.0000000000000711
 30
-0.0000000000000056
 11
135.0000000000001137
 21
24.0000000000000711
 31
-0.0000000000000053
210
0.0
220
1.0
230
-0.0000000000000002
  0
LINE
  5
E171
  8
0
  6
VERDECKT
 62
     1
 10
135.9999999999998863
 20
22.9999999999999503
 30
-0.0000000000000051
 11
135.0000000000001137
 21
23.9999999999999503
 31
-0.0000000000000053
210
0.0
220
1.0
230
-0.0000000000000002
  0
LINE
  5
E172
  8
0
  6
VERDECKT
 62
     1
 10
144.0000000000009095
 20
22.9999999999999503
 30
-0.0000000000000051
 11
145.0000000000007105
 21
23.9999999999999503
 31
-0.0000000000000053
210
0.0
220
1.0
230
-0.0000000000000002
  0
LINE
  5
E173
  8
0
  6
VERDECKT
 62
     1
 10
144.0000000000009095
 20
23.0
 30
-0.0000000000000051
 11
145.0000000000003979
 21
22.0000000000000107
 31
-0.0000000000000049
210
0.0
220
1.0
230
-0.0000000000000002
  0
LINE
  5
E174
  8
0
  6
VERDECKT
 62
     1
 10
136.0
 20
23.0
 30
-0.0000000000000051
 11
135.0000000000003979
 21
22.0000000000000107
 31
-0.0000000000000049
210
0.0
220
1.0
230
-0.0000000000000002
  0
LINE
  5
E175
  8
0
  6
VERDECKT
 62
     1
 10
136.0
 20
21.0
 30
-0.0000000000000047
 11
135.0000000000003979
 21
22.0000000000000107
 31
-0.0000000000000049
210
0.0
220
1.0
230
-0.0000000000000002
  0
LINE
  5
E176
  8
0
  6
VERDECKT
 62
     1
 10
144.0000000000009095
 20
21.0
 30
-0.0000000000000047
 11
145.0000000000003979
 21
22.0000000000000107
 31
-0.0000000000000049
210
0.0
220
1.0
230
-0.0000000000000002
  0
LINE
  5
E177
  8
0
  6
VERDECKT
 62
     1
 10
144.0000000000009095
 20
21.0
 30
-0.0000000000000047
 11
145.0000000000003979
 21
20.0000000000000604
 31
-0.0000000000000044
210
0.0
220
1.0
230
-0.0000000000000002
  0
LINE
  5
E178
  8
0
  6
VERDECKT
 62
     1
 10
136.0
 20
21.0
 30
-0.0000000000000047
 11
135.0000000000005116
 21
20.0000000000000604
 31
-0.0000000000000044
210
0.0
220
1.0
230
-0.0000000000000002
  0
LINE
  5
E179
  8
0
  6
VERDECKT
 62
     1
 10
199.9999999999990052
 20
32.0000000000000995
 30
-0.0000000000000071
 11
-199.999999999999801
 21
32.0000000000000782
 31
-0.0000000000000071
210
0.0
220
1.0
230
-0.0000000000000002
  0
LINE
  5
E17A
  8
0
  6
VERDECKT
 62
     1
 10
-197.999999999999801
 20
42.0000000000000426
 30
-0.0000000000000093
 11
198.000000000000199
 21
41.9999999999999929
 31
-0.0000000000000093
210
0.0
220
1.0
230
-0.0000000000000002
  0
LINE
  5
E17B
  8
0
  6
VERDECKT
 62
     1
 10
-165.0000000000003979
 20
30.0000000000000497
 30
-0.0000000000000067
 11
-165.0000000000003979
 21
32.0000000000000497
 31
-0.0000000000000071
210
0.0
220
1.0
230
-0.0000000000000002
  0
LINE
  5
E17C
  8
0
  6
VERDECKT
 62
     1
 10
164.9999999999994884
 20
32.0000000000000497
 30
-0.0000000000000071
 11
164.9999999999994884
 21
30.0000000000000391
 31
-0.0000000000000067
210
0.0
220
1.0
230
-0.0000000000000002
  0
LINE
  5
E17D
  8
0
  6
VERDECKT
 62
     1
 10
-146.0000000000003979
 20
30.0000000000000497
 30
-0.0000000000000067
 11
-146.0000000000003979
 21
32.0000000000000497
 31
-0.0000000000000071
210
0.0
220
1.0
230
-0.0000000000000002
  0
LINE
  5
E17E
  8
0
  6
VERDECKT
 62
     1
 10
-134.0000000000003979
 20
30.0000000000000497
 30
-0.0000000000000067
 11
-134.0000000000003979
 21
32.0000000000000497
 31
-0.0000000000000071
210
0.0
220
1.0
230
-0.0000000000000002
  0
LINE
  5
E17F
  8
0
  6
VERDECKT
 62
     1
 10
133.9999999999994884
 20
30.0000000000000497
 30
-0.0000000000000067
 11
133.9999999999994884
 21
32.0000000000000497
 31
-0.0000000000000071
210
0.0
220
1.0
230
-0.0000000000000002
  0
LINE
  5
E180
  8
0
  6
VERDECKT
 62
     1
 10
145.9999999999994884
 20
30.0000000000000497
 30
-0.0000000000000067
 11
145.9999999999994884
 21
32.0000000000000497
 31
-0.0000000000000071
210
0.0
220
1.0
230
-0.0000000000000002
  0
LINE
  5
E181
  8
0
  6
VERDECKT
 62
     1
 10
-197.999999999999801
 20
32.0000000000000711
 30
-0.0000000000000071
 11
-197.999999999999801
 21
52.0000000000000284
 31
-0.0000000000000115
210
0.0
220
1.0
230
-0.0000000000000002
  0
LINE
  5
E182
  8
0
  6
VERDECKT
 62
     1
 10
198.0000000000001137
 20
52.0000000000000213
 30
-0.0000000000000115
 11
198.0000000000001137
 21
32.0000000000001066
 31
-0.0000000000000071
210
0.0
220
1.0
230
-0.0000000000000002
  0
LINE
  5
E183
  8
0
  6
VERDECKT
 62
     1
 10
-136.000000000000199
 20
19.0
 30
-0.0000000000000042
 11
-144.0000000000007105
 21
19.0
 31
-0.0000000000000042
210
0.0
220
1.0
230
-0.0000000000000002
  0
LINE
  5
E184
  8
0
  6
VERDECKT
 62
     1
 10
-135.0000000000003979
 20
20.0000000000001208
 30
-0.0000000000000044
 11
-145.0000000000003979
 21
20.0000000000001208
 31
-0.0000000000000044
210
0.0
220
1.0
230
-0.0000000000000002
  0
LINE
  5
E185
  8
0
  6
VERDECKT
 62
     1
 10
-135.0000000000003979
 20
18.0
 30
-0.000000000000004
 11
-145.0000000000003979
 21
18.0
 31
-0.000000000000004
210
0.0
220
1.0
230
-0.0000000000000002
  0
LINE
  5
E186
  8
0
  6
VERDECKT
 62
     1
 10
-136.000000000000199
 20
17.0
 30
-0.0000000000000038
 11
-144.0000000000007105
 21
17.0
 31
-0.0000000000000038
210
0.0
220
1.0
230
-0.0000000000000002
  0
LINE
  5
E187
  8
0
  6
VERDECKT
 62
     1
 10
-135.0000000000003979
 20
16.0
 30
-0.0000000000000036
 11
-145.0000000000003979
 21
16.0
 31
-0.0000000000000036
210
0.0
220
1.0
230
-0.0000000000000002
  0
LINE
  5
E188
  8
0
  6
VERDECKT
 62
     1
 10
-136.0
 20
15.0
 30
-0.0000000000000033
 11
-144.0000000000009095
 21
15.0
 31
-0.0000000000000033
210
0.0
220
1.0
230
-0.0000000000000002
  0
LINE
  5
E189
  8
0
  6
VERDECKT
 62
     1
 10
-135.000000000000199
 20
14.0
 30
-0.0000000000000031
 11
-145.0000000000007105
 21
14.0
 31
-0.0000000000000031
210
0.0
220
1.0
230
-0.0000000000000002
  0
LINE
  5
E18A
  8
0
  6
VERDECKT
 62
     1
 10
-136.0
 20
13.0
 30
-0.0000000000000029
 11
-144.0000000000009095
 21
13.0
 31
-0.0000000000000029
210
0.0
220
1.0
230
-0.0000000000000002
  0
LINE
  5
E18B
  8
0
  6
VERDECKT
 62
     1
 10
-135.0000000000003979
 20
12.0
 30
-0.0000000000000027
 11
-145.0000000000003979
 21
12.0
 31
-0.0000000000000027
210
0.0
220
1.0
230
-0.0000000000000002
  0
LINE
  5
E18C
  8
0
  6
VERDECKT
 62
     1
 10
-136.0
 20
11.0
 30
-0.0000000000000024
 11
-144.0000000000009095
 21
11.0
 31
-0.0000000000000024
210
0.0
220
1.0
230
-0.0000000000000002
  0
LINE
  5
E18D
  8
0
  6
VERDECKT
 62
     1
 10
-135.0000000000003979
 20
10.0
 30
-0.0000000000000022
 11
-145.0000000000003979
 21
10.0
 31
-0.0000000000000022
210
0.0
220
1.0
230
-0.0000000000000002
  0
LINE
  5
E18E
  8
0
  6
VERDECKT
 62
     1
 10
-136.0
 20
9.0000000000000018
 30
-0.000000000000002
 11
-144.0000000000009095
 21
9.0000000000000018
 31
-0.000000000000002
210
0.0
220
1.0
230
-0.0000000000000002
  0
LINE
  5
E18F
  8
0
  6
VERDECKT
 62
     1
 10
-135.0000000000003979
 20
8.0000000000000018
 30
-0.0000000000000018
 11
-145.0000000000003979
 21
8.0000000000000018
 31
-0.0000000000000018
210
0.0
220
1.0
230
-0.0000000000000002
  0
LINE
  5
E190
  8
0
  6
VERDECKT
 62
     1
 10
-136.0
 20
7.0000000000000009
 30
-0.0000000000000016
 11
-144.0000000000009095
 21
7.0000000000000009
 31
-0.0000000000000016
210
0.0
220
1.0
230
-0.0000000000000002
  0
LINE
  5
E191
  8
0
  6
VERDECKT
 62
     1
 10
-135.0000000000003979
 20
6.0000000000000009
 30
-0.0000000000000013
 11
-145.0000000000003979
 21
6.0000000000000009
 31
-0.0000000000000013
210
0.0
220
1.0
230
-0.0000000000000002
  0
LINE
  5
E192
  8
0
  6
VERDECKT
 62
     1
 10
-136.0
 20
5.0
 30
-0.0000000000000011
 11
-144.0000000000009095
 21
5.0
 31
-0.0000000000000011
210
0.0
220
1.0
230
-0.0000000000000002
  0
LINE
  5
E193
  8
0
  6
VERDECKT
 62
     1
 10
-135.000000000000199
 20
4.0
 30
-0.0000000000000009
 11
-145.0000000000007105
 21
4.0
 31
-0.0000000000000009
210
0.0
220
1.0
230
-0.0000000000000002
  0
LINE
  5
E194
  8
0
  6
VERDECKT
 62
     1
 10
-136.0
 20
3.0
 30
-0.0000000000000007
 11
-144.0000000000009095
 21
3.0
 31
-0.0000000000000007
210
0.0
220
1.0
230
-0.0000000000000002
  0
LINE
  5
E195
  8
0
  6
VERDECKT
 62
     1
 10
-135.0000000000003979
 20
2.0
 30
-0.0000000000000004
 11
-145.0000000000003979
 21
2.0
 31
-0.0000000000000004
210
0.0
220
1.0
230
-0.0000000000000002
  0
LINE
  5
E196
  8
0
  6
VERDECKT
 62
     1
 10
-136.0
 20
1.0
 30
-0.0000000000000002
 11
-144.0000000000009095
 21
1.0
 31
-0.0000000000000002
210
0.0
220
1.0
230
-0.0000000000000002
  0
LINE
  5
E197
  8
0
  6
VERDECKT
 62
     1
 10
-136.000000000000199
 20
29.0000000000000107
 30
-0.0000000000000064
 11
-144.0000000000007105
 21
29.0000000000000107
 31
-0.0000000000000064
210
0.0
220
1.0
230
-0.0000000000000002
  0
LINE
  5
E198
  8
0
  6
VERDECKT
 62
     1
 10
-135.0000000000003979
 20
28.0000000000000107
 30
-0.0000000000000062
 11
-145.0000000000003979
 21
28.0000000000000107
 31
-0.0000000000000062
210
0.0
220
1.0
230
-0.0000000000000002
  0
LINE
  5
E199
  8
0
  6
VERDECKT
 62
     1
 10
-136.000000000000199
 20
27.0000000000000107
 30
-0.000000000000006
 11
-144.0000000000007105
 21
27.0000000000000107
 31
-0.000000000000006
210
0.0
220
1.0
230
-0.0000000000000002
  0
LINE
  5
E19A
  8
0
  6
VERDECKT
 62
     1
 10
-135.0000000000003979
 20
26.0000000000000107
 30
-0.0000000000000058
 11
-145.0000000000003979
 21
26.0000000000000107
 31
-0.0000000000000058
210
0.0
220
1.0
230
-0.0000000000000002
  0
LINE
  5
E19B
  8
0
  6
VERDECKT
 62
     1
 10
-136.0
 20
25.0000000000000107
 30
-0.0000000000000056
 11
-144.0000000000009095
 21
25.0000000000000107
 31
-0.0000000000000056
210
0.0
220
1.0
230
-0.0000000000000002
  0
LINE
  5
E19C
  8
0
  6
VERDECKT
 62
     1
 10
-135.000000000000199
 20
24.0000000000000107
 30
-0.0000000000000053
 11
-145.0000000000007105
 21
24.0000000000000107
 31
-0.0000000000000053
210
0.0
220
1.0
230
-0.0000000000000002
  0
LINE
  5
E19D
  8
0
  6
VERDECKT
 62
     1
 10
-136.0
 20
23.0
 30
-0.0000000000000051
 11
-144.0000000000009095
 21
23.0
 31
-0.0000000000000051
210
0.0
220
1.0
230
-0.0000000000000002
  0
LINE
  5
E19E
  8
0
  6
VERDECKT
 62
     1
 10
-135.0000000000003979
 20
22.0000000000000107
 30
-0.0000000000000049
 11
-145.0000000000003979
 21
22.0000000000000107
 31
-0.0000000000000049
210
0.0
220
1.0
230
-0.0000000000000002
  0
LINE
  5
E19F
  8
0
  6
VERDECKT
 62
     1
 10
-136.0
 20
21.0
 30
-0.0000000000000047
 11
-144.0000000000009095
 21
21.0
 31
-0.0000000000000047
210
0.0
220
1.0
230
-0.0000000000000002
  0
LINE
  5
E1A0
  8
0
  6
VERDECKT
 62
     1
 10
-144.0000000000005969
 20
19.0000000000000888
 30
-0.0000000000000042
 11
-145.0000000000003126
 21
20.000000000000199
 31
-0.0000000000000044
210
0.0
220
1.0
230
-0.0000000000000002
  0
LINE
  5
E1A1
  8
0
  6
VERDECKT
 62
     1
 10
-136.0000000000003126
 20
19.0000000000000888
 30
-0.0000000000000042
 11
-135.0000000000005116
 21
20.000000000000199
 31
-0.0000000000000044
210
0.0
220
1.0
230
-0.0000000000000002
  0
LINE
  5
E1A2
  8
0
  6
VERDECKT
 62
     1
 10
-136.000000000000199
 20
18.9999999999999503
 30
-0.0000000000000042
 11
-135.0000000000005116
 21
17.9999999999999396
 31
-0.000000000000004
210
0.0
220
1.0
230
-0.0000000000000002
  0
LINE
  5
E1A3
  8
0
  6
VERDECKT
 62
     1
 10
-144.0000000000005969
 20
18.9999999999999503
 30
-0.0000000000000042
 11
-145.0000000000003979
 21
17.9999999999999396
 31
-0.000000000000004
210
0.0
220
1.0
230
-0.0000000000000002
  0
LINE
  5
E1A4
  8
0
  6
VERDECKT
 62
     1
 10
-144.0000000000005969
 20
17.0000000000000604
 30
-0.0000000000000038
 11
-145.0000000000003979
 21
18.0000000000000604
 31
-0.000000000000004
210
0.0
220
1.0
230
-0.0000000000000002
  0
LINE
  5
E1A5
  8
0
  6
VERDECKT
 62
     1
 10
-136.000000000000199
 20
17.0000000000000604
 30
-0.0000000000000038
 11
-135.0000000000005116
 21
18.0000000000000604
 31
-0.000000000000004
210
0.0
220
1.0
230
-0.0000000000000002
  0
LINE
  5
E1A6
  8
0
  6
VERDECKT
 62
     1
 10
-136.000000000000199
 20
16.9999999999999503
 30
-0.0000000000000038
 11
-135.0000000000005116
 21
15.9999999999999503
 31
-0.0000000000000036
210
0.0
220
1.0
230
-0.0000000000000002
  0
LINE
  5
E1A7
  8
0
  6
VERDECKT
 62
     1
 10
-144.0000000000005969
 20
16.9999999999999503
 30
-0.0000000000000038
 11
-145.0000000000003979
 21
15.9999999999999503
 31
-0.0000000000000036
210
0.0
220
1.0
230
-0.0000000000000002
  0
LINE
  5
E1A8
  8
0
  6
VERDECKT
 62
     1
 10
-144.0000000000009095
 20
15.0
 30
-0.0000000000000033
 11
-145.0000000000003979
 21
16.0
 31
-0.0000000000000036
210
0.0
220
1.0
230
-0.0000000000000002
  0
LINE
  5
E1A9
  8
0
  6
VERDECKT
 62
     1
 10
-136.0
 20
15.0
 30
-0.0000000000000033
 11
-135.0000000000003979
 21
16.0
 31
-0.0000000000000036
210
0.0
220
1.0
230
-0.0000000000000002
  0
LINE
  5
E1AA
  8
0
  6
VERDECKT
 62
     1
 10
-135.9999999999998863
 20
15.0000000000000604
 30
-0.0000000000000033
 11
-135.0000000000001137
 21
14.0000000000000604
 31
-0.0000000000000031
210
0.0
220
1.0
230
-0.0000000000000002
  0
LINE
  5
E1AB
  8
0
  6
VERDECKT
 62
     1
 10
-144.0000000000009095
 20
15.0000000000000604
 30
-0.0000000000000033
 11
-145.0000000000007105
 21
14.0000000000000604
 31
-0.0000000000000031
210
0.0
220
1.0
230
-0.0000000000000002
  0
LINE
  5
E1AC
  8
0
  6
VERDECKT
 62
     1
 10
-144.0000000000009095
 20
12.9999999999999396
 30
-0.0000000000000029
 11
-145.0000000000007105
 21
13.9999999999999503
 31
-0.0000000000000031
210
0.0
220
1.0
230
-0.0000000000000002
  0
LINE
  5
E1AD
  8
0
  6
VERDECKT
 62
     1
 10
-135.9999999999998863
 20
12.9999999999999396
 30
-0.0000000000000029
 11
-135.0000000000001137
 21
13.9999999999999503
 31
-0.0000000000000031
210
0.0
220
1.0
230
-0.0000000000000002
  0
LINE
  5
E1AE
  8
0
  6
VERDECKT
 62
     1
 10
-136.0
 20
13.0
 30
-0.0000000000000029
 11
-135.0000000000003979
 21
12.0
 31
-0.0000000000000027
210
0.0
220
1.0
230
-0.0000000000000002
  0
LINE
  5
E1AF
  8
0
  6
VERDECKT
 62
     1
 10
-144.0000000000009095
 20
13.0
 30
-0.0000000000000029
 11
-145.0000000000003979
 21
12.0
 31
-0.0000000000000027
210
0.0
220
1.0
230
-0.0000000000000002
  0
LINE
  5
E1B0
  8
0
  6
VERDECKT
 62
     1
 10
-144.0000000000009095
 20
11.0
 30
-0.0000000000000024
 11
-145.0000000000003979
 21
12.0
 31
-0.0000000000000027
210
0.0
220
1.0
230
-0.0000000000000002
  0
LINE
  5
E1B1
  8
0
  6
VERDECKT
 62
     1
 10
-136.0
 20
11.0
 30
-0.0000000000000024
 11
-135.0000000000003979
 21
12.0
 31
-0.0000000000000027
210
0.0
220
1.0
230
-0.0000000000000002
  0
LINE
  5
E1B2
  8
0
  6
VERDECKT
 62
     1
 10
-136.0
 20
11.0
 30
-0.0000000000000024
 11
-135.0000000000003979
 21
10.0
 31
-0.0000000000000022
210
0.0
220
1.0
230
-0.0000000000000002
  0
LINE
  5
E1B3
  8
0
  6
VERDECKT
 62
     1
 10
-144.0000000000009095
 20
11.0
 30
-0.0000000000000024
 11
-145.0000000000003979
 21
10.0
 31
-0.0000000000000022
210
0.0
220
1.0
230
-0.0000000000000002
  0
LINE
  5
E1B4
  8
0
  6
VERDECKT
 62
     1
 10
-144.0000000000009095
 20
9.0000000000000018
 30
-0.000000000000002
 11
-145.0000000000003979
 21
10.0
 31
-0.0000000000000022
210
0.0
220
1.0
230
-0.0000000000000002
  0
LINE
  5
E1B5
  8
0
  6
VERDECKT
 62
     1
 10
-136.0
 20
9.0000000000000018
 30
-0.000000000000002
 11
-135.0000000000003979
 21
10.0
 31
-0.0000000000000022
210
0.0
220
1.0
230
-0.0000000000000002
  0
LINE
  5
E1B6
  8
0
  6
VERDECKT
 62
     1
 10
-136.0
 20
9.0000000000000018
 30
-0.000000000000002
 11
-135.0000000000003979
 21
8.0000000000000018
 31
-0.0000000000000018
210
0.0
220
1.0
230
-0.0000000000000002
  0
LINE
  5
E1B7
  8
0
  6
VERDECKT
 62
     1
 10
-144.0000000000009095
 20
9.0000000000000018
 30
-0.000000000000002
 11
-145.0000000000003979
 21
8.0000000000000018
 31
-0.0000000000000018
210
0.0
220
1.0
230
-0.0000000000000002
  0
LINE
  5
E1B8
  8
0
  6
VERDECKT
 62
     1
 10
-144.0000000000009095
 20
7.0000000000000009
 30
-0.0000000000000016
 11
-145.0000000000003979
 21
8.0000000000000018
 31
-0.0000000000000018
210
0.0
220
1.0
230
-0.0000000000000002
  0
LINE
  5
E1B9
  8
0
  6
VERDECKT
 62
     1
 10
-136.0
 20
7.0000000000000009
 30
-0.0000000000000016
 11
-135.0000000000003979
 21
8.0000000000000018
 31
-0.0000000000000018
210
0.0
220
1.0
230
-0.0000000000000002
  0
LINE
  5
E1BA
  8
0
  6
VERDECKT
 62
     1
 10
-136.0
 20
7.0000000000000009
 30
-0.0000000000000016
 11
-135.0000000000003979
 21
6.0000000000000009
 31
-0.0000000000000013
210
0.0
220
1.0
230
-0.0000000000000002
  0
LINE
  5
E1BB
  8
0
  6
VERDECKT
 62
     1
 10
-144.0000000000009095
 20
7.0000000000000009
 30
-0.0000000000000016
 11
-145.0000000000003979
 21
6.0000000000000009
 31
-0.0000000000000013
210
0.0
220
1.0
230
-0.0000000000000002
  0
LINE
  5
E1BC
  8
0
  6
VERDECKT
 62
     1
 10
-144.0000000000009095
 20
5.0
 30
-0.0000000000000011
 11
-145.0000000000003979
 21
6.0000000000000009
 31
-0.0000000000000013
210
0.0
220
1.0
230
-0.0000000000000002
  0
LINE
  5
E1BD
  8
0
  6
VERDECKT
 62
     1
 10
-136.0
 20
5.0
 30
-0.0000000000000011
 11
-135.0000000000003979
 21
6.0000000000000009
 31
-0.0000000000000013
210
0.0
220
1.0
230
-0.0000000000000002
  0
LINE
  5
E1BE
  8
0
  6
VERDECKT
 62
     1
 10
-135.9999999999998863
 20
5.0000000000000568
 30
-0.0000000000000011
 11
-135.0000000000001137
 21
4.0000000000000568
 31
-0.0000000000000009
210
0.0
220
1.0
230
-0.0000000000000002
  0
LINE
  5
E1BF
  8
0
  6
VERDECKT
 62
     1
 10
-144.0000000000009095
 20
5.0000000000000568
 30
-0.0000000000000011
 11
-145.0000000000007105
 21
4.0000000000000568
 31
-0.0000000000000009
210
0.0
220
1.0
230
-0.0000000000000002
  0
LINE
  5
E1C0
  8
0
  6
VERDECKT
 62
     1
 10
-144.0000000000009095
 20
2.9999999999999432
 30
-0.0000000000000007
 11
-145.0000000000007105
 21
3.999999999999944
 31
-0.0000000000000009
210
0.0
220
1.0
230
-0.0000000000000002
  0
LINE
  5
E1C1
  8
0
  6
VERDECKT
 62
     1
 10
-135.9999999999998863
 20
2.9999999999999432
 30
-0.0000000000000007
 11
-135.0000000000001137
 21
3.999999999999944
 31
-0.0000000000000009
210
0.0
220
1.0
230
-0.0000000000000002
  0
LINE
  5
E1C2
  8
0
  6
VERDECKT
 62
     1
 10
-136.0
 20
3.0
 30
-0.0000000000000007
 11
-135.0000000000003979
 21
2.0
 31
-0.0000000000000004
210
0.0
220
1.0
230
-0.0000000000000002
  0
LINE
  5
E1C3
  8
0
  6
VERDECKT
 62
     1
 10
-144.0000000000009095
 20
3.0
 30
-0.0000000000000007
 11
-145.0000000000003979
 21
2.0
 31
-0.0000000000000004
210
0.0
220
1.0
230
-0.0000000000000002
  0
LINE
  5
E1C4
  8
0
  6
VERDECKT
 62
     1
 10
-144.0000000000009095
 20
1.0
 30
-0.0000000000000002
 11
-145.0000000000003979
 21
2.0
 31
-0.0000000000000004
210
0.0
220
1.0
230
-0.0000000000000002
  0
LINE
  5
E1C5
  8
0
  6
VERDECKT
 62
     1
 10
-136.0
 20
1.0
 30
-0.0000000000000002
 11
-135.0000000000003979
 21
2.0
 31
-0.0000000000000004
210
0.0
220
1.0
230
-0.0000000000000002
  0
LINE
  5
E1C6
  8
0
  6
VERDECKT
 62
     1
 10
-135.9999999999998863
 20
1.0000000000000571
 30
-0.0000000000000002
 11
-135.0000000000001137
 21
0.0000000000000568
 31
0.0
210
0.0
220
1.0
230
-0.0000000000000002
  0
LINE
  5
E1C7
  8
0
  6
VERDECKT
 62
     1
 10
-144.0000000000009095
 20
1.0000000000000571
 30
-0.0000000000000002
 11
-145.0000000000007105
 21
0.0000000000000568
 31
0.0
210
0.0
220
1.0
230
-0.0000000000000002
  0
LINE
  5
E1C8
  8
0
  6
VERDECKT
 62
     1
 10
-144.0000000000005969
 20
29.0000000000000888
 30
-0.0000000000000064
 11
-145.0000000000003126
 21
30.0000000000002096
 31
-0.0000000000000067
210
0.0
220
1.0
230
-0.0000000000000002
  0
LINE
  5
E1C9
  8
0
  6
VERDECKT
 62
     1
 10
-136.0000000000003126
 20
29.0000000000000888
 30
-0.0000000000000064
 11
-135.0000000000005116
 21
30.0000000000002096
 31
-0.0000000000000067
210
0.0
220
1.0
230
-0.0000000000000002
  0
LINE
  5
E1CA
  8
0
  6
VERDECKT
 62
     1
 10
-136.000000000000199
 20
28.9999999999999503
 30
-0.0000000000000064
 11
-135.0000000000005116
 21
27.9999999999999503
 31
-0.0000000000000062
210
0.0
220
1.0
230
-0.0000000000000002
  0
LINE
  5
E1CB
  8
0
  6
VERDECKT
 62
     1
 10
-144.0000000000005969
 20
28.9999999999999503
 30
-0.0000000000000064
 11
-145.0000000000003979
 21
27.9999999999999503
 31
-0.0000000000000062
210
0.0
220
1.0
230
-0.0000000000000002
  0
LINE
  5
E1CC
  8
0
  6
VERDECKT
 62
     1
 10
-144.0000000000005969
 20
27.0000000000000604
 30
-0.000000000000006
 11
-145.0000000000003979
 21
28.0000000000000604
 31
-0.0000000000000062
210
0.0
220
1.0
230
-0.0000000000000002
  0
LINE
  5
E1CD
  8
0
  6
VERDECKT
 62
     1
 10
-136.000000000000199
 20
27.0000000000000604
 30
-0.000000000000006
 11
-135.0000000000005116
 21
28.0000000000000604
 31
-0.0000000000000062
210
0.0
220
1.0
230
-0.0000000000000002
  0
LINE
  5
E1CE
  8
0
  6
VERDECKT
 62
     1
 10
-136.000000000000199
 20
26.9999999999999503
 30
-0.000000000000006
 11
-135.0000000000005116
 21
25.9999999999999503
 31
-0.0000000000000058
210
0.0
220
1.0
230
-0.0000000000000002
  0
LINE
  5
E1CF
  8
0
  6
VERDECKT
 62
     1
 10
-144.0000000000005969
 20
26.9999999999999503
 30
-0.000000000000006
 11
-145.0000000000003979
 21
25.9999999999999503
 31
-0.0000000000000058
210
0.0
220
1.0
230
-0.0000000000000002
  0
LINE
  5
E1D0
  8
0
  6
VERDECKT
 62
     1
 10
-144.0000000000009095
 20
25.0000000000000107
 30
-0.0000000000000056
 11
-145.0000000000003979
 21
26.0000000000000107
 31
-0.0000000000000058
210
0.0
220
1.0
230
-0.0000000000000002
  0
LINE
  5
E1D1
  8
0
  6
VERDECKT
 62
     1
 10
-136.0
 20
25.0000000000000107
 30
-0.0000000000000056
 11
-135.0000000000003979
 21
26.0000000000000107
 31
-0.0000000000000058
210
0.0
220
1.0
230
-0.0000000000000002
  0
LINE
  5
E1D2
  8
0
  6
VERDECKT
 62
     1
 10
-135.9999999999998863
 20
25.0000000000000711
 30
-0.0000000000000056
 11
-135.0000000000001137
 21
24.0000000000000711
 31
-0.0000000000000053
210
0.0
220
1.0
230
-0.0000000000000002
  0
LINE
  5
E1D3
  8
0
  6
VERDECKT
 62
     1
 10
-144.0000000000009095
 20
25.0000000000000711
 30
-0.0000000000000056
 11
-145.0000000000007105
 21
24.0000000000000711
 31
-0.0000000000000053
210
0.0
220
1.0
230
-0.0000000000000002
  0
LINE
  5
E1D4
  8
0
  6
VERDECKT
 62
     1
 10
-144.0000000000009095
 20
22.9999999999999503
 30
-0.0000000000000051
 11
-145.0000000000007105
 21
23.9999999999999503
 31
-0.0000000000000053
210
0.0
220
1.0
230
-0.0000000000000002
  0
LINE
  5
E1D5
  8
0
  6
VERDECKT
 62
     1
 10
-135.9999999999998863
 20
22.9999999999999503
 30
-0.0000000000000051
 11
-135.0000000000001137
 21
23.9999999999999503
 31
-0.0000000000000053
210
0.0
220
1.0
230
-0.0000000000000002
  0
LINE
  5
E1D6
  8
0
  6
VERDECKT
 62
     1
 10
-136.0
 20
23.0
 30
-0.0000000000000051
 11
-135.0000000000003979
 21
22.0000000000000107
 31
-0.0000000000000049
210
0.0
220
1.0
230
-0.0000000000000002
  0
LINE
  5
E1D7
  8
0
  6
VERDECKT
 62
     1
 10
-144.0000000000009095
 20
23.0
 30
-0.0000000000000051
 11
-145.0000000000003979
 21
22.0000000000000107
 31
-0.0000000000000049
210
0.0
220
1.0
230
-0.0000000000000002
  0
LINE
  5
E1D8
  8
0
  6
VERDECKT
 62
     1
 10
-144.0000000000009095
 20
21.0
 30
-0.0000000000000047
 11
-145.0000000000003979
 21
22.0000000000000107
 31
-0.0000000000000049
210
0.0
220
1.0
230
-0.0000000000000002
  0
LINE
  5
E1D9
  8
0
  6
VERDECKT
 62
     1
 10
-136.0
 20
21.0
 30
-0.0000000000000047
 11
-135.0000000000003979
 21
22.0000000000000107
 31
-0.0000000000000049
210
0.0
220
1.0
230
-0.0000000000000002
  0
LINE
  5
E1DA
  8
0
  6
VERDECKT
 62
     1
 10
-136.0
 20
21.0
 30
-0.0000000000000047
 11
-135.0000000000005116
 21
20.0000000000000604
 31
-0.0000000000000044
210
0.0
220
1.0
230
-0.0000000000000002
  0
LINE
  5
E1DB
  8
0
  6
VERDECKT
 62
     1
 10
-144.0000000000009095
 20
21.0
 30
-0.0000000000000047
 11
-145.0000000000003979
 21
20.0000000000000604
 31
-0.0000000000000044
210
0.0
220
1.0
230
-0.0000000000000002
  0
LINE
  5
E1DC
  8
0
  6
VERDECKT
 62
     1
 10
130.999999999999801
 20
42.0000000000000284
 30
-0.0000000000000093
 11
132.999999999999801
 21
42.0000000000000284
 31
-0.0000000000000093
210
0.0
220
1.0
230
-0.0000000000000002
  0
LINE
  5
E1DD
  8
0
  6
VERDECKT
 62
     1
 10
130.999999999999801
 20
32.0000000000000568
 30
-0.0000000000000071
 11
130.999999999999801
 21
52.0000000000000497
 31
-0.0000000000000115
210
0.0
220
1.0
230
-0.0000000000000002
  0
LINE
  5
E1DE
  8
0
  6
VERDECKT
 62
     1
 10
132.999999999999801
 20
52.0000000000000426
 30
-0.0000000000000115
 11
132.999999999999801
 21
32.0000000000000568
 31
-0.0000000000000071
210
0.0
220
1.0
230
-0.0000000000000002
  0
LINE
  5
E1DF
  8
0
  6
VERDECKT
 62
     1
 10
-1.00000000000026
 20
42.0000000000000213
 30
-0.0000000000000093
 11
0.9999999999997683
 21
42.0000000000000213
 31
-0.0000000000000093
210
0.0
220
1.0
230
-0.0000000000000002
  0
LINE
  5
E1E0
  8
0
  6
VERDECKT
 62
     1
 10
-1.0000000000002309
 20
32.0000000000000497
 30
-0.0000000000000071
 11
-1.000000000000232
 21
52.0000000000000284
 31
-0.0000000000000115
210
0.0
220
1.0
230
-0.0000000000000002
  0
LINE
  5
E1E1
  8
0
  6
VERDECKT
 62
     1
 10
0.9999999999997674
 20
52.0000000000000284
 30
-0.0000000000000115
 11
0.9999999999997687
 21
32.0000000000000497
 31
-0.0000000000000071
210
0.0
220
1.0
230
-0.0000000000000002
  0
LINE
  5
E1E2
  8
0
  6
VERDECKT
 62
     1
 10
66.999999999999801
 20
52.0000000000000426
 30
-0.0000000000000115
 11
66.999999999999801
 21
32.0000000000000568
 31
-0.0000000000000071
210
0.0
220
1.0
230
-0.0000000000000002
  0
LINE
  5
E1E3
  8
0
  6
VERDECKT
 62
     1
 10
64.9999999999997726
 20
32.0000000000000568
 30
-0.0000000000000071
 11
64.9999999999997726
 21
52.0000000000000426
 31
-0.0000000000000115
210
0.0
220
1.0
230
-0.0000000000000002
  0
LINE
  5
E1E4
  8
0
  6
VERDECKT
 62
     1
 10
64.9999999999997584
 20
42.0000000000000284
 30
-0.0000000000000093
 11
66.9999999999997868
 21
42.0000000000000284
 31
-0.0000000000000093
210
0.0
220
1.0
230
-0.0000000000000002
  0
LINE
  5
E1E5
  8
0
  6
VERDECKT
 62
     1
 10
-100.000000000000199
 20
42.0000000000000071
 30
-0.0000000000000093
 11
-98.0000000000002274
 21
42.0000000000000071
 31
-0.0000000000000093
210
0.0
220
1.0
230
-0.0000000000000002
  0
LINE
  5
E1E6
  8
0
  6
VERDECKT
 62
     1
 10
-100.000000000000199
 20
32.0000000000000497
 30
-0.0000000000000071
 11
-100.000000000000199
 21
52.0000000000000284
 31
-0.0000000000000115
210
0.0
220
1.0
230
-0.0000000000000002
  0
LINE
  5
E1E7
  8
0
  6
VERDECKT
 62
     1
 10
-98.0000000000002274
 20
52.0000000000000213
 30
-0.0000000000000115
 11
-98.0000000000002274
 21
32.0000000000000497
 31
-0.0000000000000071
210
0.0
220
1.0
230
-0.0000000000000002
  0
LINE
  5
E1E8
  8
0
  6
VERDECKT
 62
     1
 10
-65.0000000000002416
 20
52.0000000000000284
 30
-0.0000000000000115
 11
-65.0000000000002416
 21
32.0000000000000497
 31
-0.0000000000000071
210
0.0
220
1.0
230
-0.0000000000000002
  0
LINE
  5
E1E9
  8
0
  6
VERDECKT
 62
     1
 10
-67.0000000000002416
 20
32.0000000000000497
 30
-0.0000000000000071
 11
-67.0000000000002416
 21
52.0000000000000284
 31
-0.0000000000000115
210
0.0
220
1.0
230
-0.0000000000000002
  0
LINE
  5
E1EA
  8
0
  6
VERDECKT
 62
     1
 10
-67.0000000000002842
 20
42.0000000000000071
 30
-0.0000000000000093
 11
-65.0000000000002274
 21
42.0000000000000071
 31
-0.0000000000000093
210
0.0
220
1.0
230
-0.0000000000000002
  0
LINE
  5
E1EB
  8
0
  6
VERDECKT
 62
     1
 10
-133.000000000000199
 20
42.0000000000000071
 30
-0.0000000000000093
 11
-131.000000000000199
 21
42.0000000000000071
 31
-0.0000000000000093
210
0.0
220
1.0
230
-0.0000000000000002
  0
LINE
  5
E1EC
  8
0
  6
VERDECKT
 62
     1
 10
-133.000000000000199
 20
32.0000000000000497
 30
-0.0000000000000071
 11
-133.000000000000199
 21
52.0000000000000213
 31
-0.0000000000000115
210
0.0
220
1.0
230
-0.0000000000000002
  0
LINE
  5
E1ED
  8
0
  6
VERDECKT
 62
     1
 10
-131.000000000000199
 20
52.0000000000000213
 30
-0.0000000000000115
 11
-131.000000000000199
 21
32.0000000000000497
 31
-0.0000000000000071
210
0.0
220
1.0
230
-0.0000000000000002
  0
LINE
  5
E1EE
  8
0
  6
VERDECKT
 62
     1
 10
-32.0000000000002487
 20
52.0000000000000284
 30
-0.0000000000000115
 11
-32.0000000000002487
 21
32.0000000000000497
 31
-0.0000000000000071
210
0.0
220
1.0
230
-0.0000000000000002
  0
LINE
  5
E1EF
  8
0
  6
VERDECKT
 62
     1
 10
-34.0000000000002274
 20
32.0000000000000497
 30
-0.0000000000000071
 11
-34.0000000000002274
 21
52.0000000000000284
 31
-0.0000000000000115
210
0.0
220
1.0
230
-0.0000000000000002
  0
LINE
  5
E1F0
  8
0
  6
VERDECKT
 62
     1
 10
-34.0000000000002274
 20
42.0000000000000213
 30
-0.0000000000000093
 11
-32.0000000000002913
 21
42.0000000000000213
 31
-0.0000000000000093
210
0.0
220
1.0
230
-0.0000000000000002
  0
LINE
  5
E1F1
  8
0
  6
VERDECKT
 62
     1
 10
97.9999999999997442
 20
42.0000000000000284
 30
-0.0000000000000093
 11
99.9999999999997584
 21
42.0000000000000284
 31
-0.0000000000000093
210
0.0
220
1.0
230
-0.0000000000000002
  0
LINE
  5
E1F2
  8
0
  6
VERDECKT
 62
     1
 10
97.9999999999997442
 20
32.0000000000000568
 30
-0.0000000000000071
 11
97.9999999999997442
 21
52.0000000000000426
 31
-0.0000000000000115
210
0.0
220
1.0
230
-0.0000000000000002
  0
LINE
  5
E1F3
  8
0
  6
VERDECKT
 62
     1
 10
99.9999999999997868
 20
52.0000000000000426
 30
-0.0000000000000115
 11
99.9999999999997868
 21
32.0000000000000568
 31
-0.0000000000000071
210
0.0
220
1.0
230
-0.0000000000000002
  0
LINE
  5
E1F4
  8
0
  6
VERDECKT
 62
     1
 10
33.9999999999997868
 20
52.0000000000000426
 30
-0.0000000000000115
 11
33.9999999999997868
 21
32.0000000000000568
 31
-0.0000000000000071
210
0.0
220
1.0
230
-0.0000000000000002
  0
LINE
  5
E1F5
  8
0
  6
VERDECKT
 62
     1
 10
31.9999999999997584
 20
32.0000000000000497
 30
-0.0000000000000071
 11
31.9999999999997584
 21
52.0000000000000284
 31
-0.0000000000000115
210
0.0
220
1.0
230
-0.0000000000000002
  0
LINE
  5
E1F6
  8
0
  6
VERDECKT
 62
     1
 10
31.9999999999997407
 20
42.0000000000000213
 30
-0.0000000000000093
 11
33.9999999999997726
 21
42.0000000000000213
 31
-0.0000000000000093
210
0.0
220
1.0
230
-0.0000000000000002
  0
LINE
  5
E1F7
  8
0
  6
VERDECKT
 62
     1
 10
-166.000000000000199
 20
42.0000000000000071
 30
-0.0000000000000093
 11
-164.000000000000199
 21
42.0000000000000071
 31
-0.0000000000000093
210
0.0
220
1.0
230
-0.0000000000000002
  0
LINE
  5
E1F8
  8
0
  6
VERDECKT
 62
     1
 10
-166.000000000000199
 20
32.0000000000000497
 30
-0.0000000000000071
 11
-166.000000000000199
 21
52.0000000000000213
 31
-0.0000000000000115
210
0.0
220
1.0
230
-0.0000000000000002
  0
LINE
  5
E1F9
  8
0
  6
VERDECKT
 62
     1
 10
-164.000000000000199
 20
52.0000000000000213
 30
-0.0000000000000115
 11
-164.000000000000199
 21
32.0000000000000497
 31
-0.0000000000000071
210
0.0
220
1.0
230
-0.0000000000000002
  0
LINE
  5
E1FA
  8
0
  6
VERDECKT
 62
     1
 10
165.9999999999996874
 20
52.0000000000000497
 30
-0.0000000000000115
 11
165.9999999999996874
 21
32.0000000000000568
 31
-0.0000000000000071
210
0.0
220
1.0
230
-0.0000000000000002
  0
LINE
  5
E1FB
  8
0
  6
VERDECKT
 62
     1
 10
163.9999999999996874
 20
32.0000000000000568
 30
-0.0000000000000071
 11
163.9999999999996874
 21
52.0000000000000497
 31
-0.0000000000000115
210
0.0
220
1.0
230
-0.0000000000000002
  0
LINE
  5
E1FC
  8
0
  6
VERDECKT
 62
     1
 10
163.9999999999996874
 20
42.0000000000000284
 30
-0.0000000000000093
 11
165.9999999999996874
 21
42.0000000000000284
 31
-0.0000000000000093
210
0.0
220
1.0
230
-0.0000000000000002
  0
ENDBLK
  5
E1FE
  8
0
  0
BLOCK
  8
0
  2
A$CF447AE61
 70
     0
 10
0.0
 20
0.0
 30
0.0
  3
A$CF447AE61
  1

  0
LINE
  5
E202
  8
0
  6
CONTINUOUS
 62
     3
 10
-74.0000000000001705
 20
32.0000000000000711
 30
-0.0000000000000071
 11
-76.0000000000001705
 21
32.0000000000000711
 31
-0.0000000000000071
210
-0.0000000000000002
220
1.0
230
-0.0000000000000002
  0
LINE
  5
E203
  8
0
  6
CONTINUOUS
 62
     3
 10
-74.0000000000001705
 20
52.0000000000000213
 30
-0.0000000000000115
 11
-76.0000000000001705
 21
52.0000000000000213
 31
-0.0000000000000115
210
-0.0000000000000002
220
1.0
230
-0.0000000000000002
  0
LINE
  5
E204
  8
0
  6
CONTINUOUS
 62
     3
 10
-74.0000000000001705
 20
32.0000000000000711
 30
-0.0000000000000071
 11
-74.0000000000001705
 21
52.0000000000000284
 31
-0.0000000000000115
210
-0.0000000000000002
220
1.0
230
-0.0000000000000002
  0
LINE
  5
E205
  8
0
  6
CONTINUOUS
 62
     3
 10
-76.0000000000001705
 20
32.0000000000000711
 30
-0.0000000000000071
 11
-76.0000000000001705
 21
52.0000000000000284
 31
-0.0000000000000115
210
-0.0000000000000002
220
1.0
230
-0.0000000000000002
  0
LINE
  5
E206
  8
0
  6
CONTINUOUS
 62
     3
 10
73.9999999999999432
 20
32.0000000000000995
 30
-0.0000000000000071
 11
75.9999999999999432
 21
32.0000000000000995
 31
-0.0000000000000071
210
-0.0000000000000002
220
1.0
230
-0.0000000000000002
  0
LINE
  5
E207
  8
0
  6
CONTINUOUS
 62
     3
 10
73.9999999999999432
 20
52.0000000000000568
 30
-0.0000000000000115
 11
75.9999999999999432
 21
52.0000000000000568
 31
-0.0000000000000115
210
-0.0000000000000002
220
1.0
230
-0.0000000000000002
  0
LINE
  5
E208
  8
0
  6
CONTINUOUS
 62
     3
 10
73.9999999999999432
 20
32.0000000000000995
 30
-0.0000000000000071
 11
73.9999999999999432
 21
52.0000000000000568
 31
-0.0000000000000115
210
-0.0000000000000002
220
1.0
230
-0.0000000000000002
  0
LINE
  5
E209
  8
0
  6
CONTINUOUS
 62
     3
 10
75.9999999999999432
 20
32.0000000000000995
 30
-0.0000000000000071
 11
75.9999999999999432
 21
52.0000000000000568
 31
-0.0000000000000115
210
-0.0000000000000002
220
1.0
230
-0.0000000000000002
  0
LINE
  5
E20A
  8
0
  6
CONTINUOUS
 62
     3
 10
78.5000000000000284
 20
52.0000000000001705
 30
-0.0000000000000115
 11
76.5000000000000284
 21
52.0000000000001705
 31
-0.0000000000000115
210
-0.0000000000000002
220
1.0
230
-0.0000000000000002
  0
LINE
  5
E20B
  8
0
  6
CONTINUOUS
 62
     3
 10
76.5000000000000568
 20
51.0000000000001776
 30
-0.0000000000000113
 11
76.4999999999999716
 21
34.0000000000000711
 31
-0.0000000000000075
210
-0.0000000000000002
220
1.0
230
-0.0000000000000002
  0
LINE
  5
E20C
  8
0
  6
CONTINUOUS
 62
     3
 10
76.5
 20
51.0000000000001705
 30
-0.0000000000000113
 11
76.5
 21
52.0000000000001705
 31
-0.0000000000000115
210
-0.0000000000000002
220
1.0
230
-0.0000000000000002
  0
LINE
  5
E20D
  8
0
  6
CONTINUOUS
 62
     3
 10
78.5
 20
52.0000000000001705
 30
-0.0000000000000115
 11
78.5
 21
51.0000000000001705
 31
-0.0000000000000113
210
-0.0000000000000002
220
1.0
230
-0.0000000000000002
  0
ARC
  5
E20E
  8
0
  6
CONTINUOUS
 62
     3
 10
74.4999999999999432
 20
34.0000000000000711
 30
-0.0000000000000075
 40
4.0000000000000231
 50
269.9999999999998863
 51
359.9999999999985789
  0
LINE
  5
E20F
  8
0
  6
CONTINUOUS
 62
     3
 10
78.4999999999999858
 20
34.0000000000000711
 30
-0.0000000000000075
 11
78.5000000000000142
 21
51.0000000000001705
 31
-0.0000000000000113
210
-0.0000000000000002
220
1.0
230
-0.0000000000000002
  0
ARC
  5
E210
  8
0
  6
CONTINUOUS
 62
     3
 10
-74.4999999999999432
 20
34.0000000000000711
 30
0.0
 40
2.0000000000000249
210
0.0
220
-0.0000000000000002
230
-1.0
 50
180.0
 51
269.9999999999973284
  0
LINE
  5
E211
  8
0
  6
CONTINUOUS
 62
     3
 10
-78.5000000000001705
 20
52.0000000000000995
 30
-0.0000000000000115
 11
-76.5000000000001705
 21
52.0000000000001066
 31
-0.0000000000000115
210
-0.0000000000000002
220
1.0
230
-0.0000000000000002
  0
LINE
  5
E212
  8
0
  6
CONTINUOUS
 62
     3
 10
-76.5000000000001421
 20
51.0000000000001066
 30
-0.0000000000000113
 11
-76.5000000000001421
 21
52.0000000000000995
 31
-0.0000000000000115
210
-0.0000000000000002
220
1.0
230
-0.0000000000000002
  0
LINE
  5
E213
  8
0
  6
CONTINUOUS
 62
     3
 10
-76.5000000000001847
 20
51.0000000000001066
 30
-0.0000000000000113
 11
-76.5000000000001421
 21
34.0
 31
-0.0000000000000075
210
-0.0000000000000002
220
1.0
230
-0.0000000000000002
  0
LINE
  5
E214
  8
0
  6
CONTINUOUS
 62
     3
 10
-78.5000000000001421
 20
52.0000000000000995
 30
-0.0000000000000115
 11
-78.5000000000001421
 21
51.0000000000000995
 31
-0.0000000000000113
210
-0.0000000000000002
220
1.0
230
-0.0000000000000002
  0
ARC
  5
E215
  8
0
  6
CONTINUOUS
 62
     3
 10
74.5000000000000853
 20
34.0000000000000071
 30
0.0
 40
4.0000000000000231
210
0.0
220
-0.0000000000000002
230
-1.0
 50
270.0000000000011937
 51
359.9999999999998863
  0
LINE
  5
E216
  8
0
  6
CONTINUOUS
 62
     3
 10
-78.5000000000001421
 20
34.0000000000000071
 30
-0.0000000000000075
 11
-78.5000000000001705
 21
51.0000000000001066
 31
-0.0000000000000113
210
-0.0000000000000002
220
1.0
230
-0.0000000000000002
  0
ARC
  5
E217
  8
0
  6
CONTINUOUS
 62
     3
 10
-74.5000000000000568
 20
34.0000000000000284
 30
-0.0000000000000075
 40
2.0000000000000568
 50
180.0000000000005969
 51
269.9999999999968168
  0
LINE
  5
E218
  8
0
  6
CONTINUOUS
 62
     3
 10
74.5
 20
30.0000000000000817
 30
-0.0000000000000067
 11
-74.5000000000001421
 21
30.0000000000000107
 31
-0.0000000000000067
210
-0.0000000000000002
220
1.0
230
-0.0000000000000002
  0
LINE
  5
E219
  8
0
  6
CONTINUOUS
 62
     3
 10
-74.5000000000001421
 20
32.0000000000000071
 30
-0.0000000000000071
 11
74.5
 21
32.0000000000000782
 31
-0.0000000000000071
210
-0.0000000000000002
220
1.0
230
-0.0000000000000002
  0
LINE
  5
E21A
  8
0
  6
CONTINUOUS
 62
     3
 10
-74.0000000000001137
 20
32.0000000000000711
 30
-0.0000000000000071
 11
-74.0000000000001137
 21
52.0000000000000284
 31
-0.0000000000000115
210
-0.0000000000000002
220
1.0
230
-0.0000000000000002
  0
LINE
  5
E21B
  8
0
  6
CONTINUOUS
 62
     3
 10
73.9999999999999005
 20
32.0000000000000995
 30
-0.0000000000000071
 11
-74.0000000000001137
 21
32.0000000000000711
 31
-0.0000000000000071
210
-0.0000000000000002
220
1.0
230
-0.0000000000000002
  0
LINE
  5
E21C
  8
0
  6
CONTINUOUS
 62
     3
 10
73.9999999999999005
 20
52.0000000000000568
 30
-0.0000000000000115
 11
73.9999999999999005
 21
32.0000000000000995
 31
-0.0000000000000071
210
-0.0000000000000002
220
1.0
230
-0.0000000000000002
  0
LINE
  5
E21D
  8
0
  6
CONTINUOUS
 62
     3
 10
73.9999999999999005
 20
52.0000000000000568
 30
-0.0000000000000115
 11
-74.0000000000001137
 21
52.0000000000000213
 31
-0.0000000000000115
210
-0.0000000000000002
220
1.0
230
-0.0000000000000002
  0
LINE
  5
E21E
  8
0
  6
CONTINUOUS
 62
     3
 10
39.9999999999999716
 20
0.0000000000000034
 30
0.0
 11
49.9999999999998508
 21
0.0000000000000111
 31
0.0
210
-0.0000000000000002
220
1.0
230
-0.0000000000000002
  0
LINE
  5
E21F
  8
0
  6
CONTINUOUS
 62
     3
 10
49.9999999999998366
 20
0.0000000000000111
 30
0.0
 11
59.9999999999998366
 21
0.0000000000000188
 31
0.0
210
-0.0000000000000002
220
1.0
230
-0.0000000000000002
  0
LINE
  5
E220
  8
0
  6
CONTINUOUS
 62
     3
 10
39.9999999999998366
 20
0.0000000000000089
 30
0.0
 11
39.9999999999998224
 21
30.0000000000000213
 31
-0.0000000000000067
210
-0.0000000000000002
220
1.0
230
-0.0000000000000002
  0
LINE
  5
E221
  8
0
  6
CONTINUOUS
 62
     3
 10
59.9999999999998366
 20
0.0000000000000133
 30
0.0
 11
59.9999999999998224
 21
30.0000000000000284
 31
-0.0000000000000067
210
-0.0000000000000002
220
1.0
230
-0.0000000000000002
  0
LINE
  5
E222
  8
0
  6
CONTINUOUS
 62
     3
 10
-59.9999999999997371
 20
-0.0000000000000127
 30
0.0
 11
-49.9999999999998579
 21
-0.0000000000000111
 31
0.0
210
-0.0000000000000002
220
1.0
230
-0.0000000000000002
  0
LINE
  5
E223
  8
0
  6
CONTINUOUS
 62
     3
 10
-49.9999999999998579
 20
-0.0000000000000111
 30
0.0
 11
-39.9999999999998579
 21
-0.0000000000000095
 31
0.0
210
-0.0000000000000002
220
1.0
230
-0.0000000000000002
  0
LINE
  5
E224
  8
0
  6
CONTINUOUS
 62
     3
 10
-39.9999999999998721
 20
30.0000000000000107
 30
-0.0000000000000067
 11
-39.9999999999998579
 21
-0.0000000000000089
 31
0.0
210
-0.0000000000000002
220
1.0
230
-0.0000000000000002
  0
LINE
  5
E225
  8
0
  6
CONTINUOUS
 62
     3
 10
-59.9999999999998721
 20
30.0
 30
-0.0000000000000067
 11
-59.9999999999998579
 21
-0.0000000000000133
 31
0.0
210
-0.0000000000000002
220
1.0
230
-0.0000000000000002
  0
LINE
  5
E226
  8
0
  6
VERDECKT
 62
     1
 10
0.9999999999998912
 20
52.0000000000000426
 30
-0.0000000000000115
 11
0.9999999999998935
 21
42.0000000000000497
 31
-0.0000000000000093
210
-0.0000000000000002
220
1.0
230
-0.0000000000000002
  0
LINE
  5
E227
  8
0
  6
VERDECKT
 62
     1
 10
-1.000000000000107
 20
42.0000000000000497
 30
-0.0000000000000093
 11
-1.000000000000109
 21
52.0000000000000426
 31
-0.0000000000000115
210
-0.0000000000000002
220
1.0
230
-0.0000000000000002
  0
LINE
  5
E228
  8
0
  6
VERDECKT
 62
     1
 10
0.9999999999998935
 20
42.0000000000000497
 30
-0.0000000000000093
 11
-1.0000000000001059
 21
42.0000000000000497
 31
-0.0000000000000093
210
-0.0000000000000002
220
1.0
230
-0.0000000000000002
  0
LINE
  5
E229
  8
0
  6
VERDECKT
 62
     1
 10
-65.6000000000001364
 20
52.0000000000000213
 30
-0.0000000000000115
 11
-65.6000000000001364
 21
42.0000000000000426
 31
-0.0000000000000093
210
-0.0000000000000002
220
1.0
230
-0.0000000000000002
  0
LINE
  5
E22A
  8
0
  6
VERDECKT
 62
     1
 10
-67.6000000000001222
 20
42.0000000000000426
 30
-0.0000000000000093
 11
-67.6000000000001222
 21
52.0000000000000213
 31
-0.0000000000000115
210
-0.0000000000000002
220
1.0
230
-0.0000000000000002
  0
LINE
  5
E22B
  8
0
  6
VERDECKT
 62
     1
 10
-65.6000000000001222
 20
42.0000000000000426
 30
-0.0000000000000093
 11
-67.6000000000001222
 21
42.0000000000000426
 31
-0.0000000000000093
210
-0.0000000000000002
220
1.0
230
-0.0000000000000002
  0
LINE
  5
E22C
  8
0
  6
VERDECKT
 62
     1
 10
-54.5000000000001421
 20
52.0000000000000213
 30
-0.0000000000000115
 11
-54.5000000000001279
 21
42.0000000000000426
 31
-0.0000000000000093
210
-0.0000000000000002
220
1.0
230
-0.0000000000000002
  0
LINE
  5
E22D
  8
0
  6
VERDECKT
 62
     1
 10
-56.5000000000001208
 20
42.0000000000000426
 30
-0.0000000000000093
 11
-56.5000000000001208
 21
52.0000000000000213
 31
-0.0000000000000115
210
-0.0000000000000002
220
1.0
230
-0.0000000000000002
  0
LINE
  5
E22E
  8
0
  6
VERDECKT
 62
     1
 10
-54.5000000000001279
 20
42.0000000000000426
 30
-0.0000000000000093
 11
-56.5000000000001208
 21
42.0000000000000426
 31
-0.0000000000000093
210
-0.0000000000000002
220
1.0
230
-0.0000000000000002
  0
LINE
  5
E22F
  8
0
  6
VERDECKT
 62
     1
 10
-43.4000000000001194
 20
52.0000000000000284
 30
-0.0000000000000115
 11
-43.4000000000001123
 21
42.0000000000000497
 31
-0.0000000000000093
210
-0.0000000000000002
220
1.0
230
-0.0000000000000002
  0
LINE
  5
E230
  8
0
  6
VERDECKT
 62
     1
 10
-45.4000000000001194
 20
42.0000000000000497
 30
-0.0000000000000093
 11
-45.4000000000001194
 21
52.0000000000000284
 31
-0.0000000000000115
210
-0.0000000000000002
220
1.0
230
-0.0000000000000002
  0
LINE
  5
E231
  8
0
  6
VERDECKT
 62
     1
 10
-43.4000000000001194
 20
42.0000000000000497
 30
-0.0000000000000093
 11
-45.4000000000001194
 21
42.0000000000000497
 31
-0.0000000000000093
210
-0.0000000000000002
220
1.0
230
-0.0000000000000002
  0
LINE
  5
E232
  8
0
  6
VERDECKT
 62
     1
 10
-32.300000000000118
 20
52.0000000000000284
 30
-0.0000000000000115
 11
-32.3000000000001108
 21
42.0000000000000497
 31
-0.0000000000000093
210
-0.0000000000000002
220
1.0
230
-0.0000000000000002
  0
LINE
  5
E233
  8
0
  6
VERDECKT
 62
     1
 10
-34.300000000000118
 20
42.0000000000000497
 30
-0.0000000000000093
 11
-34.3000000000001322
 21
52.0000000000000284
 31
-0.0000000000000115
210
-0.0000000000000002
220
1.0
230
-0.0000000000000002
  0
LINE
  5
E234
  8
0
  6
VERDECKT
 62
     1
 10
-32.3000000000001108
 20
42.0000000000000497
 30
-0.0000000000000093
 11
-34.3000000000001108
 21
42.0000000000000497
 31
-0.0000000000000093
210
-0.0000000000000002
220
1.0
230
-0.0000000000000002
  0
LINE
  5
E235
  8
0
  6
VERDECKT
 62
     1
 10
-21.2000000000001201
 20
52.0000000000000284
 30
-0.0000000000000115
 11
-21.2000000000001201
 21
42.0000000000000497
 31
-0.0000000000000093
210
-0.0000000000000002
220
1.0
230
-0.0000000000000002
  0
LINE
  5
E236
  8
0
  6
VERDECKT
 62
     1
 10
-23.2000000000001094
 20
42.0000000000000497
 30
-0.0000000000000093
 11
-23.2000000000001094
 21
52.0000000000000284
 31
-0.0000000000000115
210
-0.0000000000000002
220
1.0
230
-0.0000000000000002
  0
LINE
  5
E237
  8
0
  6
VERDECKT
 62
     1
 10
-21.2000000000001201
 20
42.0000000000000497
 30
-0.0000000000000093
 11
-23.2000000000001201
 21
42.0000000000000497
 31
-0.0000000000000093
210
-0.0000000000000002
220
1.0
230
-0.0000000000000002
  0
LINE
  5
E238
  8
0
  6
VERDECKT
 62
     1
 10
-10.1000000000001204
 20
52.0000000000000426
 30
-0.0000000000000115
 11
-10.1000000000001098
 21
42.0000000000000497
 31
-0.0000000000000093
210
-0.0000000000000002
220
1.0
230
-0.0000000000000002
  0
LINE
  5
E239
  8
0
  6
VERDECKT
 62
     1
 10
-12.1000000000001098
 20
42.0000000000000497
 30
-0.0000000000000093
 11
-12.1000000000001098
 21
52.0000000000000426
 31
-0.0000000000000115
210
-0.0000000000000002
220
1.0
230
-0.0000000000000002
  0
LINE
  5
E23A
  8
0
  6
VERDECKT
 62
     1
 10
-10.1000000000001098
 20
42.0000000000000497
 30
-0.0000000000000093
 11
-12.1000000000001098
 21
42.0000000000000497
 31
-0.0000000000000093
210
-0.0000000000000002
220
1.0
230
-0.0000000000000002
  0
LINE
  5
E23B
  8
0
  6
VERDECKT
 62
     1
 10
12.0999999999998895
 20
52.0000000000000426
 30
-0.0000000000000115
 11
12.0999999999998895
 21
42.0000000000000497
 31
-0.0000000000000093
210
-0.0000000000000002
220
1.0
230
-0.0000000000000002
  0
LINE
  5
E23C
  8
0
  6
VERDECKT
 62
     1
 10
10.0999999999999002
 20
42.0000000000000497
 30
-0.0000000000000093
 11
10.0999999999999002
 21
52.0000000000000426
 31
-0.0000000000000115
210
-0.0000000000000002
220
1.0
230
-0.0000000000000002
  0
LINE
  5
E23D
  8
0
  6
VERDECKT
 62
     1
 10
12.0999999999999002
 20
42.0000000000000497
 30
-0.0000000000000093
 11
10.0999999999999002
 21
42.0000000000000497
 31
-0.0000000000000093
210
-0.0000000000000002
220
1.0
230
-0.0000000000000002
  0
LINE
  5
E23E
  8
0
  6
VERDECKT
 62
     1
 10
23.1999999999998998
 20
52.0000000000000497
 30
-0.0000000000000115
 11
23.1999999999998998
 21
42.0000000000000568
 31
-0.0000000000000093
210
-0.0000000000000002
220
1.0
230
-0.0000000000000002
  0
LINE
  5
E23F
  8
0
  6
VERDECKT
 62
     1
 10
21.1999999999999105
 20
42.0000000000000568
 30
-0.0000000000000093
 11
21.1999999999999105
 21
52.0000000000000497
 31
-0.0000000000000115
210
-0.0000000000000002
220
1.0
230
-0.0000000000000002
  0
LINE
  5
E240
  8
0
  6
VERDECKT
 62
     1
 10
23.1999999999998998
 20
42.0000000000000568
 30
-0.0000000000000093
 11
21.1999999999998998
 21
42.0000000000000568
 31
-0.0000000000000093
210
-0.0000000000000002
220
1.0
230
-0.0000000000000002
  0
LINE
  5
E241
  8
0
  6
VERDECKT
 62
     1
 10
34.2999999999998906
 20
52.0000000000000497
 30
-0.0000000000000115
 11
34.2999999999998977
 21
42.0000000000000568
 31
-0.0000000000000093
210
-0.0000000000000002
220
1.0
230
-0.0000000000000002
  0
LINE
  5
E242
  8
0
  6
VERDECKT
 62
     1
 10
32.2999999999999119
 20
42.0000000000000568
 30
-0.0000000000000093
 11
32.2999999999998977
 21
52.0000000000000497
 31
-0.0000000000000115
210
-0.0000000000000002
220
1.0
230
-0.0000000000000002
  0
LINE
  5
E243
  8
0
  6
VERDECKT
 62
     1
 10
34.2999999999998977
 20
42.0000000000000568
 30
-0.0000000000000093
 11
32.2999999999998977
 21
42.0000000000000568
 31
-0.0000000000000093
210
-0.0000000000000002
220
1.0
230
-0.0000000000000002
  0
LINE
  5
E244
  8
0
  6
VERDECKT
 62
     1
 10
45.3999999999998991
 20
52.0000000000000497
 30
-0.0000000000000115
 11
45.3999999999999133
 21
42.0000000000000568
 31
-0.0000000000000093
210
-0.0000000000000002
220
1.0
230
-0.0000000000000002
  0
LINE
  5
E245
  8
0
  6
VERDECKT
 62
     1
 10
43.3999999999999133
 20
42.0000000000000568
 30
-0.0000000000000093
 11
43.3999999999999133
 21
52.0000000000000497
 31
-0.0000000000000115
210
-0.0000000000000002
220
1.0
230
-0.0000000000000002
  0
LINE
  5
E246
  8
0
  6
VERDECKT
 62
     1
 10
45.3999999999999133
 20
42.0000000000000568
 30
-0.0000000000000093
 11
43.3999999999999133
 21
42.0000000000000568
 31
-0.0000000000000093
210
-0.0000000000000002
220
1.0
230
-0.0000000000000002
  0
LINE
  5
E247
  8
0
  6
VERDECKT
 62
     1
 10
56.4999999999999005
 20
52.0000000000000568
 30
-0.0000000000000115
 11
56.4999999999999076
 21
42.0000000000000711
 31
-0.0000000000000093
210
-0.0000000000000002
220
1.0
230
-0.0000000000000002
  0
LINE
  5
E248
  8
0
  6
VERDECKT
 62
     1
 10
54.4999999999999218
 20
42.0000000000000711
 30
-0.0000000000000093
 11
54.4999999999999218
 21
52.0000000000000568
 31
-0.0000000000000115
210
-0.0000000000000002
220
1.0
230
-0.0000000000000002
  0
LINE
  5
E249
  8
0
  6
VERDECKT
 62
     1
 10
56.4999999999999076
 20
42.0000000000000711
 30
-0.0000000000000093
 11
54.4999999999999218
 21
42.0000000000000711
 31
-0.0000000000000093
210
-0.0000000000000002
220
1.0
230
-0.0000000000000002
  0
LINE
  5
E24A
  8
0
  6
VERDECKT
 62
     1
 10
67.5999999999998948
 20
52.0000000000000568
 30
-0.0000000000000115
 11
67.5999999999998948
 21
42.0000000000000711
 31
-0.0000000000000093
210
-0.0000000000000002
220
1.0
230
-0.0000000000000002
  0
LINE
  5
E24B
  8
0
  6
VERDECKT
 62
     1
 10
65.5999999999999091
 20
42.0000000000000711
 30
-0.0000000000000093
 11
65.5999999999999091
 21
52.0000000000000568
 31
-0.0000000000000115
210
-0.0000000000000002
220
1.0
230
-0.0000000000000002
  0
LINE
  5
E24C
  8
0
  6
VERDECKT
 62
     1
 10
67.5999999999998948
 20
42.0000000000000711
 30
-0.0000000000000093
 11
65.5999999999998948
 21
42.0000000000000711
 31
-0.0000000000000093
210
-0.0000000000000002
220
1.0
230
-0.0000000000000002
  0
LINE
  5
E24D
  8
0
  6
VERDECKT
 62
     1
 10
39.9999999999999503
 20
32.0000000000000568
 30
-0.0000000000000071
 11
39.9999999999999503
 21
30.0000000000000711
 31
-0.0000000000000067
210
-0.0000000000000002
220
1.0
230
-0.0000000000000002
  0
LINE
  5
E24E
  8
0
  6
VERDECKT
 62
     1
 10
-40.0000000000000568
 20
30.0000000000000284
 30
-0.0000000000000067
 11
-40.0000000000000568
 21
32.0000000000000284
 31
-0.0000000000000071
210
-0.0000000000000002
220
1.0
230
-0.0000000000000002
  0
LINE
  5
E24F
  8
0
  6
VERDECKT
 62
     1
 10
43.9999999999999432
 20
30.0000000000000711
 30
-0.0000000000000067
 11
43.9999999999999432
 21
32.0000000000000568
 31
-0.0000000000000071
210
-0.0000000000000002
220
1.0
230
-0.0000000000000002
  0
LINE
  5
E250
  8
0
  6
VERDECKT
 62
     1
 10
55.9999999999999503
 20
30.0000000000000711
 30
-0.0000000000000067
 11
55.9999999999999503
 21
32.0000000000000711
 31
-0.0000000000000071
210
-0.0000000000000002
220
1.0
230
-0.0000000000000002
  0
LINE
  5
E251
  8
0
  6
VERDECKT
 62
     1
 10
-56.0000000000000711
 20
30.0000000000000213
 30
-0.0000000000000067
 11
-56.0000000000000711
 21
32.0000000000000071
 31
-0.0000000000000071
210
-0.0000000000000002
220
1.0
230
-0.0000000000000002
  0
LINE
  5
E252
  8
0
  6
VERDECKT
 62
     1
 10
-44.0000000000000426
 20
30.0000000000000213
 30
-0.0000000000000067
 11
-44.0000000000000426
 21
32.0000000000000213
 31
-0.0000000000000071
210
-0.0000000000000002
220
1.0
230
-0.0000000000000002
  0
LINE
  5
E253
  8
0
  6
VERDECKT
 62
     1
 10
54.0000000000000497
 20
19.0000000000000213
 30
-0.0000000000000042
 11
45.9999999999995879
 21
19.0000000000000107
 31
-0.0000000000000042
210
-0.0000000000000002
220
1.0
230
-0.0000000000000002
  0
LINE
  5
E254
  8
0
  6
VERDECKT
 62
     1
 10
54.9999999999998295
 20
20.0000000000001386
 30
-0.0000000000000044
 11
44.9999999999998224
 21
20.0000000000001315
 31
-0.0000000000000044
210
-0.0000000000000002
220
1.0
230
-0.0000000000000002
  0
LINE
  5
E255
  8
0
  6
VERDECKT
 62
     1
 10
54.9999999999998295
 20
18.0000000000000213
 30
-0.000000000000004
 11
44.9999999999998224
 21
18.0000000000000107
 31
-0.000000000000004
210
-0.0000000000000002
220
1.0
230
-0.0000000000000002
  0
LINE
  5
E256
  8
0
  6
VERDECKT
 62
     1
 10
54.0000000000000497
 20
17.0000000000000213
 30
-0.0000000000000038
 11
45.9999999999995879
 21
17.0000000000000107
 31
-0.0000000000000038
210
-0.0000000000000002
220
1.0
230
-0.0000000000000002
  0
LINE
  5
E257
  8
0
  6
VERDECKT
 62
     1
 10
54.9999999999998295
 20
16.0000000000000213
 30
-0.0000000000000036
 11
44.9999999999998295
 21
16.0000000000000107
 31
-0.0000000000000036
210
-0.0000000000000002
220
1.0
230
-0.0000000000000002
  0
LINE
  5
E258
  8
0
  6
VERDECKT
 62
     1
 10
54.0000000000002913
 20
15.0000000000000195
 30
-0.0000000000000033
 11
45.9999999999993676
 21
15.0000000000000107
 31
-0.0000000000000033
210
-0.0000000000000002
220
1.0
230
-0.0000000000000002
  0
LINE
  5
E259
  8
0
  6
VERDECKT
 62
     1
 10
55.0000000000000711
 20
14.0000000000000195
 30
-0.0000000000000031
 11
44.9999999999996021
 21
14.0000000000000107
 31
-0.0000000000000031
210
-0.0000000000000002
220
1.0
230
-0.0000000000000002
  0
LINE
  5
E25A
  8
0
  6
VERDECKT
 62
     1
 10
54.0000000000002984
 20
13.0000000000000195
 30
-0.0000000000000029
 11
45.9999999999993818
 21
13.0000000000000107
 31
-0.0000000000000029
210
-0.0000000000000002
220
1.0
230
-0.0000000000000002
  0
LINE
  5
E25B
  8
0
  6
VERDECKT
 62
     1
 10
54.9999999999998366
 20
12.0000000000000195
 30
-0.0000000000000027
 11
44.9999999999998366
 21
12.0000000000000107
 31
-0.0000000000000027
210
-0.0000000000000002
220
1.0
230
-0.0000000000000002
  0
LINE
  5
E25C
  8
0
  6
VERDECKT
 62
     1
 10
54.0000000000002984
 20
11.0000000000000195
 30
-0.0000000000000024
 11
45.9999999999993818
 21
11.0000000000000107
 31
-0.0000000000000024
210
-0.0000000000000002
220
1.0
230
-0.0000000000000002
  0
LINE
  5
E25D
  8
0
  6
VERDECKT
 62
     1
 10
54.9999999999998366
 20
10.0000000000000195
 30
-0.0000000000000022
 11
44.9999999999998366
 21
10.0000000000000107
 31
-0.0000000000000022
210
-0.0000000000000002
220
1.0
230
-0.0000000000000002
  0
LINE
  5
E25E
  8
0
  6
VERDECKT
 62
     1
 10
54.0000000000002984
 20
9.0000000000000178
 30
-0.000000000000002
 11
45.9999999999993818
 21
9.0000000000000124
 31
-0.000000000000002
210
-0.0000000000000002
220
1.0
230
-0.0000000000000002
  0
LINE
  5
E25F
  8
0
  6
VERDECKT
 62
     1
 10
54.9999999999998366
 20
8.0000000000000195
 30
-0.0000000000000018
 11
44.9999999999998366
 21
8.0000000000000107
 31
-0.0000000000000018
210
-0.0000000000000002
220
1.0
230
-0.0000000000000002
  0
LINE
  5
E260
  8
0
  6
VERDECKT
 62
     1
 10
54.0000000000002984
 20
7.0000000000000169
 30
-0.0000000000000016
 11
45.9999999999993818
 21
7.0000000000000098
 31
-0.0000000000000016
210
-0.0000000000000002
220
1.0
230
-0.0000000000000002
  0
LINE
  5
E261
  8
0
  6
VERDECKT
 62
     1
 10
54.9999999999998366
 20
6.0000000000000169
 30
-0.0000000000000013
 11
44.9999999999998366
 21
6.0000000000000089
 31
-0.0000000000000013
210
-0.0000000000000002
220
1.0
230
-0.0000000000000002
  0
LINE
  5
E262
  8
0
  6
VERDECKT
 62
     1
 10
54.0000000000002984
 20
5.000000000000016
 30
-0.0000000000000011
 11
45.9999999999993818
 21
5.0000000000000089
 31
-0.0000000000000011
210
-0.0000000000000002
220
1.0
230
-0.0000000000000002
  0
LINE
  5
E263
  8
0
  6
VERDECKT
 62
     1
 10
55.0000000000000711
 20
4.000000000000016
 30
-0.0000000000000009
 11
44.9999999999996021
 21
4.000000000000008
 31
-0.0000000000000009
210
-0.0000000000000002
220
1.0
230
-0.0000000000000002
  0
LINE
  5
E264
  8
0
  6
VERDECKT
 62
     1
 10
54.0000000000002984
 20
3.0000000000000151
 30
-0.0000000000000007
 11
45.9999999999993818
 21
3.0000000000000089
 31
-0.0000000000000007
210
-0.0000000000000002
220
1.0
230
-0.0000000000000002
  0
LINE
  5
E265
  8
0
  6
VERDECKT
 62
     1
 10
54.9999999999998366
 20
2.0000000000000151
 30
-0.0000000000000004
 11
44.9999999999998366
 21
2.0000000000000071
 31
-0.0000000000000004
210
-0.0000000000000002
220
1.0
230
-0.0000000000000002
  0
LINE
  5
E266
  8
0
  6
VERDECKT
 62
     1
 10
54.0000000000002984
 20
1.000000000000014
 30
-0.0000000000000002
 11
45.9999999999993818
 21
1.000000000000008
 31
-0.0000000000000002
210
-0.0000000000000002
220
1.0
230
-0.0000000000000002
  0
LINE
  5
E267
  8
0
  6
VERDECKT
 62
     1
 10
54.0000000000000497
 20
29.0000000000000284
 30
-0.0000000000000064
 11
45.9999999999995879
 21
29.0000000000000213
 31
-0.0000000000000064
210
-0.0000000000000002
220
1.0
230
-0.0000000000000002
  0
LINE
  5
E268
  8
0
  6
VERDECKT
 62
     1
 10
54.9999999999998295
 20
28.0000000000000284
 30
-0.0000000000000062
 11
44.9999999999998224
 21
28.0000000000000213
 31
-0.0000000000000062
210
-0.0000000000000002
220
1.0
230
-0.0000000000000002
  0
LINE
  5
E269
  8
0
  6
VERDECKT
 62
     1
 10
54.0000000000000497
 20
27.0000000000000284
 30
-0.000000000000006
 11
45.9999999999995879
 21
27.0000000000000213
 31
-0.000000000000006
210
-0.0000000000000002
220
1.0
230
-0.0000000000000002
  0
LINE
  5
E26A
  8
0
  6
VERDECKT
 62
     1
 10
54.9999999999998366
 20
26.0000000000000284
 30
-0.0000000000000058
 11
44.9999999999998295
 21
26.0000000000000213
 31
-0.0000000000000058
210
-0.0000000000000002
220
1.0
230
-0.0000000000000002
  0
LINE
  5
E26B
  8
0
  6
VERDECKT
 62
     1
 10
54.0000000000002913
 20
25.0000000000000284
 30
-0.0000000000000056
 11
45.9999999999993676
 21
25.0000000000000213
 31
-0.0000000000000056
210
-0.0000000000000002
220
1.0
230
-0.0000000000000002
  0
LINE
  5
E26C
  8
0
  6
VERDECKT
 62
     1
 10
55.0000000000000711
 20
24.0000000000000284
 30
-0.0000000000000053
 11
44.9999999999996021
 21
24.0000000000000213
 31
-0.0000000000000053
210
-0.0000000000000002
220
1.0
230
-0.0000000000000002
  0
LINE
  5
E26D
  8
0
  6
VERDECKT
 62
     1
 10
54.0000000000002913
 20
23.0000000000000213
 30
-0.0000000000000051
 11
45.9999999999993676
 21
23.0000000000000213
 31
-0.0000000000000051
210
-0.0000000000000002
220
1.0
230
-0.0000000000000002
  0
LINE
  5
E26E
  8
0
  6
VERDECKT
 62
     1
 10
54.9999999999998366
 20
22.0000000000000213
 30
-0.0000000000000049
 11
44.9999999999998295
 21
22.0000000000000213
 31
-0.0000000000000049
210
-0.0000000000000002
220
1.0
230
-0.0000000000000002
  0
LINE
  5
E26F
  8
0
  6
VERDECKT
 62
     1
 10
54.0000000000002913
 20
21.0000000000000284
 30
-0.0000000000000047
 11
45.9999999999993676
 21
21.0000000000000213
 31
-0.0000000000000047
210
-0.0000000000000002
220
1.0
230
-0.0000000000000002
  0
LINE
  5
E270
  8
0
  6
VERDECKT
 62
     1
 10
45.9999999999996803
 20
19.0000000000000995
 30
-0.0000000000000042
 11
44.9999999999999076
 21
20.0000000000002203
 31
-0.0000000000000044
210
-0.0000000000000002
220
1.0
230
-0.0000000000000002
  0
LINE
  5
E271
  8
0
  6
VERDECKT
 62
     1
 10
53.9999999999999716
 20
19.0000000000001101
 30
-0.0000000000000042
 11
54.9999999999997513
 21
20.0000000000002309
 31
-0.0000000000000044
210
-0.0000000000000002
220
1.0
230
-0.0000000000000002
  0
LINE
  5
E272
  8
0
  6
VERDECKT
 62
     1
 10
54.0
 20
18.9999999999999609
 30
-0.0000000000000042
 11
54.9999999999997726
 21
17.9999999999999609
 31
-0.000000000000004
210
-0.0000000000000002
220
1.0
230
-0.0000000000000002
  0
LINE
  5
E273
  8
0
  6
VERDECKT
 62
     1
 10
45.9999999999996518
 20
18.9999999999999609
 30
-0.0000000000000042
 11
44.9999999999998792
 21
17.9999999999999609
 31
-0.000000000000004
210
-0.0000000000000002
220
1.0
230
-0.0000000000000002
  0
LINE
  5
E274
  8
0
  6
VERDECKT
 62
     1
 10
45.9999999999996518
 20
17.0000000000000711
 30
-0.0000000000000038
 11
44.9999999999998792
 21
18.0000000000000711
 31
-0.000000000000004
210
-0.0000000000000002
220
1.0
230
-0.0000000000000002
  0
LINE
  5
E275
  8
0
  6
VERDECKT
 62
     1
 10
54.0
 20
17.0000000000000817
 30
-0.0000000000000038
 11
54.9999999999997726
 21
18.0000000000000711
 31
-0.000000000000004
210
-0.0000000000000002
220
1.0
230
-0.0000000000000002
  0
LINE
  5
E276
  8
0
  6
VERDECKT
 62
     1
 10
54.0
 20
16.9999999999999609
 30
-0.0000000000000038
 11
54.9999999999997797
 21
15.9999999999999591
 31
-0.0000000000000036
210
-0.0000000000000002
220
1.0
230
-0.0000000000000002
  0
LINE
  5
E277
  8
0
  6
VERDECKT
 62
     1
 10
45.9999999999996518
 20
16.9999999999999503
 30
-0.0000000000000038
 11
44.9999999999998792
 21
15.9999999999999591
 31
-0.0000000000000036
210
-0.0000000000000002
220
1.0
230
-0.0000000000000002
  0
LINE
  5
E278
  8
0
  6
VERDECKT
 62
     1
 10
45.9999999999993676
 20
15.0000000000000107
 30
-0.0000000000000033
 11
44.9999999999998295
 21
16.0000000000000107
 31
-0.0000000000000036
210
-0.0000000000000002
220
1.0
230
-0.0000000000000002
  0
LINE
  5
E279
  8
0
  6
VERDECKT
 62
     1
 10
54.0000000000002913
 20
15.0000000000000195
 30
-0.0000000000000033
 11
54.9999999999998295
 21
16.0000000000000213
 31
-0.0000000000000036
210
-0.0000000000000002
220
1.0
230
-0.0000000000000002
  0
LINE
  5
E27A
  8
0
  6
VERDECKT
 62
     1
 10
54.0000000000003411
 20
15.0000000000000799
 30
-0.0000000000000033
 11
55.0000000000001208
 21
14.0000000000000799
 31
-0.0000000000000031
210
-0.0000000000000002
220
1.0
230
-0.0000000000000002
  0
LINE
  5
E27B
  8
0
  6
VERDECKT
 62
     1
 10
45.9999999999993179
 20
15.0000000000000693
 30
-0.0000000000000033
 11
44.9999999999995381
 21
14.0000000000000693
 31
-0.0000000000000031
210
-0.0000000000000002
220
1.0
230
-0.0000000000000002
  0
LINE
  5
E27C
  8
0
  6
VERDECKT
 62
     1
 10
45.9999999999993321
 20
12.9999999999999591
 30
-0.0000000000000029
 11
44.9999999999995524
 21
13.9999999999999591
 31
-0.0000000000000031
210
-0.0000000000000002
220
1.0
230
-0.0000000000000002
  0
LINE
  5
E27D
  8
0
  6
VERDECKT
 62
     1
 10
54.0000000000003482
 20
12.9999999999999591
 30
-0.0000000000000029
 11
55.0000000000001279
 21
13.9999999999999591
 31
-0.0000000000000031
210
-0.0000000000000002
220
1.0
230
-0.0000000000000002
  0
LINE
  5
E27E
  8
0
  6
VERDECKT
 62
     1
 10
54.0000000000002984
 20
13.0000000000000195
 30
-0.0000000000000029
 11
54.9999999999998366
 21
12.0000000000000195
 31
-0.0000000000000027
210
-0.0000000000000002
220
1.0
230
-0.0000000000000002
  0
LINE
  5
E27F
  8
0
  6
VERDECKT
 62
     1
 10
45.9999999999993818
 20
13.0000000000000107
 30
-0.0000000000000029
 11
44.9999999999998366
 21
12.0000000000000107
 31
-0.0000000000000027
210
-0.0000000000000002
220
1.0
230
-0.0000000000000002
  0
LINE
  5
E280
  8
0
  6
VERDECKT
 62
     1
 10
45.9999999999993818
 20
11.0000000000000107
 30
-0.0000000000000024
 11
44.9999999999998366
 21
12.0000000000000107
 31
-0.0000000000000027
210
-0.0000000000000002
220
1.0
230
-0.0000000000000002
  0
LINE
  5
E281
  8
0
  6
VERDECKT
 62
     1
 10
54.0000000000002984
 20
11.0000000000000195
 30
-0.0000000000000024
 11
54.9999999999998366
 21
12.0000000000000195
 31
-0.0000000000000027
210
-0.0000000000000002
220
1.0
230
-0.0000000000000002
  0
LINE
  5
E282
  8
0
  6
VERDECKT
 62
     1
 10
54.0000000000002984
 20
11.0000000000000195
 30
-0.0000000000000024
 11
54.9999999999998366
 21
10.0000000000000195
 31
-0.0000000000000022
210
-0.0000000000000002
220
1.0
230
-0.0000000000000002
  0
LINE
  5
E283
  8
0
  6
VERDECKT
 62
     1
 10
45.9999999999993818
 20
11.0000000000000107
 30
-0.0000000000000024
 11
44.9999999999998366
 21
10.0000000000000107
 31
-0.0000000000000022
210
-0.0000000000000002
220
1.0
230
-0.0000000000000002
  0
LINE
  5
E284
  8
0
  6
VERDECKT
 62
     1
 10
45.9999999999993818
 20
9.0000000000000124
 30
-0.000000000000002
 11
44.9999999999998366
 21
10.0000000000000107
 31
-0.0000000000000022
210
-0.0000000000000002
220
1.0
230
-0.0000000000000002
  0
LINE
  5
E285
  8
0
  6
VERDECKT
 62
     1
 10
54.0000000000002984
 20
9.0000000000000178
 30
-0.000000000000002
 11
54.9999999999998366
 21
10.0000000000000195
 31
-0.0000000000000022
210
-0.0000000000000002
220
1.0
230
-0.0000000000000002
  0
LINE
  5
E286
  8
0
  6
VERDECKT
 62
     1
 10
54.0000000000002984
 20
9.0000000000000178
 30
-0.000000000000002
 11
54.9999999999998366
 21
8.0000000000000195
 31
-0.0000000000000018
210
-0.0000000000000002
220
1.0
230
-0.0000000000000002
  0
LINE
  5
E287
  8
0
  6
VERDECKT
 62
     1
 10
45.9999999999993818
 20
9.0000000000000124
 30
-0.000000000000002
 11
44.9999999999998366
 21
8.0000000000000107
 31
-0.0000000000000018
210
-0.0000000000000002
220
1.0
230
-0.0000000000000002
  0
LINE
  5
E288
  8
0
  6
VERDECKT
 62
     1
 10
45.9999999999993818
 20
7.0000000000000098
 30
-0.0000000000000016
 11
44.9999999999998366
 21
8.0000000000000107
 31
-0.0000000000000018
210
-0.0000000000000002
220
1.0
230
-0.0000000000000002
  0
LINE
  5
E289
  8
0
  6
VERDECKT
 62
     1
 10
54.0000000000002984
 20
7.0000000000000169
 30
-0.0000000000000016
 11
54.9999999999998366
 21
8.0000000000000195
 31
-0.0000000000000018
210
-0.0000000000000002
220
1.0
230
-0.0000000000000002
  0
LINE
  5
E28A
  8
0
  6
VERDECKT
 62
     1
 10
54.0000000000002984
 20
7.0000000000000169
 30
-0.0000000000000016
 11
54.9999999999998366
 21
6.0000000000000169
 31
-0.0000000000000013
210
-0.0000000000000002
220
1.0
230
-0.0000000000000002
  0
LINE
  5
E28B
  8
0
  6
VERDECKT
 62
     1
 10
45.9999999999993818
 20
7.0000000000000098
 30
-0.0000000000000016
 11
44.9999999999998366
 21
6.0000000000000089
 31
-0.0000000000000013
210
-0.0000000000000002
220
1.0
230
-0.0000000000000002
  0
LINE
  5
E28C
  8
0
  6
VERDECKT
 62
     1
 10
45.9999999999993818
 20
5.0000000000000089
 30
-0.0000000000000011
 11
44.9999999999998366
 21
6.0000000000000089
 31
-0.0000000000000013
210
-0.0000000000000002
220
1.0
230
-0.0000000000000002
  0
LINE
  5
E28D
  8
0
  6
VERDECKT
 62
     1
 10
54.0000000000002984
 20
5.000000000000016
 30
-0.0000000000000011
 11
54.9999999999998366
 21
6.0000000000000169
 31
-0.0000000000000013
210
-0.0000000000000002
220
1.0
230
-0.0000000000000002
  0
LINE
  5
E28E
  8
0
  6
VERDECKT
 62
     1
 10
54.0000000000003482
 20
5.0000000000000728
 30
-0.0000000000000011
 11
55.0000000000001279
 21
4.0000000000000728
 31
-0.0000000000000009
210
-0.0000000000000002
220
1.0
230
-0.0000000000000002
  0
LINE
  5
E28F
  8
0
  6
VERDECKT
 62
     1
 10
45.9999999999993321
 20
5.0000000000000666
 30
-0.0000000000000011
 11
44.9999999999995524
 21
4.0000000000000648
 31
-0.0000000000000009
210
-0.0000000000000002
220
1.0
230
-0.0000000000000002
  0
LINE
  5
E290
  8
0
  6
VERDECKT
 62
     1
 10
45.9999999999993321
 20
2.999999999999952
 30
-0.0000000000000007
 11
44.9999999999995524
 21
3.999999999999952
 31
-0.0000000000000009
210
-0.0000000000000002
220
1.0
230
-0.0000000000000002
  0
LINE
  5
E291
  8
0
  6
VERDECKT
 62
     1
 10
54.0000000000003482
 20
2.9999999999999578
 30
-0.0000000000000007
 11
55.0000000000001279
 21
3.99999999999996
 31
-0.0000000000000009
210
-0.0000000000000002
220
1.0
230
-0.0000000000000002
  0
LINE
  5
E292
  8
0
  6
VERDECKT
 62
     1
 10
54.0000000000002984
 20
3.0000000000000151
 30
-0.0000000000000007
 11
54.9999999999998366
 21
2.0000000000000151
 31
-0.0000000000000004
210
-0.0000000000000002
220
1.0
230
-0.0000000000000002
  0
LINE
  5
E293
  8
0
  6
VERDECKT
 62
     1
 10
45.9999999999993818
 20
3.0000000000000089
 30
-0.0000000000000007
 11
44.9999999999998366
 21
2.0000000000000071
 31
-0.0000000000000004
210
-0.0000000000000002
220
1.0
230
-0.0000000000000002
  0
LINE
  5
E294
  8
0
  6
VERDECKT
 62
     1
 10
45.9999999999993818
 20
1.000000000000008
 30
-0.0000000000000002
 11
44.9999999999998366
 21
2.0000000000000071
 31
-0.0000000000000004
210
-0.0000000000000002
220
1.0
230
-0.0000000000000002
  0
LINE
  5
E295
  8
0
  6
VERDECKT
 62
     1
 10
54.0000000000002984
 20
1.000000000000014
 30
-0.0000000000000002
 11
54.9999999999998366
 21
2.0000000000000151
 31
-0.0000000000000004
210
-0.0000000000000002
220
1.0
230
-0.0000000000000002
  0
LINE
  5
E296
  8
0
  6
VERDECKT
 62
     1
 10
54.0000000000003482
 20
1.0000000000000751
 30
-0.0000000000000002
 11
55.0000000000001421
 21
0.0000000000000719
 31
0.0
210
-0.0000000000000002
220
1.0
230
-0.0000000000000002
  0
LINE
  5
E297
  8
0
  6
VERDECKT
 62
     1
 10
45.9999999999993321
 20
1.0000000000000611
 30
-0.0000000000000002
 11
44.9999999999995595
 21
0.0000000000000639
 31
0.0
210
-0.0000000000000002
220
1.0
230
-0.0000000000000002
  0
LINE
  5
E298
  8
0
  6
VERDECKT
 62
     1
 10
45.9999999999996803
 20
29.0000000000001101
 30
-0.0000000000000064
 11
44.9999999999999076
 21
30.0000000000002203
 31
-0.0000000000000067
210
-0.0000000000000002
220
1.0
230
-0.0000000000000002
  0
LINE
  5
E299
  8
0
  6
VERDECKT
 62
     1
 10
53.9999999999999716
 20
29.0000000000001101
 30
-0.0000000000000064
 11
54.9999999999997513
 21
30.0000000000002309
 31
-0.0000000000000067
210
-0.0000000000000002
220
1.0
230
-0.0000000000000002
  0
LINE
  5
E29A
  8
0
  6
VERDECKT
 62
     1
 10
54.0
 20
28.9999999999999716
 30
-0.0000000000000064
 11
54.9999999999997726
 21
27.9999999999999716
 31
-0.0000000000000062
210
-0.0000000000000002
220
1.0
230
-0.0000000000000002
  0
LINE
  5
E29B
  8
0
  6
VERDECKT
 62
     1
 10
45.9999999999996518
 20
28.9999999999999716
 30
-0.0000000000000064
 11
44.9999999999998792
 21
27.9999999999999609
 31
-0.0000000000000062
210
-0.0000000000000002
220
1.0
230
-0.0000000000000002
  0
LINE
  5
E29C
  8
0
  6
VERDECKT
 62
     1
 10
45.9999999999996518
 20
27.0000000000000817
 30
-0.000000000000006
 11
44.9999999999998792
 21
28.0000000000000817
 31
-0.0000000000000062
210
-0.0000000000000002
220
1.0
230
-0.0000000000000002
  0
LINE
  5
E29D
  8
0
  6
VERDECKT
 62
     1
 10
54.0
 20
27.0000000000000817
 30
-0.000000000000006
 11
54.9999999999997726
 21
28.0000000000000888
 31
-0.0000000000000062
210
-0.0000000000000002
220
1.0
230
-0.0000000000000002
  0
LINE
  5
E29E
  8
0
  6
VERDECKT
 62
     1
 10
54.0
 20
26.9999999999999716
 30
-0.000000000000006
 11
54.9999999999997797
 21
25.9999999999999716
 31
-0.0000000000000058
210
-0.0000000000000002
220
1.0
230
-0.0000000000000002
  0
LINE
  5
E29F
  8
0
  6
VERDECKT
 62
     1
 10
45.9999999999996518
 20
26.9999999999999609
 30
-0.000000000000006
 11
44.9999999999998792
 21
25.9999999999999609
 31
-0.0000000000000058
210
-0.0000000000000002
220
1.0
230
-0.0000000000000002
  0
LINE
  5
E2A0
  8
0
  6
VERDECKT
 62
     1
 10
45.9999999999993676
 20
25.0000000000000213
 30
-0.0000000000000056
 11
44.9999999999998295
 21
26.0000000000000213
 31
-0.0000000000000058
210
-0.0000000000000002
220
1.0
230
-0.0000000000000002
  0
LINE
  5
E2A1
  8
0
  6
VERDECKT
 62
     1
 10
54.0000000000002913
 20
25.0000000000000284
 30
-0.0000000000000056
 11
54.9999999999998366
 21
26.0000000000000284
 31
-0.0000000000000058
210
-0.0000000000000002
220
1.0
230
-0.0000000000000002
  0
LINE
  5
E2A2
  8
0
  6
VERDECKT
 62
     1
 10
54.0000000000003411
 20
25.0000000000000817
 30
-0.0000000000000056
 11
55.0000000000001208
 21
24.0000000000000817
 31
-0.0000000000000053
210
-0.0000000000000002
220
1.0
230
-0.0000000000000002
  0
LINE
  5
E2A3
  8
0
  6
VERDECKT
 62
     1
 10
45.9999999999993179
 20
25.0000000000000711
 30
-0.0000000000000056
 11
44.9999999999995381
 21
24.0000000000000711
 31
-0.0000000000000053
210
-0.0000000000000002
220
1.0
230
-0.0000000000000002
  0
LINE
  5
E2A4
  8
0
  6
VERDECKT
 62
     1
 10
45.9999999999993179
 20
22.9999999999999609
 30
-0.0000000000000051
 11
44.9999999999995381
 21
23.9999999999999609
 31
-0.0000000000000053
210
-0.0000000000000002
220
1.0
230
-0.0000000000000002
  0
LINE
  5
E2A5
  8
0
  6
VERDECKT
 62
     1
 10
54.0000000000003411
 20
22.9999999999999716
 30
-0.0000000000000051
 11
55.0000000000001208
 21
23.9999999999999716
 31
-0.0000000000000053
210
-0.0000000000000002
220
1.0
230
-0.0000000000000002
  0
LINE
  5
E2A6
  8
0
  6
VERDECKT
 62
     1
 10
54.0000000000002913
 20
23.0000000000000213
 30
-0.0000000000000051
 11
54.9999999999998366
 21
22.0000000000000213
 31
-0.0000000000000049
210
-0.0000000000000002
220
1.0
230
-0.0000000000000002
  0
LINE
  5
E2A7
  8
0
  6
VERDECKT
 62
     1
 10
45.9999999999993676
 20
23.0000000000000213
 30
-0.0000000000000051
 11
44.9999999999998295
 21
22.0000000000000213
 31
-0.0000000000000049
210
-0.0000000000000002
220
1.0
230
-0.0000000000000002
  0
LINE
  5
E2A8
  8
0
  6
VERDECKT
 62
     1
 10
45.9999999999993676
 20
21.0000000000000213
 30
-0.0000000000000047
 11
44.9999999999998295
 21
22.0000000000000213
 31
-0.0000000000000049
210
-0.0000000000000002
220
1.0
230
-0.0000000000000002
  0
LINE
  5
E2A9
  8
0
  6
VERDECKT
 62
     1
 10
54.0000000000002913
 20
21.0000000000000284
 30
-0.0000000000000047
 11
54.9999999999998366
 21
22.0000000000000213
 31
-0.0000000000000049
210
-0.0000000000000002
220
1.0
230
-0.0000000000000002
  0
LINE
  5
E2AA
  8
0
  6
VERDECKT
 62
     1
 10
54.0000000000002913
 20
21.0000000000000284
 30
-0.0000000000000047
 11
54.9999999999997797
 21
20.0000000000000817
 31
-0.0000000000000044
210
-0.0000000000000002
220
1.0
230
-0.0000000000000002
  0
LINE
  5
E2AB
  8
0
  6
VERDECKT
 62
     1
 10
45.9999999999993676
 20
21.0000000000000213
 30
-0.0000000000000047
 11
44.9999999999998792
 21
20.0000000000000711
 31
-0.0000000000000044
210
-0.0000000000000002
220
1.0
230
-0.0000000000000002
  0
LINE
  5
E2AC
  8
0
  6
VERDECKT
 62
     1
 10
-54.0000000000000995
 20
19.0
 30
-0.0000000000000042
 11
-45.9999999999996376
 21
19.0
 31
-0.0000000000000042
210
-0.0000000000000002
220
1.0
230
-0.0000000000000002
  0
LINE
  5
E2AD
  8
0
  6
VERDECKT
 62
     1
 10
-54.9999999999998721
 20
20.0000000000001101
 30
-0.0000000000000044
 11
-44.9999999999998579
 21
20.0000000000001101
 31
-0.0000000000000044
210
-0.0000000000000002
220
1.0
230
-0.0000000000000002
  0
LINE
  5
E2AE
  8
0
  6
VERDECKT
 62
     1
 10
-54.9999999999998721
 20
18.0
 30
-0.000000000000004
 11
-44.9999999999998579
 21
18.0
 31
-0.000000000000004
210
-0.0000000000000002
220
1.0
230
-0.0000000000000002
  0
LINE
  5
E2AF
  8
0
  6
VERDECKT
 62
     1
 10
-54.0000000000000995
 20
17.0
 30
-0.0000000000000038
 11
-45.9999999999996376
 21
17.0
 31
-0.0000000000000038
210
-0.0000000000000002
220
1.0
230
-0.0000000000000002
  0
LINE
  5
E2B0
  8
0
  6
VERDECKT
 62
     1
 10
-54.9999999999998721
 20
15.9999999999999893
 30
-0.0000000000000036
 11
-44.9999999999998579
 21
15.9999999999999893
 31
-0.0000000000000036
210
-0.0000000000000002
220
1.0
230
-0.0000000000000002
  0
LINE
  5
E2B1
  8
0
  6
VERDECKT
 62
     1
 10
-54.0000000000003197
 20
14.9999999999999893
 30
-0.0000000000000033
 11
-45.9999999999994031
 21
15.0
 31
-0.0000000000000033
210
-0.0000000000000002
220
1.0
230
-0.0000000000000002
  0
LINE
  5
E2B2
  8
0
  6
VERDECKT
 62
     1
 10
-55.0000000000000924
 20
13.9999999999999893
 30
-0.0000000000000031
 11
-44.9999999999996305
 21
13.9999999999999893
 31
-0.0000000000000031
210
-0.0000000000000002
220
1.0
230
-0.0000000000000002
  0
LINE
  5
E2B3
  8
0
  6
VERDECKT
 62
     1
 10
-54.0000000000003197
 20
12.9999999999999893
 30
-0.0000000000000029
 11
-45.9999999999994031
 21
12.9999999999999893
 31
-0.0000000000000029
210
-0.0000000000000002
220
1.0
230
-0.0000000000000002
  0
LINE
  5
E2B4
  8
0
  6
VERDECKT
 62
     1
 10
-54.9999999999998579
 20
11.9999999999999893
 30
-0.0000000000000027
 11
-44.9999999999998508
 21
11.9999999999999893
 31
-0.0000000000000027
210
-0.0000000000000002
220
1.0
230
-0.0000000000000002
  0
LINE
  5
E2B5
  8
0
  6
VERDECKT
 62
     1
 10
-54.0000000000003197
 20
10.9999999999999893
 30
-0.0000000000000024
 11
-45.9999999999994031
 21
10.9999999999999893
 31
-0.0000000000000024
210
-0.0000000000000002
220
1.0
230
-0.0000000000000002
  0
LINE
  5
E2B6
  8
0
  6
VERDECKT
 62
     1
 10
-54.9999999999998579
 20
9.9999999999999911
 30
-0.0000000000000022
 11
-44.9999999999998508
 21
9.9999999999999911
 31
-0.0000000000000022
210
-0.0000000000000002
220
1.0
230
-0.0000000000000002
  0
LINE
  5
E2B7
  8
0
  6
VERDECKT
 62
     1
 10
-54.0000000000003197
 20
8.9999999999999911
 30
-0.000000000000002
 11
-45.9999999999994031
 21
8.9999999999999911
 31
-0.000000000000002
210
-0.0000000000000002
220
1.0
230
-0.0000000000000002
  0
LINE
  5
E2B8
  8
0
  6
VERDECKT
 62
     1
 10
-54.9999999999998579
 20
7.9999999999999911
 30
-0.0000000000000018
 11
-44.9999999999998508
 21
7.9999999999999929
 31
-0.0000000000000018
210
-0.0000000000000002
220
1.0
230
-0.0000000000000002
  0
LINE
  5
E2B9
  8
0
  6
VERDECKT
 62
     1
 10
-54.0000000000003197
 20
6.9999999999999911
 30
-0.0000000000000016
 11
-45.9999999999994031
 21
6.9999999999999929
 31
-0.0000000000000016
210
-0.0000000000000002
220
1.0
230
-0.0000000000000002
  0
LINE
  5
E2BA
  8
0
  6
VERDECKT
 62
     1
 10
-54.9999999999998579
 20
5.9999999999999902
 30
-0.0000000000000013
 11
-44.9999999999998508
 21
5.999999999999992
 31
-0.0000000000000013
210
-0.0000000000000002
220
1.0
230
-0.0000000000000002
  0
LINE
  5
E2BB
  8
0
  6
VERDECKT
 62
     1
 10
-54.0000000000003197
 20
4.9999999999999893
 30
-0.0000000000000011
 11
-45.9999999999994031
 21
4.999999999999992
 31
-0.0000000000000011
210
-0.0000000000000002
220
1.0
230
-0.0000000000000002
  0
LINE
  5
E2BC
  8
0
  6
VERDECKT
 62
     1
 10
-55.0000000000000924
 20
3.9999999999999889
 30
-0.0000000000000009
 11
-44.9999999999996305
 21
3.9999999999999911
 31
-0.0000000000000009
210
-0.0000000000000002
220
1.0
230
-0.0000000000000002
  0
LINE
  5
E2BD
  8
0
  6
VERDECKT
 62
     1
 10
-54.0000000000003197
 20
2.9999999999999889
 30
-0.0000000000000007
 11
-45.9999999999994031
 21
2.9999999999999898
 31
-0.0000000000000007
210
-0.0000000000000002
220
1.0
230
-0.0000000000000002
  0
LINE
  5
E2BE
  8
0
  6
VERDECKT
 62
     1
 10
-54.9999999999998579
 20
1.9999999999999889
 30
-0.0000000000000004
 11
-44.9999999999998508
 21
1.99999999999999
 31
-0.0000000000000004
210
-0.0000000000000002
220
1.0
230
-0.0000000000000002
  0
LINE
  5
E2BF
  8
0
  6
VERDECKT
 62
     1
 10
-54.0000000000003197
 20
0.9999999999999886
 30
-0.0000000000000002
 11
-45.9999999999994031
 21
0.99999999999999
 31
-0.0000000000000002
210
-0.0000000000000002
220
1.0
230
-0.0000000000000002
  0
LINE
  5
E2C0
  8
0
  6
VERDECKT
 62
     1
 10
-54.0000000000001066
 20
29.0
 30
-0.0000000000000064
 11
-45.9999999999996518
 21
29.0
 31
-0.0000000000000064
210
-0.0000000000000002
220
1.0
230
-0.0000000000000002
  0
LINE
  5
E2C1
  8
0
  6
VERDECKT
 62
     1
 10
-54.9999999999998792
 20
28.0000000000000107
 30
-0.0000000000000062
 11
-44.9999999999998721
 21
28.0000000000000107
 31
-0.0000000000000062
210
-0.0000000000000002
220
1.0
230
-0.0000000000000002
  0
LINE
  5
E2C2
  8
0
  6
VERDECKT
 62
     1
 10
-54.0000000000001066
 20
27.0
 30
-0.000000000000006
 11
-45.9999999999996518
 21
27.0
 31
-0.000000000000006
210
-0.0000000000000002
220
1.0
230
-0.0000000000000002
  0
LINE
  5
E2C3
  8
0
  6
VERDECKT
 62
     1
 10
-54.9999999999998792
 20
26.0
 30
-0.0000000000000058
 11
-44.9999999999998721
 21
26.0
 31
-0.0000000000000058
210
-0.0000000000000002
220
1.0
230
-0.0000000000000002
  0
LINE
  5
E2C4
  8
0
  6
VERDECKT
 62
     1
 10
-54.0000000000003411
 20
25.0
 30
-0.0000000000000056
 11
-45.9999999999994102
 21
25.0
 31
-0.0000000000000056
210
-0.0000000000000002
220
1.0
230
-0.0000000000000002
  0
LINE
  5
E2C5
  8
0
  6
VERDECKT
 62
     1
 10
-55.0000000000000995
 20
24.0
 30
-0.0000000000000053
 11
-44.9999999999996376
 21
24.0
 31
-0.0000000000000053
210
-0.0000000000000002
220
1.0
230
-0.0000000000000002
  0
LINE
  5
E2C6
  8
0
  6
VERDECKT
 62
     1
 10
-54.0000000000003411
 20
23.0
 30
-0.0000000000000051
 11
-45.9999999999994102
 21
23.0
 31
-0.0000000000000051
210
-0.0000000000000002
220
1.0
230
-0.0000000000000002
  0
LINE
  5
E2C7
  8
0
  6
VERDECKT
 62
     1
 10
-54.9999999999998792
 20
22.0
 30
-0.0000000000000049
 11
-44.9999999999998721
 21
22.0
 31
-0.0000000000000049
210
-0.0000000000000002
220
1.0
230
-0.0000000000000002
  0
LINE
  5
E2C8
  8
0
  6
VERDECKT
 62
     1
 10
-54.0000000000003411
 20
21.0
 30
-0.0000000000000047
 11
-45.9999999999994102
 21
21.0
 31
-0.0000000000000047
210
-0.0000000000000002
220
1.0
230
-0.0000000000000002
  0
LINE
  5
E2C9
  8
0
  6
VERDECKT
 62
     1
 10
-54.0000000000000213
 20
19.0000000000000817
 30
-0.0000000000000042
 11
-54.9999999999997797
 21
20.000000000000199
 31
-0.0000000000000044
210
-0.0000000000000002
220
1.0
230
-0.0000000000000002
  0
LINE
  5
E2CA
  8
0
  6
VERDECKT
 62
     1
 10
-45.9999999999997229
 20
19.0000000000000817
 30
-0.0000000000000042
 11
-44.9999999999999503
 21
20.000000000000199
 31
-0.0000000000000044
210
-0.0000000000000002
220
1.0
230
-0.0000000000000002
  0
LINE
  5
E2CB
  8
0
  6
VERDECKT
 62
     1
 10
-45.9999999999996874
 20
18.9999999999999396
 30
-0.0000000000000042
 11
-44.9999999999999218
 21
17.9999999999999396
 31
-0.000000000000004
210
-0.0000000000000002
220
1.0
230
-0.0000000000000002
  0
LINE
  5
E2CC
  8
0
  6
VERDECKT
 62
     1
 10
-54.0000000000000426
 20
18.9999999999999396
 30
-0.0000000000000042
 11
-54.9999999999998224
 21
17.9999999999999396
 31
-0.000000000000004
210
-0.0000000000000002
220
1.0
230
-0.0000000000000002
  0
LINE
  5
E2CD
  8
0
  6
VERDECKT
 62
     1
 10
-54.0000000000000426
 20
17.0000000000000497
 30
-0.0000000000000038
 11
-54.9999999999998224
 21
18.0000000000000497
 31
-0.000000000000004
210
-0.0000000000000002
220
1.0
230
-0.0000000000000002
  0
LINE
  5
E2CE
  8
0
  6
VERDECKT
 62
     1
 10
-45.9999999999996874
 20
17.0000000000000497
 30
-0.0000000000000038
 11
-44.9999999999999218
 21
18.0000000000000497
 31
-0.000000000000004
210
-0.0000000000000002
220
1.0
230
-0.0000000000000002
  0
LINE
  5
E2CF
  8
0
  6
VERDECKT
 62
     1
 10
-45.9999999999996874
 20
16.9999999999999396
 30
-0.0000000000000038
 11
-44.9999999999999218
 21
15.9999999999999396
 31
-0.0000000000000036
210
-0.0000000000000002
220
1.0
230
-0.0000000000000002
  0
LINE
  5
E2D0
  8
0
  6
VERDECKT
 62
     1
 10
-54.0000000000000426
 20
16.9999999999999396
 30
-0.0000000000000038
 11
-54.9999999999998082
 21
15.9999999999999396
 31
-0.0000000000000036
210
-0.0000000000000002
220
1.0
230
-0.0000000000000002
  0
LINE
  5
E2D1
  8
0
  6
VERDECKT
 62
     1
 10
-54.0000000000003197
 20
14.9999999999999893
 30
-0.0000000000000033
 11
-54.9999999999998721
 21
15.9999999999999893
 31
-0.0000000000000036
210
-0.0000000000000002
220
1.0
230
-0.0000000000000002
  0
LINE
  5
E2D2
  8
0
  6
VERDECKT
 62
     1
 10
-45.9999999999994031
 20
15.0
 30
-0.0000000000000033
 11
-44.9999999999998579
 21
15.9999999999999893
 31
-0.0000000000000036
210
-0.0000000000000002
220
1.0
230
-0.0000000000000002
  0
LINE
  5
E2D3
  8
0
  6
VERDECKT
 62
     1
 10
-45.9999999999993392
 20
15.0000000000000497
 30
-0.0000000000000033
 11
-44.9999999999995666
 21
14.0000000000000497
 31
-0.0000000000000031
210
-0.0000000000000002
220
1.0
230
-0.0000000000000002
  0
LINE
  5
E2D4
  8
0
  6
VERDECKT
 62
     1
 10
-54.0000000000003695
 20
15.0000000000000497
 30
-0.0000000000000033
 11
-55.0000000000001492
 21
14.0000000000000497
 31
-0.0000000000000031
210
-0.0000000000000002
220
1.0
230
-0.0000000000000002
  0
LINE
  5
E2D5
  8
0
  6
VERDECKT
 62
     1
 10
-54.0000000000003695
 20
12.9999999999999307
 30
-0.0000000000000029
 11
-55.0000000000001492
 21
13.9999999999999307
 31
-0.0000000000000031
210
-0.0000000000000002
220
1.0
230
-0.0000000000000002
  0
LINE
  5
E2D6
  8
0
  6
VERDECKT
 62
     1
 10
-45.9999999999993392
 20
12.9999999999999396
 30
-0.0000000000000029
 11
-44.9999999999995666
 21
13.9999999999999396
 31
-0.0000000000000031
210
-0.0000000000000002
220
1.0
230
-0.0000000000000002
  0
LINE
  5
E2D7
  8
0
  6
VERDECKT
 62
     1
 10
-45.9999999999994031
 20
12.9999999999999893
 30
-0.0000000000000029
 11
-44.9999999999998508
 21
11.9999999999999893
 31
-0.0000000000000027
210
-0.0000000000000002
220
1.0
230
-0.0000000000000002
  0
LINE
  5
E2D8
  8
0
  6
VERDECKT
 62
     1
 10
-54.0000000000003197
 20
12.9999999999999893
 30
-0.0000000000000029
 11
-54.9999999999998579
 21
11.9999999999999893
 31
-0.0000000000000027
210
-0.0000000000000002
220
1.0
230
-0.0000000000000002
  0
LINE
  5
E2D9
  8
0
  6
VERDECKT
 62
     1
 10
-54.0000000000003197
 20
10.9999999999999893
 30
-0.0000000000000024
 11
-54.9999999999998579
 21
11.9999999999999893
 31
-0.0000000000000027
210
-0.0000000000000002
220
1.0
230
-0.0000000000000002
  0
LINE
  5
E2DA
  8
0
  6
VERDECKT
 62
     1
 10
-45.9999999999994031
 20
10.9999999999999893
 30
-0.0000000000000024
 11
-44.9999999999998508
 21
11.9999999999999893
 31
-0.0000000000000027
210
-0.0000000000000002
220
1.0
230
-0.0000000000000002
  0
LINE
  5
E2DB
  8
0
  6
VERDECKT
 62
     1
 10
-45.9999999999994031
 20
10.9999999999999893
 30
-0.0000000000000024
 11
-44.9999999999998508
 21
9.9999999999999911
 31
-0.0000000000000022
210
-0.0000000000000002
220
1.0
230
-0.0000000000000002
  0
LINE
  5
E2DC
  8
0
  6
VERDECKT
 62
     1
 10
-54.0000000000003197
 20
10.9999999999999893
 30
-0.0000000000000024
 11
-54.9999999999998579
 21
9.9999999999999911
 31
-0.0000000000000022
210
-0.0000000000000002
220
1.0
230
-0.0000000000000002
  0
LINE
  5
E2DD
  8
0
  6
VERDECKT
 62
     1
 10
-54.0000000000003197
 20
8.9999999999999911
 30
-0.000000000000002
 11
-54.9999999999998579
 21
9.9999999999999911
 31
-0.0000000000000022
210
-0.0000000000000002
220
1.0
230
-0.0000000000000002
  0
LINE
  5
E2DE
  8
0
  6
VERDECKT
 62
     1
 10
-45.9999999999994031
 20
8.9999999999999911
 30
-0.000000000000002
 11
-44.9999999999998508
 21
9.9999999999999911
 31
-0.0000000000000022
210
-0.0000000000000002
220
1.0
230
-0.0000000000000002
  0
LINE
  5
E2DF
  8
0
  6
VERDECKT
 62
     1
 10
-45.9999999999994031
 20
8.9999999999999911
 30
-0.000000000000002
 11
-44.9999999999998508
 21
7.9999999999999929
 31
-0.0000000000000018
210
-0.0000000000000002
220
1.0
230
-0.0000000000000002
  0
LINE
  5
E2E0
  8
0
  6
VERDECKT
 62
     1
 10
-54.0000000000003197
 20
8.9999999999999911
 30
-0.000000000000002
 11
-54.9999999999998579
 21
7.9999999999999911
 31
-0.0000000000000018
210
-0.0000000000000002
220
1.0
230
-0.0000000000000002
  0
LINE
  5
E2E1
  8
0
  6
VERDECKT
 62
     1
 10
-54.0000000000003197
 20
6.9999999999999911
 30
-0.0000000000000016
 11
-54.9999999999998579
 21
7.9999999999999911
 31
-0.0000000000000018
210
-0.0000000000000002
220
1.0
230
-0.0000000000000002
  0
LINE
  5
E2E2
  8
0
  6
VERDECKT
 62
     1
 10
-45.9999999999994031
 20
6.9999999999999929
 30
-0.0000000000000016
 11
-44.9999999999998508
 21
7.9999999999999929
 31
-0.0000000000000018
210
-0.0000000000000002
220
1.0
230
-0.0000000000000002
  0
LINE
  5
E2E3
  8
0
  6
VERDECKT
 62
     1
 10
-45.9999999999994031
 20
6.9999999999999929
 30
-0.0000000000000016
 11
-44.9999999999998508
 21
5.999999999999992
 31
-0.0000000000000013
210
-0.0000000000000002
220
1.0
230
-0.0000000000000002
  0
LINE
  5
E2E4
  8
0
  6
VERDECKT
 62
     1
 10
-54.0000000000003197
 20
6.9999999999999911
 30
-0.0000000000000016
 11
-54.9999999999998579
 21
5.9999999999999902
 31
-0.0000000000000013
210
-0.0000000000000002
220
1.0
230
-0.0000000000000002
  0
LINE
  5
E2E5
  8
0
  6
VERDECKT
 62
     1
 10
-54.0000000000003197
 20
4.9999999999999893
 30
-0.0000000000000011
 11
-54.9999999999998579
 21
5.9999999999999902
 31
-0.0000000000000013
210
-0.0000000000000002
220
1.0
230
-0.0000000000000002
  0
LINE
  5
E2E6
  8
0
  6
VERDECKT
 62
     1
 10
-45.9999999999994031
 20
4.999999999999992
 30
-0.0000000000000011
 11
-44.9999999999998508
 21
5.999999999999992
 31
-0.0000000000000013
210
-0.0000000000000002
220
1.0
230
-0.0000000000000002
  0
LINE
  5
E2E7
  8
0
  6
VERDECKT
 62
     1
 10
-45.9999999999993392
 20
5.0000000000000488
 30
-0.0000000000000011
 11
-44.9999999999995666
 21
4.000000000000048
 31
-0.0000000000000009
210
-0.0000000000000002
220
1.0
230
-0.0000000000000002
  0
LINE
  5
E2E8
  8
0
  6
VERDECKT
 62
     1
 10
-54.0000000000003695
 20
5.0000000000000471
 30
-0.0000000000000011
 11
-55.0000000000001492
 21
4.0000000000000462
 31
-0.0000000000000009
210
-0.0000000000000002
220
1.0
230
-0.0000000000000002
  0
LINE
  5
E2E9
  8
0
  6
VERDECKT
 62
     1
 10
-54.0000000000003695
 20
2.9999999999999321
 30
-0.0000000000000007
 11
-55.0000000000001492
 21
3.9999999999999321
 31
-0.0000000000000009
210
-0.0000000000000002
220
1.0
230
-0.0000000000000002
  0
LINE
  5
E2EA
  8
0
  6
VERDECKT
 62
     1
 10
-45.9999999999993392
 20
2.9999999999999329
 30
-0.0000000000000007
 11
-44.9999999999995666
 21
3.9999999999999338
 31
-0.0000000000000009
210
-0.0000000000000002
220
1.0
230
-0.0000000000000002
  0
LINE
  5
E2EB
  8
0
  6
VERDECKT
 62
     1
 10
-45.9999999999994031
 20
2.9999999999999898
 30
-0.0000000000000007
 11
-44.9999999999998508
 21
1.99999999999999
 31
-0.0000000000000004
210
-0.0000000000000002
220
1.0
230
-0.0000000000000002
  0
LINE
  5
E2EC
  8
0
  6
VERDECKT
 62
     1
 10
-54.0000000000003197
 20
2.9999999999999889
 30
-0.0000000000000007
 11
-54.9999999999998579
 21
1.9999999999999889
 31
-0.0000000000000004
210
-0.0000000000000002
220
1.0
230
-0.0000000000000002
  0
LINE
  5
E2ED
  8
0
  6
VERDECKT
 62
     1
 10
-54.0000000000003197
 20
0.9999999999999885
 30
-0.0000000000000002
 11
-54.9999999999998579
 21
1.9999999999999889
 31
-0.0000000000000004
210
-0.0000000000000002
220
1.0
230
-0.0000000000000002
  0
LINE
  5
E2EE
  8
0
  6
VERDECKT
 62
     1
 10
-45.9999999999994031
 20
0.9999999999999896
 30
-0.0000000000000002
 11
-44.9999999999998508
 21
1.99999999999999
 31
-0.0000000000000004
210
-0.0000000000000002
220
1.0
230
-0.0000000000000002
  0
LINE
  5
E2EF
  8
0
  6
VERDECKT
 62
     1
 10
-45.9999999999993392
 20
1.000000000000046
 30
-0.0000000000000002
 11
-44.9999999999995666
 21
0.0000000000000466
 31
0.0
210
-0.0000000000000002
220
1.0
230
-0.0000000000000002
  0
LINE
  5
E2F0
  8
0
  6
VERDECKT
 62
     1
 10
-54.0000000000003695
 20
1.0000000000000451
 30
-0.0000000000000002
 11
-55.0000000000001492
 21
0.0000000000000449
 31
0.0
210
-0.0000000000000002
220
1.0
230
-0.0000000000000002
  0
LINE
  5
E2F1
  8
0
  6
VERDECKT
 62
     1
 10
-54.0000000000000213
 20
29.0000000000000888
 30
-0.0000000000000064
 11
-54.9999999999997868
 21
30.000000000000199
 31
-0.0000000000000067
210
-0.0000000000000002
220
1.0
230
-0.0000000000000002
  0
LINE
  5
E2F2
  8
0
  6
VERDECKT
 62
     1
 10
-45.9999999999997229
 20
29.0000000000000888
 30
-0.0000000000000064
 11
-44.9999999999999503
 21
30.000000000000199
 31
-0.0000000000000067
210
-0.0000000000000002
220
1.0
230
-0.0000000000000002
  0
LINE
  5
E2F3
  8
0
  6
VERDECKT
 62
     1
 10
-45.9999999999997016
 20
28.9999999999999503
 30
-0.0000000000000064
 11
-44.9999999999999218
 21
27.9999999999999396
 31
-0.0000000000000062
210
-0.0000000000000002
220
1.0
230
-0.0000000000000002
  0
LINE
  5
E2F4
  8
0
  6
VERDECKT
 62
     1
 10
-54.0000000000000497
 20
28.9999999999999503
 30
-0.0000000000000064
 11
-54.9999999999998224
 21
27.9999999999999396
 31
-0.0000000000000062
210
-0.0000000000000002
220
1.0
230
-0.0000000000000002
  0
LINE
  5
E2F5
  8
0
  6
VERDECKT
 62
     1
 10
-54.0000000000000497
 20
27.0000000000000604
 30
-0.000000000000006
 11
-54.9999999999998224
 21
28.0000000000000604
 31
-0.0000000000000062
210
-0.0000000000000002
220
1.0
230
-0.0000000000000002
  0
LINE
  5
E2F6
  8
0
  6
VERDECKT
 62
     1
 10
-45.9999999999997016
 20
27.0000000000000604
 30
-0.000000000000006
 11
-44.9999999999999218
 21
28.0000000000000604
 31
-0.0000000000000062
210
-0.0000000000000002
220
1.0
230
-0.0000000000000002
  0
LINE
  5
E2F7
  8
0
  6
VERDECKT
 62
     1
 10
-45.9999999999997016
 20
26.9999999999999396
 30
-0.000000000000006
 11
-44.9999999999999218
 21
25.9999999999999396
 31
-0.0000000000000058
210
-0.0000000000000002
220
1.0
230
-0.0000000000000002
  0
LINE
  5
E2F8
  8
0
  6
VERDECKT
 62
     1
 10
-54.0000000000000497
 20
26.9999999999999396
 30
-0.000000000000006
 11
-54.9999999999998224
 21
25.9999999999999396
 31
-0.0000000000000058
210
-0.0000000000000002
220
1.0
230
-0.0000000000000002
  0
LINE
  5
E2F9
  8
0
  6
VERDECKT
 62
     1
 10
-54.0000000000003411
 20
25.0
 30
-0.0000000000000056
 11
-54.9999999999998792
 21
26.0
 31
-0.0000000000000058
210
-0.0000000000000002
220
1.0
230
-0.0000000000000002
  0
LINE
  5
E2FA
  8
0
  6
VERDECKT
 62
     1
 10
-45.9999999999994102
 20
25.0
 30
-0.0000000000000056
 11
-44.9999999999998721
 21
26.0
 31
-0.0000000000000058
210
-0.0000000000000002
220
1.0
230
-0.0000000000000002
  0
LINE
  5
E2FB
  8
0
  6
VERDECKT
 62
     1
 10
-45.9999999999993605
 20
25.0000000000000604
 30
-0.0000000000000056
 11
-44.9999999999995879
 21
24.0000000000000604
 31
-0.0000000000000053
210
-0.0000000000000002
220
1.0
230
-0.0000000000000002
  0
LINE
  5
E2FC
  8
0
  6
VERDECKT
 62
     1
 10
-54.0000000000003908
 20
25.0000000000000604
 30
-0.0000000000000056
 11
-55.0000000000001634
 21
24.0000000000000604
 31
-0.0000000000000053
210
-0.0000000000000002
220
1.0
230
-0.0000000000000002
  0
LINE
  5
E2FD
  8
0
  6
VERDECKT
 62
     1
 10
-54.0000000000003908
 20
22.9999999999999396
 30
-0.0000000000000051
 11
-55.0000000000001634
 21
23.9999999999999503
 31
-0.0000000000000053
210
-0.0000000000000002
220
1.0
230
-0.0000000000000002
  0
LINE
  5
E2FE
  8
0
  6
VERDECKT
 62
     1
 10
-45.9999999999993605
 20
22.9999999999999396
 30
-0.0000000000000051
 11
-44.9999999999995879
 21
23.9999999999999503
 31
-0.0000000000000053
210
-0.0000000000000002
220
1.0
230
-0.0000000000000002
  0
LINE
  5
E2FF
  8
0
  6
VERDECKT
 62
     1
 10
-45.9999999999994102
 20
23.0
 30
-0.0000000000000051
 11
-44.9999999999998721
 21
22.0
 31
-0.0000000000000049
210
-0.0000000000000002
220
1.0
230
-0.0000000000000002
  0
LINE
  5
E300
  8
0
  6
VERDECKT
 62
     1
 10
-54.0000000000003411
 20
23.0
 30
-0.0000000000000051
 11
-54.9999999999998792
 21
22.0
 31
-0.0000000000000049
210
-0.0000000000000002
220
1.0
230
-0.0000000000000002
  0
LINE
  5
E301
  8
0
  6
VERDECKT
 62
     1
 10
-54.0000000000003411
 20
21.0
 30
-0.0000000000000047
 11
-54.9999999999998792
 21
22.0
 31
-0.0000000000000049
210
-0.0000000000000002
220
1.0
230
-0.0000000000000002
  0
LINE
  5
E302
  8
0
  6
VERDECKT
 62
     1
 10
-45.9999999999994102
 20
21.0
 30
-0.0000000000000047
 11
-44.9999999999998721
 21
22.0
 31
-0.0000000000000049
210
-0.0000000000000002
220
1.0
230
-0.0000000000000002
  0
LINE
  5
E303
  8
0
  6
VERDECKT
 62
     1
 10
-45.9999999999994102
 20
21.0
 30
-0.0000000000000047
 11
-44.9999999999999218
 21
20.0000000000000497
 31
-0.0000000000000044
210
-0.0000000000000002
220
1.0
230
-0.0000000000000002
  0
LINE
  5
E304
  8
0
  6
VERDECKT
 62
     1
 10
-54.0000000000003411
 20
21.0
 30
-0.0000000000000047
 11
-54.9999999999998224
 21
20.0000000000000604
 31
-0.0000000000000044
210
-0.0000000000000002
220
1.0
230
-0.0000000000000002
  0
ENDBLK
  5
E306
  8
0
  0
ENDSEC
  0
SECTION
  2
ENTITIES
  0
INSERT
  5
573
  8
ADSK_ASSOC_ENTITY_BACKUPS
  2
*S0
 10
0.0
 20
0.0
 30
0.0
  0
INSERT
  5
E10B
  8
STEMPEL
  2
A$CD95E218C
 10
0.0
 20
0.0
 30
0.0
  0
INSERT
  5
E1FF
  8
STEMPEL
  2
A$C444D4970
 10
-0.0000000000000568
 20
128.4999999999998863
 30
0.0000000000000349
  0
INSERT
  5
E307
  8
STEMPEL
  2
A$CF447AE61
 10
328.4999999999992042
 20
128.499999999999801
 30
0.0000000000000349
  0
VIEWPORT
  5
45D
 67
     1
  8
0
 10
205.7207203039920103
 20
145.4792355446332124
 30
0.0
 40
556.9215620827770863
 41
298.5140186915887739
 68
     1
 69
     1
1001
ACAD
1000
MVIEW
1002
{
1070
    16
1010
0.0
1020
0.0
1030
0.0
1010
0.0
1020
0.0
1030
1.0
1040
0.0
1040
298.5140186915887739
1040
205.7207203039920103
1040
145.4792355446332124
1040
50.0
1040
0.0
1040
0.0
1070
     0
1070
  1500
1070
     1
1070
     1
1070
     0
1070
     0
1070
     0
1070
     0
1040
0.0
1040
0.0
1040
0.0
1040
10.0
1040
10.0
1040
10.0
1040
10.0
1070
     0
1002
{
1002
}
1002
}
  0
ENDSEC
  0
EOF
