  0
SECTION
  2
HEADER
  9
$ACADVER
  1
AC1009
  9
$INSBASE
 10
0.0
 20
0.0
 30
0.0
  9
$EXTMIN
 10
-200.0000000000003979
 20
-78.5000000000000284
 30
-0.0000000000000472
  9
$EXTMAX
 10
406.9999999999997158
 20
180.5000000000003126
 30
0.0000000000000472
  9
$LIMMIN
 10
0.0
 20
0.0
  9
$LIMMAX
 10
595.0
 20
421.0
  9
$ORTHOMODE
 70
     1
  9
$REGENMODE
 70
     1
  9
$FILLMODE
 70
     1
  9
$QTEXTMODE
 70
     0
  9
$MIRRTEXT
 70
     0
  9
$DRAGMODE
 70
     2
  9
$LTSCALE
 40
10.0
  9
$OSMODE
 70
   511
  9
$ATTMODE
 70
     1
  9
$TEXTSIZE
 40
3.5
  9
$TRACEWID
 40
1.0
  9
$TEXTSTYLE
  7
STANDARD
  9
$CLAYER
  8
STEMPEL
  9
$CELTYPE
  6
BYLAYER
  9
$CECOLOR
 62
   256
  9
$DIMSCALE
 40
1.0
  9
$DIMASZ
 40
3.5
  9
$DIMEXO
 40
1.0
  9
$DIMDLI
 40
0.38
  9
$DIMRND
 40
0.0
  9
$DIMDLE
 40
0.0
  9
$DIMEXE
 40
1.0
  9
$DIMTP
 40
0.0
  9
$DIMTM
 40
0.000000001
  9
$DIMTXT
 40
3.5
  9
$DIMCEN
 40
0.09
  9
$DIMTSZ
 40
0.0
  9
$DIMTOL
 70
     0
  9
$DIMLIM
 70
     0
  9
$DIMTIH
 70
     0
  9
$DIMTOH
 70
     0
  9
$DIMSE1
 70
     0
  9
$DIMSE2
 70
     0
  9
$DIMTAD
 70
     1
  9
$DIMZIN
 70
     8
  9
$DIMBLK
  1

  9
$DIMASO
 70
     1
  9
$DIMSHO
 70
     0
  9
$DIMPOST
  1

  9
$DIMAPOST
  1

  9
$DIMALT
 70
     0
  9
$DIMALTD
 70
     2
  9
$DIMALTF
 40
25.3999999999999986
  9
$DIMLFAC
 40
2.0
  9
$DIMTOFL
 70
     1
  9
$DIMTVP
 40
0.0
  9
$DIMTIX
 70
     0
  9
$DIMSOXD
 70
     0
  9
$DIMSAH
 70
     0
  9
$DIMBLK1
  1

  9
$DIMBLK2
  1

  9
$DIMSTYLE
  2
LORO
  9
$DIMCLRD
 70
     0
  9
$DIMCLRE
 70
     0
  9
$DIMCLRT
 70
     1
  9
$DIMTFAC
 40
0.5
  9
$DIMGAP
 40
1.5
  9
$LUNITS
 70
     2
  9
$LUPREC
 70
     2
  9
$SKETCHINC
 40
1.0
  9
$FILLETRAD
 40
2.0
  9
$AUNITS
 70
     0
  9
$AUPREC
 70
     0
  9
$MENU
  1
ACAD
  9
$ELEVATION
 40
0.0
  9
$PELEVATION
 40
0.0
  9
$THICKNESS
 40
0.0
  9
$LIMCHECK
 70
     0
  9
$BLIPMODE
 70
     0
  9
$CHAMFERA
 40
0.0
  9
$CHAMFERB
 40
0.0
  9
$SKPOLY
 70
     0
  9
$TDCREATE
 40
2458100.4891666672192514
  9
$TDUPDATE
 40
2459440.4821527781896293
  9
$TDINDWG
 40
1.2388657407000001
  9
$TDUSRTIMER
 40
1.2388657407000001
  9
$USRTIMER
 70
     1
  9
$ANGBASE
 50
0.0
  9
$ANGDIR
 70
     0
  9
$PDMODE
 70
     0
  9
$PDSIZE
 40
0.0
  9
$PLINEWID
 40
0.0
  9
$COORDS
 70
     1
  9
$SPLFRAME
 70
     0
  9
$SPLINETYPE
 70
     6
  9
$SPLINESEGS
 70
     8
  9
$ATTDIA
 70
     1
  9
$ATTREQ
 70
     1
  9
$HANDLING
 70
     1
  9
$HANDSEED
  5
E856
  9
$SURFTAB1
 70
     6
  9
$SURFTAB2
 70
     6
  9
$SURFTYPE
 70
     6
  9
$SURFU
 70
     6
  9
$SURFV
 70
     6
  9
$UCSNAME
  2

  9
$UCSORG
 10
0.0
 20
0.0
 30
0.0
  9
$UCSXDIR
 10
1.0
 20
0.0
 30
0.0
  9
$UCSYDIR
 10
0.0
 20
1.0
 30
0.0
  9
$PUCSNAME
  2

  9
$PUCSORG
 10
0.0
 20
0.0
 30
0.0
  9
$PUCSXDIR
 10
1.0
 20
0.0
 30
0.0
  9
$PUCSYDIR
 10
0.0
 20
1.0
 30
0.0
  9
$USERI1
 70
     0
  9
$USERI2
 70
     0
  9
$USERI3
 70
     0
  9
$USERI4
 70
     0
  9
$USERI5
 70
     0
  9
$USERR1
 40
0.0
  9
$USERR2
 40
0.0
  9
$USERR3
 40
0.0
  9
$USERR4
 40
0.0
  9
$USERR5
 40
0.0
  9
$WORLDVIEW
 70
     1
  9
$SHADEDGE
 70
     3
  9
$SHADEDIF
 70
    70
  9
$TILEMODE
 70
     1
  9
$MAXACTVP
 70
    16
  9
$PLIMCHECK
 70
     0
  9
$PEXTMIN
 10
1.0000000000000000E+20
 20
1.0000000000000000E+20
 30
1.0000000000000000E+20
  9
$PEXTMAX
 10
-1.0000000000000000E+20
 20
-1.0000000000000000E+20
 30
-1.0000000000000000E+20
  9
$PLIMMIN
 10
-4.2792796960080182
 20
-3.0207644553667592
  9
$PLIMMAX
 10
415.720720303991925
 20
293.979235544633184
  9
$UNITMODE
 70
     0
  9
$VISRETAIN
 70
     0
  9
$PLINEGEN
 70
     0
  9
$PSLTSCALE
 70
     0
  0
ENDSEC
  0
SECTION
  2
TABLES
  0
TABLE
  2
VPORT
 70
     1
  0
VPORT
  2
*ACTIVE
 70
     0
 10
0.0
 20
0.0
 11
1.0
 21
1.0
 12
-111.7737307232095958
 22
-123.588770386336094
 13
0.0
 23
0.0
 14
1.0
 24
1.0
 15
10.0
 25
10.0
 16
0.0000000000001137
 26
0.0
 36
243.2005855284018025
 17
215.2737307232092974
 27
174.5887703863363072
 37
-0.0000000000001518
 40
326.2454329937510806
 41
1.865646258503401
 42
50.0
 43
0.0
 44
0.0
 50
0.0
 51
0.0
 71
     0
 72
  1500
 73
     1
 74
     1
 75
     0
 76
     0
 77
     0
 78
     0
  0
ENDTAB
  0
TABLE
  2
LTYPE
 70
     3
  0
LTYPE
  2
CONTINUOUS
 70
     0
  3
Solid line
 72
    65
 73
     0
 40
0.0
  0
LTYPE
  2
STRICHPUNKT
 70
     0
  3
__ . __ . __ . __ . __ . __ . __ . __ . __ . __
 72
    65
 73
     4
 40
1.0
 49
0.5
 49
-0.25
 49
0.0
 49
-0.25
  0
LTYPE
  2
VERDECKT
 70
     0
  3
Verdeckt __ __ __ __ __ __ __ __ __ __ __ __ __
 72
    65
 73
     2
 40
9.5249999999999986
 49
6.3499999999999988
 49
-3.1749999999999989
  0
ENDTAB
  0
TABLE
  2
LAYER
 70
     7
  0
LAYER
  2
0
 70
     0
 62
     7
  6
CONTINUOUS
  0
LAYER
  2
BEM
 70
     0
 62
     7
  6
CONTINUOUS
  0
LAYER
  2
STEMPEL
 70
     0
 62
     3
  6
CONTINUOUS
  0
LAYER
  2
ADSK_ASSOC_ENTITY_BACKUPS
 70
     1
 62
    -7
  6
CONTINUOUS
  0
LAYER
  2
DEFPOINTS
 70
     0
 62
     7
  6
CONTINUOUS
  0
ENDTAB
  0
TABLE
  2
STYLE
 70
     3
  0
STYLE
  2
STANDARD
 70
     0
 40
0.0
 41
0.8
 50
0.0
 71
     0
 42
3.5
  3
simplex.shx
  4

  0
STYLE
  2
GREEKS
 70
     0
 40
0.0
 41
0.8
 50
0.0
 71
     0
 42
2.5
  3
SIMPLEX.shx
  4

  0
ENDTAB
  0
TABLE
  2
VIEW
 70
     0
  0
ENDTAB
  0
TABLE
  2
UCS
 70
     0
  0
ENDTAB
  0
TABLE
  2
APPID
 70
    53
  0
APPID
  2
ACAD
 70
     0
  0
APPID
  2
ACAD_NAV_VCDISPLAY
 70
     0
  0
APPID
  2
ACAD_EXEMPT_FROM_CAD_STANDARDS
 70
     0
  0
APPID
  2
ACAD_PSEXT
 70
     0
  0
APPID
  2
ACAUTHENVIRON
 70
     0
  0
APPID
  2
ACDBDYNAMICBLOCKTRUENAME
 70
     0
  0
APPID
  2
ACDBDYNAMICBLOCKGUID
 70
     0
  0
APPID
  2
ACAECLAYERSTANDARD
 70
     0
  0
APPID
  2
ACCMTRANSPARENCY
 70
     0
  0
APPID
  2
ACAD_STEPID
 70
     0
  0
APPID
  2
ACSYNERGY
 70
     0
  0
APPID
  2
SYNERGY_BODY_TBR_ID
 70
     0
  0
APPID
  2
ACAD_VIEW_EDGE_ID
 70
     0
  0
APPID
  2
ACAD_DSTYLE_DIMJAG
 70
     0
  0
APPID
  2
ACAD_DSTYLE_DIMTALN
 70
     0
  0
APPID
  2
ACADANNOMONITORALERTICONDI
 70
     0
  0
APPID
  2
ACADANNOTATIVE
 70
     0
  0
APPID
  2
ACADANNOAV
 70
     0
  0
APPID
  2
ACSYNERGYSKETCH
 70
     0
  0
APPID
  2
ACAD_MODELDOC_XFORM
 70
     0
  0
APPID
  2
ACDBBLOCKREPETAG
 70
     0
  0
APPID
  2
ACADANNOPO
 70
     0
  0
APPID
  2
ACAD_ASSOCPERSSUBENTMANAGER
 70
     0
  0
APPID
  2
ACDBDYNAMICBLOCKTRUENAME2
 70
     0
  0
APPID
  2
GRADIENTCOLOR1ACI
 70
     0
  0
APPID
  2
GRADIENTCOLOR2ACI
 70
     0
  0
APPID
  2
ACAD_DSTYLE_DIMRADIAL_EXTENSION
 70
     0
  0
APPID
  2
ACAD_MATERIAL_MAPPER
 70
     0
  0
APPID
  2
ACAD_MATERIAL_MAPPER_2
 70
     0
  0
APPID
  2
ACAD_DIMASSOC_CALC_DIMLFAC
 70
     0
  0
APPID
  2
ACAD_DIMASSOC_DIMLFAC
 70
     0
  0
APPID
  2
ACAD_DIMASSOC_OVERRIDDEN_D
 70
     0
  0
APPID
  2
SYNERGY_EXCLUDED_FROM_SNAPSHOT
 70
     0
  0
APPID
  2
ACAD_MLEADERVER
 70
     0
  0
APPID
  2
ACAD_OBJECT_CHANGE_GUID
 70
     0
  0
APPID
  2
MCAD_NO_VIS
 70
     0
  0
APPID
  2
ACAD_TEMP_GRAPHIC
 70
     0
  0
APPID
  2
ACATTRIBSERVICES
 70
     0
  0
APPID
  2
DESIGNERASSEMBLIES
 70
     0
  0
APPID
  2
ACAD_DSTYLE_DIMBREAK
 70
     0
  0
APPID
  2
GENIUS_GENSCREG_15
 70
     0
  0
APPID
  2
GENIUS_GENOBJ-N-SDF_13
 70
     0
  0
APPID
  2
GENIUS_GENODEF_13
 70
     0
  0
APPID
  2
ACAD_DSTYLE_DIMARC_LENGTH_
 70
     0
  0
APPID
  2
ACAD_DSTYLE_DIM_LINETYPE
 70
     0
  0
APPID
  2
ACAD_DSTYLE_DIM_EXT1_LINETYPE
 70
     0
  0
APPID
  2
ACAD_DSTYLE_DIM_EXT2_LINETYPE
 70
     0
  0
APPID
  2
RAK
 70
     0
  0
APPID
  2
GENIUS_GENDTOL_13
 70
     0
  0
APPID
  2
ACAD_DSTYLE_DIMINSPECT
 70
     0
  0
APPID
  2
ACAD_DSTYLE_DIMANGULAR_EXT
 70
     0
  0
APPID
  2
PLOTTRANSPARENCY
 70
     0
  0
APPID
  2
PE_URL
 70
     0
  0
ENDTAB
  0
TABLE
  2
DIMSTYLE
 70
     2
  0
DIMSTYLE
  2
STANDARD
 70
     0
  3

  4

  5

  6

  7

 40
1.0
 41
0.18
 42
0.0625
 43
0.38
 44
0.18
 45
0.0
 46
0.0
 47
0.0
 48
0.0
140
0.18
141
0.09
142
0.0
143
25.3999999999999986
144
1.0
145
0.0
146
1.0
147
0.09
 71
     0
 72
     0
 73
     1
 74
     1
 75
     0
 76
     0
 77
     0
 78
     0
170
     0
171
     2
172
     0
173
     0
174
     0
175
     0
176
     0
177
     0
178
     0
  0
DIMSTYLE
  2
LORO
 70
     0
  3

  4

  5

  6

  7

 40
1.0
 41
3.5
 42
1.0
 43
0.38
 44
1.0
 45
0.0
 46
0.0
 47
0.0
 48
0.000000001
140
3.5
141
0.09
142
0.0
143
25.3999999999999986
144
2.0
145
0.0
146
0.5
147
1.5
 71
     0
 72
     0
 73
     0
 74
     0
 75
     0
 76
     0
 77
     1
 78
     8
170
     0
171
     2
172
     1
173
     0
174
     0
175
     0
176
     0
177
     0
178
     1
  0
ENDTAB
  0
ENDSEC
  0
SECTION
  2
BLOCKS
  0
BLOCK
  8
0
  2
$MODEL_SPACE
 70
     0
 10
0.0
 20
0.0
 30
0.0
  3
$MODEL_SPACE
  1

  0
ENDBLK
  5
38
  8
0
  0
BLOCK
 67
     1
  8
0
  2
$PAPER_SPACE
 70
     0
 10
0.0
 20
0.0
 30
0.0
  3
$PAPER_SPACE
  1

  0
ENDBLK
  5
36
 67
     1
  8
0
  0
BLOCK
  8
0
  2
*S0
 70
     1
 10
0.0
 20
0.0
 30
0.0
  3
*S0
  1

  0
ENDBLK
  5
571
  8
0
  0
BLOCK
  8
0
  2
_NONE
 70
     0
 10
0.0
 20
0.0
 30
0.0
  3
_NONE
  1

  0
ENDBLK
  5
11C0
  8
0
  0
BLOCK
  8
0
  2
123
 70
     0
 10
0.0
 20
0.0
 30
0.0
  3
123
  1

  0
LINE
  5
14A3
  8
BEM
 10
0.0
 20
0.0
 30
0.0
 11
15.4991845013463507
 21
-0.0000000000000284
 31
0.0
1001
ACDBBLOCKREPETAG
1070
     1
1071
        0
1005
14A3
  0
LINE
  5
14A4
  8
BEM
 10
2.4991845013463769
 20
-1.500000000000028
 30
0.0
 11
5.4991845013463774
 21
-1.500000000000028
 31
0.0
1001
ACDBBLOCKREPETAG
1070
     1
1071
        1
1005
14A4
  0
LINE
  5
14A5
  8
BEM
 10
7.4991845013463481
 20
-1.500000000000028
 30
0.0
 11
10.4991845013463507
 21
-1.500000000000028
 31
0.0
1001
ACDBBLOCKREPETAG
1070
     1
1071
        2
1005
14A5
  0
LINE
  5
14A6
  8
BEM
 10
12.4991845013463507
 20
-1.500000000000028
 30
0.0
 11
15.4991845013463507
 21
-1.500000000000028
 31
0.0
1001
ACDBBLOCKREPETAG
1070
     1
1071
        3
1005
14A6
  0
POLYLINE
  5
14A7
  8
0
 66
     1
 10
0.0
 20
0.0
 30
0.0
 70
     1
1001
ACDBBLOCKREPETAG
1070
     1
1071
        4
1005
14A7
  0
VERTEX
  5
E84D
  8
0
 10
10.2127767082253005
 20
-0.0000000000000284
 30
0.0
  0
VERTEX
  5
E84E
  8
0
 10
6.2864077931210707
 20
3.3928740806512101
 30
0.0
  0
VERTEX
  5
E84F
  8
0
 10
6.2864077931210707
 20
-0.0000000000000284
 30
0.0
  0
VERTEX
  5
E850
  8
0
 10
10.2127767082253005
 20
-0.0000000000000284
 30
0.0
  0
SEQEND
  5
E851
  8
0
  0
LINE
  5
14A9
  8
BEM
  6
BYBLOCK
 62
     7
 10
0.0
 20
0.0
 30
0.0
 11
0.0
 21
0.0
 31
0.0
  0
ENDBLK
  5
148D
  8
0
  0
BLOCK
  8
0
  2
A$C4BC7C91C
 70
     0
 10
0.0
 20
0.0
 30
0.0
  3
A$C4BC7C91C
  1

  0
ARC
  5
E1F5
  8
0
  6
CONTINUOUS
 62
     3
 10
140.0000000000007105
 20
50.0000000000000711
 30
0.000000000000032
 40
5.0000000000002274
 50
180.0000000000023874
 51
246.92608193435359
  0
ARC
  5
E1F6
  8
0
  6
CONTINUOUS
 62
     3
 10
140.0000000000007105
 20
49.9999999999998508
 30
0.000000000000032
 40
4.9999999999999112
 50
293.0739180656424878
 51
64.1580672368468043
  0
ARC
  5
E1F7
  8
0
  6
CONTINUOUS
 62
     3
 10
140.0
 20
50.0000000000000995
 30
0.000000000000032
 40
4.9999999999995799
 50
115.8419327631521014
 51
180.0000000000028137
  0
CIRCLE
  5
E1F8
  8
0
  6
CONTINUOUS
 62
     3
 10
140.0000000000003979
 20
49.9999999999998508
 30
0.000000000000032
 40
4.0000000000002274
  0
ARC
  5
E1F9
  8
0
  6
CONTINUOUS
 62
     3
 10
140.0000000000009095
 20
-50.0000000000000711
 30
0.000000000000032
 40
5.0000000000004539
 50
113.0739180656315028
 51
179.9999999999969873
  0
ARC
  5
E1FA
  8
0
  6
CONTINUOUS
 62
     3
 10
140.000000000000199
 20
-49.9999999999997797
 30
0.000000000000032
 40
5.0000000000000613
 50
295.841932763172224
 51
66.9260819343695488
  0
ARC
  5
E1FB
  8
0
  6
CONTINUOUS
 62
     3
 10
140.0000000000007105
 20
-49.9999999999997016
 30
0.000000000000032
 40
5.0000000000002043
 50
180.0000000000013074
 51
244.1580672368282023
  0
CIRCLE
  5
E1FC
  8
0
  6
CONTINUOUS
 62
     3
 10
140.0000000000003979
 20
-49.9999999999998224
 30
0.000000000000032
 40
4.0000000000002274
  0
LINE
  5
E1FD
  8
0
  6
CONTINUOUS
 62
     3
 10
3.500000000000091
 20
-75.9999999999996874
 30
0.0
 11
199.9999999999996021
 21
-75.9999999999997158
 31
0.0000000000000436
  0
LINE
  5
E1FE
  8
0
  6
CONTINUOUS
 62
     3
 10
199.9999999999994884
 20
-75.9999999999997442
 30
0.0000000000000426
 11
199.9999999999994884
 21
-73.9999999999999716
 31
0.0000000000000426
  0
LINE
  5
E1FF
  8
0
  6
CONTINUOUS
 62
     3
 10
199.9999999999994884
 20
-73.9999999999999716
 30
0.0000000000000426
 11
3.500000000000056
 21
-73.9999999999999432
 31
-0.000000000000001
  0
LINE
  5
E200
  8
0
  6
CONTINUOUS
 62
     3
 10
3.500000000000087
 20
-73.9999999999999716
 30
0.0
 11
3.500000000000091
 21
-75.9999999999997016
 31
0.0
  0
LINE
  5
E201
  8
0
  6
CONTINUOUS
 62
     3
 10
3.5000000000000808
 20
76.0000000000003126
 30
0.0
 11
3.5000000000000808
 21
74.0000000000000426
 31
0.0
  0
LINE
  5
E202
  8
0
  6
CONTINUOUS
 62
     3
 10
3.5000000000000808
 20
74.0000000000000568
 30
0.0
 11
199.9999999999996021
 21
74.0000000000000426
 31
0.0000000000000436
  0
LINE
  5
E203
  8
0
  6
CONTINUOUS
 62
     3
 10
199.9999999999996021
 20
74.0000000000000284
 30
0.0000000000000426
 11
199.9999999999996021
 21
76.0000000000002558
 31
0.0000000000000426
  0
LINE
  5
E204
  8
0
  6
CONTINUOUS
 62
     3
 10
199.9999999999996021
 20
76.0000000000002558
 30
0.0000000000000426
 11
3.5000000000001128
 21
76.0000000000003126
 31
-0.000000000000001
  0
LINE
  5
E205
  8
0
  6
CONTINUOUS
 62
     3
 10
197.9999999999996021
 20
-43.3999999999997002
 30
0.0000000000000426
 11
50.697534456815589
 21
-43.399999999999693
 31
0.0000000000000099
  0
LINE
  5
E206
  8
0
  6
CONTINUOUS
 62
     3
 10
50.6975344568156103
 20
-43.399999999999693
 30
0.0000000000000142
 11
50.6975344568156103
 21
-45.399999999999693
 31
0.0000000000000142
  0
LINE
  5
E207
  8
0
  6
CONTINUOUS
 62
     3
 10
50.6975344568156103
 20
-45.399999999999693
 30
0.0000000000000142
 11
197.9999999999996021
 21
-45.399999999999693
 31
0.0000000000000469
  0
LINE
  5
E208
  8
0
  6
CONTINUOUS
 62
     3
 10
197.9999999999996021
 20
-45.3999999999997002
 30
0.0000000000000426
 11
197.9999999999996021
 21
-43.3999999999997002
 31
0.0000000000000426
  0
LINE
  5
E209
  8
0
  6
CONTINUOUS
 62
     3
 10
62.8012738724303716
 20
1.0000000000003051
 30
0.0000000000000142
 11
62.8012738724303716
 21
-0.9999999999996941
 31
0.0000000000000142
  0
LINE
  5
E20A
  8
0
  6
CONTINUOUS
 62
     3
 10
62.8012738724303716
 20
-0.9999999999996942
 30
0.0000000000000142
 11
197.9999999999996021
 21
-0.9999999999997212
 31
0.0000000000000442
  0
LINE
  5
E20B
  8
0
  6
CONTINUOUS
 62
     3
 10
197.9999999999996021
 20
-0.9999999999997211
 30
0.0000000000000426
 11
197.9999999999996021
 21
1.000000000000278
 31
0.0000000000000426
  0
LINE
  5
E20C
  8
0
  6
CONTINUOUS
 62
     3
 10
197.9999999999996021
 20
1.0000000000002791
 30
0.0000000000000426
 11
62.8012738724303574
 21
1.0000000000003051
 31
0.0000000000000126
  0
LINE
  5
E20D
  8
0
  6
CONTINUOUS
 62
     3
 10
39.0978260265197193
 20
43.4000000000003112
 30
0.0000000000000071
 11
197.9999999999996021
 21
43.4000000000002899
 31
0.0000000000000424
  0
LINE
  5
E20E
  8
0
  6
CONTINUOUS
 62
     3
 10
197.9999999999996021
 20
43.4000000000002899
 30
0.0000000000000426
 11
197.9999999999996021
 21
45.4000000000002899
 31
0.0000000000000426
  0
LINE
  5
E20F
  8
0
  6
CONTINUOUS
 62
     3
 10
197.9999999999996021
 20
45.4000000000002899
 30
0.0000000000000426
 11
39.097826026519698
 21
45.4000000000003183
 31
0.0000000000000073
  0
LINE
  5
E210
  8
0
  6
CONTINUOUS
 62
     3
 10
39.0978260265197193
 20
45.4000000000003183
 30
0.0000000000000071
 11
39.0978260265197193
 21
43.4000000000003112
 31
0.0000000000000071
  0
LINE
  5
E211
  8
0
  6
CONTINUOUS
 62
     3
 10
17.5712833908055188
 20
54.5000000000003268
 30
0.0000000000000071
 11
197.9999999999996021
 21
54.5000000000003197
 31
0.0000000000000472
  0
LINE
  5
E212
  8
0
  6
CONTINUOUS
 62
     3
 10
197.9999999999996021
 20
54.5000000000003126
 30
0.0000000000000426
 11
197.9999999999996021
 21
56.5000000000003126
 31
0.0000000000000426
  0
LINE
  5
E213
  8
0
  6
CONTINUOUS
 62
     3
 10
197.9999999999996021
 20
56.5000000000003197
 30
0.0000000000000426
 11
17.5712833908054904
 21
56.5000000000003197
 31
0.0000000000000026
  0
LINE
  5
E214
  8
0
  6
CONTINUOUS
 62
     3
 10
17.5712833908055188
 20
56.5000000000003197
 30
0.0000000000000071
 11
17.5712833908055188
 21
54.5000000000003268
 31
0.0000000000000071
  0
LINE
  5
E215
  8
0
  6
CONTINUOUS
 62
     3
 10
197.9999999999996021
 20
10.1000000000002998
 30
0.0000000000000426
 11
197.9999999999996021
 21
12.1000000000002998
 31
0.0000000000000426
  0
LINE
  5
E216
  8
0
  6
CONTINUOUS
 62
     3
 10
197.9999999999996021
 20
12.1000000000002998
 30
0.0000000000000426
 11
60.9080454455731513
 21
12.1000000000002803
 31
0.0000000000000122
  0
LINE
  5
E217
  8
0
  6
CONTINUOUS
 62
     3
 10
60.9080454455731584
 20
12.1000000000002803
 30
0.0000000000000142
 11
60.9080454455731584
 21
10.1000000000002892
 31
0.0000000000000142
  0
LINE
  5
E218
  8
0
  6
CONTINUOUS
 62
     3
 10
60.9080454455731584
 20
10.1000000000002892
 30
0.0000000000000142
 11
197.9999999999996021
 21
10.1000000000002892
 31
0.0000000000000447
  0
LINE
  5
E219
  8
0
  6
CONTINUOUS
 62
     3
 10
197.9999999999996021
 20
-32.2999999999996916
 30
0.0000000000000426
 11
57.2477947173513826
 21
-32.2999999999996987
 31
0.0000000000000114
  0
LINE
  5
E21A
  8
0
  6
CONTINUOUS
 62
     3
 10
57.2477947173513897
 20
-32.2999999999996987
 30
0.0000000000000142
 11
57.2477947173513897
 21
-34.2999999999996916
 31
0.0000000000000142
  0
LINE
  5
E21B
  8
0
  6
CONTINUOUS
 62
     3
 10
57.2477947173513897
 20
-34.2999999999996916
 30
0.0000000000000142
 11
197.9999999999996021
 21
-34.2999999999996916
 31
0.0000000000000455
  0
LINE
  5
E21C
  8
0
  6
CONTINUOUS
 62
     3
 10
197.9999999999996021
 20
-34.2999999999996916
 30
0.0000000000000426
 11
197.9999999999996021
 21
-32.2999999999996916
 31
0.0000000000000426
  0
LINE
  5
E21D
  8
0
  6
CONTINUOUS
 62
     3
 10
40.2088298760359777
 20
-54.4999999999996874
 30
0.0000000000000071
 11
40.2088298760359777
 21
-56.4999999999997016
 31
0.0000000000000071
  0
LINE
  5
E21E
  8
0
  6
CONTINUOUS
 62
     3
 10
40.2088298760359777
 20
-56.4999999999997016
 30
0.0000000000000071
 11
197.9999999999996021
 21
-56.4999999999997016
 31
0.0000000000000421
  0
LINE
  5
E21F
  8
0
  6
CONTINUOUS
 62
     3
 10
197.9999999999996021
 20
-56.4999999999997087
 30
0.0000000000000426
 11
197.9999999999996021
 21
-54.4999999999997016
 31
0.0000000000000426
  0
LINE
  5
E220
  8
0
  6
CONTINUOUS
 62
     3
 10
197.9999999999996021
 20
-54.4999999999997016
 30
0.0000000000000426
 11
40.2088298760359635
 21
-54.4999999999996874
 31
0.0000000000000076
  0
LINE
  5
E221
  8
0
  6
CONTINUOUS
 62
     3
 10
62.8664457401562231
 20
-10.0999999999996994
 30
0.0000000000000142
 11
62.8664457401562231
 21
-12.0999999999996906
 31
0.0000000000000142
  0
LINE
  5
E222
  8
0
  6
CONTINUOUS
 62
     3
 10
62.8664457401562231
 20
-12.0999999999996906
 30
0.0000000000000142
 11
197.9999999999996021
 21
-12.0999999999997101
 31
0.0000000000000442
  0
LINE
  5
E223
  8
0
  6
CONTINUOUS
 62
     3
 10
197.9999999999996021
 20
-12.0999999999996994
 30
0.0000000000000426
 11
197.9999999999996021
 21
-10.0999999999996994
 31
0.0000000000000426
  0
LINE
  5
E224
  8
0
  6
CONTINUOUS
 62
     3
 10
197.9999999999996021
 20
-10.0999999999996994
 30
0.0000000000000426
 11
62.8664457401561876
 21
-10.0999999999996994
 31
0.0000000000000126
  0
LINE
  5
E225
  8
0
  6
CONTINUOUS
 62
     3
 10
50.0210955497778471
 20
32.3000000000003098
 30
0.0000000000000142
 11
197.9999999999996021
 21
32.3000000000002814
 31
0.0000000000000471
  0
LINE
  5
E226
  8
0
  6
CONTINUOUS
 62
     3
 10
197.9999999999996021
 20
32.3000000000002814
 30
0.0000000000000426
 11
197.9999999999996021
 21
34.3000000000002814
 31
0.0000000000000426
  0
LINE
  5
E227
  8
0
  6
CONTINUOUS
 62
     3
 10
197.9999999999996021
 20
34.3000000000002814
 30
0.0000000000000426
 11
50.02109554977784
 21
34.3000000000002814
 31
0.0000000000000098
  0
LINE
  5
E228
  8
0
  6
CONTINUOUS
 62
     3
 10
50.0210955497778471
 20
34.3000000000002814
 30
0.0000000000000142
 11
50.0210955497778471
 21
32.3000000000003098
 31
0.0000000000000142
  0
LINE
  5
E229
  8
0
  6
CONTINUOUS
 62
     3
 10
3.5000000000000879
 20
65.600000000000307
 30
0.0
 11
197.9999999999996021
 21
65.600000000000307
 31
0.0000000000000432
  0
LINE
  5
E22A
  8
0
  6
CONTINUOUS
 62
     3
 10
197.9999999999996021
 20
65.600000000000307
 30
0.0000000000000426
 11
197.9999999999996021
 21
67.600000000000307
 31
0.0000000000000426
  0
LINE
  5
E22B
  8
0
  6
CONTINUOUS
 62
     3
 10
197.9999999999996021
 20
67.600000000000307
 30
0.0000000000000426
 11
3.500000000000056
 21
67.6000000000002785
 31
-0.0000000000000006
  0
LINE
  5
E22C
  8
0
  6
CONTINUOUS
 62
     3
 10
3.5000000000000959
 20
67.6000000000002785
 30
0.0
 11
3.5000000000000879
 21
65.600000000000307
 31
0.0
  0
LINE
  5
E22D
  8
0
  6
CONTINUOUS
 62
     3
 10
197.9999999999996021
 20
21.2000000000003084
 30
0.0000000000000426
 11
197.9999999999996021
 21
23.200000000000319
 31
0.0000000000000426
  0
LINE
  5
E22E
  8
0
  6
CONTINUOUS
 62
     3
 10
197.9999999999996021
 20
23.2000000000003084
 30
0.0000000000000426
 11
56.8256984118981379
 21
23.2000000000003084
 31
0.0000000000000113
  0
LINE
  5
E22F
  8
0
  6
CONTINUOUS
 62
     3
 10
56.8256984118981805
 20
23.2000000000003084
 30
0.0000000000000142
 11
56.8256984118981805
 21
21.2000000000003084
 31
0.0000000000000142
  0
LINE
  5
E230
  8
0
  6
CONTINUOUS
 62
     3
 10
56.8256984118981805
 20
21.2000000000003084
 30
0.0000000000000142
 11
197.9999999999996874
 21
21.2000000000003084
 31
0.0000000000000456
  0
LINE
  5
E231
  8
0
  6
CONTINUOUS
 62
     3
 10
61.1388583472083411
 20
-23.1999999999997009
 30
0.0000000000000142
 11
197.9999999999996021
 21
-23.1999999999996902
 31
0.0000000000000446
  0
LINE
  5
E232
  8
0
  6
CONTINUOUS
 62
     3
 10
197.9999999999996021
 20
-23.1999999999996902
 30
0.0000000000000426
 11
197.9999999999996021
 21
-21.1999999999996902
 31
0.0000000000000426
  0
LINE
  5
E233
  8
0
  6
CONTINUOUS
 62
     3
 10
197.9999999999996021
 20
-21.1999999999996902
 30
0.0000000000000426
 11
61.1388583472083198
 21
-21.1999999999997009
 31
0.0000000000000122
  0
LINE
  5
E234
  8
0
  6
CONTINUOUS
 62
     3
 10
61.1388583472083411
 20
-21.1999999999997009
 30
0.0000000000000142
 11
61.1388583472083411
 21
-23.1999999999997009
 31
0.0000000000000142
  0
LINE
  5
E235
  8
0
  6
CONTINUOUS
 62
     3
 10
20.4166598639444992
 20
-65.5999999999996817
 30
0.0000000000000071
 11
20.4166598639444992
 21
-67.5999999999996817
 31
0.0000000000000071
  0
LINE
  5
E236
  8
0
  6
CONTINUOUS
 62
     3
 10
20.4166598639444992
 20
-67.5999999999996817
 30
0.0000000000000071
 11
197.9999999999996021
 21
-67.5999999999996959
 31
0.0000000000000465
  0
LINE
  5
E237
  8
0
  6
CONTINUOUS
 62
     3
 10
197.9999999999996021
 20
-67.5999999999997101
 30
0.0000000000000426
 11
197.9999999999996021
 21
-65.5999999999997101
 31
0.0000000000000426
  0
LINE
  5
E238
  8
0
  6
CONTINUOUS
 62
     3
 10
197.9999999999996021
 20
-65.5999999999997101
 30
0.0000000000000426
 11
20.4166598639445205
 21
-65.5999999999996959
 31
0.0000000000000032
  0
LINE
  5
E239
  8
0
  6
CONTINUOUS
 62
     3
 10
-100.0000000000004974
 20
-45.399999999999693
 30
-0.0000000000000213
 11
-98.0000000000004547
 21
-45.399999999999693
 31
-0.0000000000000209
  0
LINE
  5
E23A
  8
0
  6
CONTINUOUS
 62
     3
 10
-98.0000000000004547
 20
-43.399999999999693
 30
-0.0000000000000213
 11
-100.0000000000004974
 21
-43.399999999999693
 31
-0.0000000000000218
  0
LINE
  5
E23B
  8
0
  6
CONTINUOUS
 62
     3
 10
-100.0000000000004974
 20
-0.9999999999997015
 30
-0.0000000000000213
 11
-98.0000000000004547
 21
-0.9999999999997012
 31
-0.0000000000000209
  0
LINE
  5
E23C
  8
0
  6
CONTINUOUS
 62
     3
 10
-98.0000000000004547
 20
1.0000000000002991
 30
-0.0000000000000213
 11
-100.0000000000003979
 21
1.000000000000298
 31
-0.0000000000000218
  0
LINE
  5
E23D
  8
0
  6
CONTINUOUS
 62
     3
 10
-100.0000000000004974
 20
43.400000000000297
 30
-0.0000000000000213
 11
-98.0000000000004547
 21
43.400000000000297
 31
-0.0000000000000209
  0
LINE
  5
E23E
  8
0
  6
CONTINUOUS
 62
     3
 10
-98.0000000000004547
 20
45.400000000000297
 30
-0.0000000000000213
 11
-100.0000000000003979
 21
45.400000000000297
 31
-0.0000000000000218
  0
LINE
  5
E23F
  8
0
  6
CONTINUOUS
 62
     3
 10
-98.0000000000004263
 20
56.5000000000003126
 30
-0.0000000000000213
 11
-100.0000000000003979
 21
56.5000000000003126
 31
-0.0000000000000218
  0
LINE
  5
E240
  8
0
  6
CONTINUOUS
 62
     3
 10
-100.0000000000004974
 20
54.5000000000003126
 30
-0.0000000000000213
 11
-98.0000000000004547
 21
54.5000000000003126
 31
-0.0000000000000209
  0
LINE
  5
E241
  8
0
  6
CONTINUOUS
 62
     3
 10
-100.0000000000004974
 20
10.1000000000002892
 30
-0.0000000000000213
 11
-98.0000000000004547
 21
10.1000000000002892
 31
-0.0000000000000209
  0
LINE
  5
E242
  8
0
  6
CONTINUOUS
 62
     3
 10
-98.0000000000004547
 20
12.1000000000002892
 30
-0.0000000000000213
 11
-100.0000000000003979
 21
12.1000000000002892
 31
-0.0000000000000218
  0
LINE
  5
E243
  8
0
  6
CONTINUOUS
 62
     3
 10
-98.0000000000004547
 20
-32.2999999999996987
 30
-0.0000000000000213
 11
-100.0000000000003979
 21
-32.2999999999996987
 31
-0.0000000000000218
  0
LINE
  5
E244
  8
0
  6
CONTINUOUS
 62
     3
 10
-100.0000000000004974
 20
-34.2999999999996916
 30
-0.0000000000000213
 11
-98.0000000000004832
 21
-34.2999999999996916
 31
-0.0000000000000209
  0
LINE
  5
E245
  8
0
  6
CONTINUOUS
 62
     3
 10
-100.0000000000004974
 20
-56.4999999999997087
 30
-0.0000000000000213
 11
-98.0000000000004832
 21
-56.4999999999997087
 31
-0.0000000000000209
  0
LINE
  5
E246
  8
0
  6
CONTINUOUS
 62
     3
 10
-98.0000000000004547
 20
-54.4999999999997016
 30
-0.0000000000000213
 11
-100.0000000000003979
 21
-54.4999999999997016
 31
-0.0000000000000218
  0
LINE
  5
E247
  8
0
  6
CONTINUOUS
 62
     3
 10
-100.0000000000004974
 20
-12.0999999999996906
 30
-0.0000000000000213
 11
-98.0000000000004547
 21
-12.0999999999996906
 31
-0.0000000000000209
  0
LINE
  5
E248
  8
0
  6
CONTINUOUS
 62
     3
 10
-98.0000000000004547
 20
-10.0999999999996994
 30
-0.0000000000000213
 11
-100.0000000000003979
 21
-10.0999999999996994
 31
-0.0000000000000218
  0
LINE
  5
E249
  8
0
  6
CONTINUOUS
 62
     3
 10
-100.0000000000004974
 20
32.3000000000003027
 30
-0.0000000000000213
 11
-98.0000000000004547
 21
32.3000000000003027
 31
-0.0000000000000209
  0
LINE
  5
E24A
  8
0
  6
CONTINUOUS
 62
     3
 10
-98.0000000000004547
 20
34.3000000000002814
 30
-0.0000000000000213
 11
-100.0000000000004974
 21
34.3000000000002814
 31
-0.0000000000000218
  0
LINE
  5
E24B
  8
0
  6
CONTINUOUS
 62
     3
 10
-98.0000000000004263
 20
67.600000000000307
 30
-0.0000000000000213
 11
-100.0000000000003979
 21
67.600000000000307
 31
-0.0000000000000218
  0
LINE
  5
E24C
  8
0
  6
CONTINUOUS
 62
     3
 10
-100.0000000000004974
 20
65.600000000000307
 30
-0.0000000000000213
 11
-98.0000000000004547
 21
65.600000000000307
 31
-0.0000000000000209
  0
LINE
  5
E24D
  8
0
  6
CONTINUOUS
 62
     3
 10
-100.0000000000003979
 20
21.2000000000003084
 30
-0.0000000000000213
 11
-98.0000000000004547
 21
21.2000000000003084
 31
-0.0000000000000209
  0
LINE
  5
E24E
  8
0
  6
CONTINUOUS
 62
     3
 10
-98.0000000000004547
 20
23.2000000000003084
 30
-0.0000000000000213
 11
-100.0000000000003979
 21
23.2000000000003084
 31
-0.0000000000000218
  0
LINE
  5
E24F
  8
0
  6
CONTINUOUS
 62
     3
 10
-100.0000000000004974
 20
-23.1999999999996902
 30
-0.0000000000000213
 11
-98.0000000000004832
 21
-23.1999999999996902
 31
-0.0000000000000209
  0
LINE
  5
E250
  8
0
  6
CONTINUOUS
 62
     3
 10
-98.0000000000004547
 20
-21.1999999999997009
 30
-0.0000000000000213
 11
-100.0000000000003979
 21
-21.1999999999997009
 31
-0.0000000000000218
  0
LINE
  5
E251
  8
0
  6
CONTINUOUS
 62
     3
 10
-100.0000000000004974
 20
-67.5999999999996817
 30
-0.0000000000000213
 11
-98.0000000000004832
 21
-67.5999999999996817
 31
-0.0000000000000209
  0
LINE
  5
E252
  8
0
  6
CONTINUOUS
 62
     3
 10
-98.0000000000004832
 20
-65.5999999999997101
 30
-0.0000000000000213
 11
-100.0000000000003979
 21
-65.5999999999997101
 31
-0.0000000000000218
  0
LINE
  5
E253
  8
0
  6
CONTINUOUS
 62
     3
 10
-100.0000000000003979
 20
-73.9999999999953957
 30
-0.0000000000000213
 11
-100.0000000000003979
 21
-67.5999999999996817
 31
-0.0000000000000213
  0
LINE
  5
E254
  8
0
  6
CONTINUOUS
 62
     3
 10
-98.0000000000004832
 20
-73.9999999999953957
 30
-0.0000000000000213
 11
-100.0000000000003979
 21
-73.9999999999953957
 31
-0.0000000000000218
  0
LINE
  5
E255
  8
0
  6
CONTINUOUS
 62
     3
 10
-98.0000000000004832
 20
-67.5999999999996817
 30
-0.0000000000000213
 11
-98.0000000000004832
 21
-73.9999999999953815
 31
-0.0000000000000213
  0
LINE
  5
E256
  8
0
  6
CONTINUOUS
 62
     3
 10
-98.0000000000004547
 20
74.0000000000000568
 30
-0.0000000000000213
 11
-98.0000000000004547
 21
67.600000000000307
 31
-0.0000000000000213
  0
LINE
  5
E257
  8
0
  6
CONTINUOUS
 62
     3
 10
-100.0000000000003979
 20
74.0000000000000568
 30
-0.0000000000000213
 11
-98.0000000000004263
 21
74.0000000000000568
 31
-0.0000000000000209
  0
LINE
  5
E258
  8
0
  6
CONTINUOUS
 62
     3
 10
-100.0000000000003979
 20
67.600000000000307
 30
-0.0000000000000213
 11
-100.0000000000003979
 21
74.0000000000000568
 31
-0.0000000000000213
  0
LINE
  5
E259
  8
0
  6
CONTINUOUS
 62
     3
 10
-100.0000000000003979
 20
23.2000000000003013
 30
-0.0000000000000213
 11
-100.0000000000003979
 21
32.3000000000003027
 31
-0.0000000000000213
  0
LINE
  5
E25A
  8
0
  6
CONTINUOUS
 62
     3
 10
-98.0000000000004547
 20
32.3000000000003027
 30
-0.0000000000000213
 11
-98.0000000000004547
 21
23.200000000000319
 31
-0.0000000000000213
  0
LINE
  5
E25B
  8
0
  6
CONTINUOUS
 62
     3
 10
-100.0000000000003979
 20
-21.1999999999996902
 30
-0.0000000000000213
 11
-100.0000000000003979
 21
-12.0999999999996994
 31
-0.0000000000000213
  0
LINE
  5
E25C
  8
0
  6
CONTINUOUS
 62
     3
 10
-98.0000000000004547
 20
-12.0999999999996906
 30
-0.0000000000000213
 11
-98.0000000000004547
 21
-21.1999999999996902
 31
-0.0000000000000213
  0
LINE
  5
E25D
  8
0
  6
CONTINUOUS
 62
     3
 10
-100.0000000000003979
 20
-65.5999999999997101
 30
-0.0000000000000213
 11
-100.0000000000003979
 21
-56.4999999999997087
 31
-0.0000000000000213
  0
LINE
  5
E25E
  8
0
  6
CONTINUOUS
 62
     3
 10
-98.0000000000004547
 20
-56.4999999999997016
 30
-0.0000000000000213
 11
-98.0000000000004832
 21
-65.5999999999996959
 31
-0.0000000000000213
  0
LINE
  5
E25F
  8
0
  6
CONTINUOUS
 62
     3
 10
-98.0000000000004547
 20
-23.1999999999996902
 30
-0.0000000000000213
 11
-98.0000000000004832
 21
-32.2999999999996987
 31
-0.0000000000000213
  0
LINE
  5
E260
  8
0
  6
CONTINUOUS
 62
     3
 10
-100.0000000000003979
 20
-32.2999999999996987
 30
-0.0000000000000213
 11
-100.0000000000003979
 21
-23.1999999999997009
 31
-0.0000000000000213
  0
LINE
  5
E261
  8
0
  6
CONTINUOUS
 62
     3
 10
-98.0000000000004547
 20
21.2000000000003084
 30
-0.0000000000000213
 11
-98.0000000000004547
 21
12.1000000000003105
 31
-0.0000000000000213
  0
LINE
  5
E262
  8
0
  6
CONTINUOUS
 62
     3
 10
-100.0000000000003979
 20
12.1000000000002892
 30
-0.0000000000000213
 11
-100.0000000000003979
 21
21.2000000000003084
 31
-0.0000000000000213
  0
LINE
  5
E263
  8
0
  6
CONTINUOUS
 62
     3
 10
-98.0000000000004547
 20
65.600000000000307
 30
-0.0000000000000213
 11
-98.0000000000004547
 21
56.5000000000003126
 31
-0.0000000000000213
  0
LINE
  5
E264
  8
0
  6
CONTINUOUS
 62
     3
 10
-100.0000000000003979
 20
56.5000000000003126
 30
-0.0000000000000213
 11
-100.0000000000003979
 21
65.600000000000307
 31
-0.0000000000000213
  0
LINE
  5
E265
  8
0
  6
CONTINUOUS
 62
     3
 10
-98.0000000000004547
 20
54.5000000000003126
 30
-0.0000000000000213
 11
-98.0000000000004547
 21
45.4000000000003183
 31
-0.0000000000000213
  0
LINE
  5
E266
  8
0
  6
CONTINUOUS
 62
     3
 10
-100.0000000000003979
 20
45.400000000000297
 30
-0.0000000000000213
 11
-100.0000000000003979
 21
54.5000000000003126
 31
-0.0000000000000213
  0
LINE
  5
E267
  8
0
  6
CONTINUOUS
 62
     3
 10
-100.0000000000003979
 20
34.3000000000002814
 30
-0.0000000000000213
 11
-100.0000000000003979
 21
43.400000000000297
 31
-0.0000000000000213
  0
LINE
  5
E268
  8
0
  6
CONTINUOUS
 62
     3
 10
-98.0000000000004547
 20
43.400000000000297
 30
-0.0000000000000213
 11
-98.0000000000004547
 21
34.3000000000003027
 31
-0.0000000000000213
  0
LINE
  5
E269
  8
0
  6
CONTINUOUS
 62
     3
 10
-98.0000000000004547
 20
10.1000000000003105
 30
-0.0000000000000213
 11
-98.0000000000004547
 21
1.000000000000316
 31
-0.0000000000000213
  0
LINE
  5
E26A
  8
0
  6
CONTINUOUS
 62
     3
 10
-100.0000000000003979
 20
1.0000000000003011
 30
-0.0000000000000213
 11
-100.0000000000003979
 21
10.1000000000002892
 31
-0.0000000000000213
  0
LINE
  5
E26B
  8
0
  6
CONTINUOUS
 62
     3
 10
-100.0000000000003979
 20
-10.0999999999996906
 30
-0.0000000000000213
 11
-100.0000000000003979
 21
-0.999999999999698
 31
-0.0000000000000213
  0
LINE
  5
E26C
  8
0
  6
CONTINUOUS
 62
     3
 10
-98.0000000000004547
 20
-0.9999999999996981
 30
-0.0000000000000213
 11
-98.0000000000004547
 21
-10.0999999999996906
 31
-0.0000000000000213
  0
LINE
  5
E26D
  8
0
  6
CONTINUOUS
 62
     3
 10
-98.0000000000004832
 20
-34.2999999999996916
 30
-0.0000000000000213
 11
-98.0000000000004832
 21
-43.399999999999693
 31
-0.0000000000000213
  0
LINE
  5
E26E
  8
0
  6
CONTINUOUS
 62
     3
 10
-100.0000000000003979
 20
-43.399999999999693
 30
-0.0000000000000213
 11
-100.0000000000003979
 21
-34.2999999999996987
 31
-0.0000000000000213
  0
LINE
  5
E26F
  8
0
  6
CONTINUOUS
 62
     3
 10
-100.0000000000003979
 20
-54.4999999999997087
 30
-0.0000000000000213
 11
-100.0000000000003979
 21
-45.3999999999997002
 31
-0.0000000000000213
  0
LINE
  5
E270
  8
0
  6
CONTINUOUS
 62
     3
 10
-98.0000000000004547
 20
-45.399999999999693
 30
-0.0000000000000213
 11
-98.0000000000004547
 21
-54.4999999999996874
 31
-0.0000000000000213
  0
LINE
  5
E271
  8
0
  6
CONTINUOUS
 62
     3
 10
-166.0000000000003979
 20
-45.399999999999693
 30
-0.0000000000000355
 11
-164.0000000000003979
 21
-45.399999999999693
 31
-0.0000000000000351
  0
LINE
  5
E272
  8
0
  6
CONTINUOUS
 62
     3
 10
-166.0000000000005116
 20
-54.4999999999996874
 30
-0.0000000000000355
 11
-166.0000000000005116
 21
-45.399999999999693
 31
-0.0000000000000355
  0
LINE
  5
E273
  8
0
  6
CONTINUOUS
 62
     3
 10
-164.0000000000005116
 20
-54.4999999999997016
 30
-0.0000000000000355
 11
-166.0000000000005116
 21
-54.4999999999997016
 31
-0.000000000000036
  0
LINE
  5
E274
  8
0
  6
CONTINUOUS
 62
     3
 10
-164.0000000000005116
 20
-45.3999999999996788
 30
-0.0000000000000355
 11
-164.0000000000005116
 21
-54.4999999999996874
 31
-0.0000000000000355
  0
LINE
  5
E275
  8
0
  6
CONTINUOUS
 62
     3
 10
-166.0000000000005116
 20
-43.3999999999996788
 30
-0.0000000000000355
 11
-166.0000000000005116
 21
-34.2999999999996774
 31
-0.0000000000000355
  0
LINE
  5
E276
  8
0
  6
CONTINUOUS
 62
     3
 10
-166.0000000000005116
 20
-32.2999999999996916
 30
-0.0000000000000355
 11
-166.0000000000005116
 21
-23.1999999999996795
 31
-0.0000000000000355
  0
LINE
  5
E277
  8
0
  6
CONTINUOUS
 62
     3
 10
-166.0000000000005116
 20
-21.1999999999997009
 30
-0.0000000000000355
 11
-166.0000000000005116
 21
-12.0999999999996906
 31
-0.0000000000000355
  0
LINE
  5
E278
  8
0
  6
CONTINUOUS
 62
     3
 10
-166.0000000000005116
 20
-10.0999999999996994
 30
-0.0000000000000355
 11
-166.0000000000005116
 21
-0.9999999999997105
 31
-0.0000000000000355
  0
LINE
  5
E279
  8
0
  6
CONTINUOUS
 62
     3
 10
-166.0000000000005116
 20
1.0000000000002891
 30
-0.0000000000000355
 11
-166.0000000000005116
 21
10.1000000000002892
 31
-0.0000000000000355
  0
LINE
  5
E27A
  8
0
  6
CONTINUOUS
 62
     3
 10
-166.0000000000005116
 20
12.1000000000002892
 30
-0.0000000000000355
 11
-166.0000000000003979
 21
21.2000000000003084
 31
-0.0000000000000355
  0
LINE
  5
E27B
  8
0
  6
CONTINUOUS
 62
     3
 10
-166.0000000000003979
 20
23.2000000000003084
 30
-0.0000000000000355
 11
-166.0000000000003979
 21
32.3000000000002814
 31
-0.0000000000000355
  0
LINE
  5
E27C
  8
0
  6
CONTINUOUS
 62
     3
 10
-166.0000000000003979
 20
34.3000000000002814
 30
-0.0000000000000355
 11
-166.0000000000003979
 21
43.400000000000297
 31
-0.0000000000000355
  0
LINE
  5
E27D
  8
0
  6
CONTINUOUS
 62
     3
 10
-166.0000000000003979
 20
45.400000000000297
 30
-0.0000000000000355
 11
-166.0000000000003979
 21
54.5000000000003126
 31
-0.0000000000000355
  0
LINE
  5
E27E
  8
0
  6
CONTINUOUS
 62
     3
 10
-166.0000000000003979
 20
56.5000000000003197
 30
-0.0000000000000355
 11
-166.0000000000003979
 21
65.600000000000307
 31
-0.0000000000000355
  0
LINE
  5
E27F
  8
0
  6
CONTINUOUS
 62
     3
 10
-166.0000000000003979
 20
67.600000000000307
 30
-0.0000000000000355
 11
-166.0000000000003979
 21
74.0000000000000426
 31
-0.0000000000000355
  0
LINE
  5
E280
  8
0
  6
CONTINUOUS
 62
     3
 10
-166.0000000000005116
 20
-73.9999999999953957
 30
-0.0000000000000355
 11
-166.0000000000005116
 21
-67.5999999999996817
 31
-0.0000000000000355
  0
LINE
  5
E281
  8
0
  6
CONTINUOUS
 62
     3
 10
-166.0000000000005116
 20
-65.5999999999997101
 30
-0.0000000000000355
 11
-166.0000000000005116
 21
-56.4999999999997087
 31
-0.0000000000000355
  0
LINE
  5
E282
  8
0
  6
CONTINUOUS
 62
     3
 10
-166.0000000000003979
 20
74.0000000000000568
 30
-0.0000000000000355
 11
-164.0000000000003979
 21
74.0000000000000568
 31
-0.0000000000000351
  0
LINE
  5
E283
  8
0
  6
CONTINUOUS
 62
     3
 10
-164.0000000000005116
 20
-73.9999999999953957
 30
-0.0000000000000355
 11
-166.0000000000005116
 21
-73.9999999999953957
 31
-0.000000000000036
  0
LINE
  5
E284
  8
0
  6
CONTINUOUS
 62
     3
 10
-166.0000000000003979
 20
-0.9999999999997147
 30
-0.0000000000000355
 11
-164.0000000000003979
 21
-0.9999999999997143
 31
-0.0000000000000351
  0
LINE
  5
E285
  8
0
  6
CONTINUOUS
 62
     3
 10
-164.0000000000003979
 20
-10.0999999999996994
 30
-0.0000000000000355
 11
-166.0000000000003979
 21
-10.0999999999996994
 31
-0.000000000000036
  0
LINE
  5
E286
  8
0
  6
CONTINUOUS
 62
     3
 10
-164.0000000000003979
 20
-0.9999999999997105
 30
-0.0000000000000355
 11
-164.0000000000003979
 21
-10.0999999999996994
 31
-0.0000000000000355
  0
LINE
  5
E287
  8
0
  6
CONTINUOUS
 62
     3
 10
-166.0000000000003979
 20
43.400000000000297
 30
-0.0000000000000355
 11
-164.0000000000003979
 21
43.400000000000297
 31
-0.0000000000000351
  0
LINE
  5
E288
  8
0
  6
CONTINUOUS
 62
     3
 10
-164.0000000000003979
 20
34.3000000000002814
 30
-0.0000000000000355
 11
-166.0000000000003979
 21
34.3000000000002814
 31
-0.000000000000036
  0
LINE
  5
E289
  8
0
  6
CONTINUOUS
 62
     3
 10
-164.0000000000003979
 20
43.400000000000297
 30
-0.0000000000000355
 11
-164.0000000000003979
 21
34.3000000000002885
 31
-0.0000000000000355
  0
LINE
  5
E28A
  8
0
  6
CONTINUOUS
 62
     3
 10
-164.0000000000003979
 20
56.5000000000003126
 30
-0.0000000000000355
 11
-166.0000000000003979
 21
56.5000000000003126
 31
-0.000000000000036
  0
LINE
  5
E28B
  8
0
  6
CONTINUOUS
 62
     3
 10
-164.0000000000003979
 20
65.6000000000003354
 30
-0.0000000000000355
 11
-164.0000000000003979
 21
56.5000000000003411
 31
-0.0000000000000355
  0
LINE
  5
E28C
  8
0
  6
CONTINUOUS
 62
     3
 10
-166.0000000000003979
 20
65.600000000000307
 30
-0.0000000000000355
 11
-164.0000000000003979
 21
65.600000000000307
 31
-0.0000000000000351
  0
LINE
  5
E28D
  8
0
  6
CONTINUOUS
 62
     3
 10
-164.0000000000003979
 20
45.400000000000297
 30
-0.0000000000000355
 11
-166.0000000000003979
 21
45.400000000000297
 31
-0.000000000000036
  0
LINE
  5
E28E
  8
0
  6
CONTINUOUS
 62
     3
 10
-164.0000000000003979
 20
54.5000000000003126
 30
-0.0000000000000355
 11
-164.0000000000003979
 21
45.4000000000003112
 31
-0.0000000000000355
  0
LINE
  5
E28F
  8
0
  6
CONTINUOUS
 62
     3
 10
-166.0000000000003979
 20
54.5000000000003197
 30
-0.0000000000000355
 11
-164.0000000000003979
 21
54.5000000000003197
 31
-0.0000000000000351
  0
LINE
  5
E290
  8
0
  6
CONTINUOUS
 62
     3
 10
-164.0000000000003979
 20
1.0000000000002851
 30
-0.0000000000000355
 11
-166.0000000000003979
 21
1.0000000000002851
 31
-0.000000000000036
  0
LINE
  5
E291
  8
0
  6
CONTINUOUS
 62
     3
 10
-164.0000000000003979
 20
10.1000000000002892
 30
-0.0000000000000355
 11
-164.0000000000003979
 21
1.0000000000003031
 31
-0.0000000000000355
  0
LINE
  5
E292
  8
0
  6
CONTINUOUS
 62
     3
 10
-166.0000000000003979
 20
10.1000000000002892
 30
-0.0000000000000355
 11
-164.0000000000003979
 21
10.1000000000002892
 31
-0.0000000000000351
  0
LINE
  5
E293
  8
0
  6
CONTINUOUS
 62
     3
 10
-164.0000000000003979
 20
-32.2999999999996916
 30
-0.0000000000000355
 11
-166.0000000000005116
 21
-32.2999999999996916
 31
-0.000000000000036
  0
LINE
  5
E294
  8
0
  6
CONTINUOUS
 62
     3
 10
-164.0000000000003979
 20
-23.1999999999996795
 30
-0.0000000000000355
 11
-164.0000000000003979
 21
-32.2999999999996774
 31
-0.0000000000000355
  0
LINE
  5
E295
  8
0
  6
CONTINUOUS
 62
     3
 10
-166.0000000000003979
 20
-23.1999999999997009
 30
-0.0000000000000355
 11
-164.0000000000003979
 21
-23.1999999999997009
 31
-0.0000000000000351
  0
LINE
  5
E296
  8
0
  6
CONTINUOUS
 62
     3
 10
-164.0000000000005116
 20
-43.399999999999693
 30
-0.0000000000000355
 11
-166.0000000000005116
 21
-43.399999999999693
 31
-0.000000000000036
  0
LINE
  5
E297
  8
0
  6
CONTINUOUS
 62
     3
 10
-164.0000000000003979
 20
-34.2999999999996916
 30
-0.0000000000000355
 11
-164.0000000000003979
 21
-43.3999999999996788
 31
-0.0000000000000355
  0
LINE
  5
E298
  8
0
  6
CONTINUOUS
 62
     3
 10
-166.0000000000003979
 20
-34.2999999999996916
 30
-0.0000000000000355
 11
-164.0000000000003979
 21
-34.2999999999996916
 31
-0.0000000000000351
  0
LINE
  5
E299
  8
0
  6
CONTINUOUS
 62
     3
 10
-166.0000000000003979
 20
-56.4999999999997016
 30
-0.0000000000000355
 11
-164.0000000000003979
 21
-56.4999999999997016
 31
-0.0000000000000351
  0
LINE
  5
E29A
  8
0
  6
CONTINUOUS
 62
     3
 10
-164.0000000000005116
 20
-65.5999999999997101
 30
-0.0000000000000355
 11
-166.0000000000005116
 21
-65.5999999999997101
 31
-0.000000000000036
  0
LINE
  5
E29B
  8
0
  6
CONTINUOUS
 62
     3
 10
-164.0000000000005116
 20
-56.4999999999997016
 30
-0.0000000000000355
 11
-164.0000000000005116
 21
-65.5999999999996817
 31
-0.0000000000000355
  0
LINE
  5
E29C
  8
0
  6
CONTINUOUS
 62
     3
 10
-166.0000000000003979
 20
-12.0999999999996994
 30
-0.0000000000000355
 11
-164.0000000000003979
 21
-12.0999999999996994
 31
-0.0000000000000351
  0
LINE
  5
E29D
  8
0
  6
CONTINUOUS
 62
     3
 10
-164.0000000000003979
 20
-21.1999999999996902
 30
-0.0000000000000355
 11
-166.0000000000003979
 21
-21.1999999999996902
 31
-0.000000000000036
  0
LINE
  5
E29E
  8
0
  6
CONTINUOUS
 62
     3
 10
-164.0000000000003979
 20
-12.0999999999996906
 30
-0.0000000000000355
 11
-164.0000000000003979
 21
-21.1999999999996902
 31
-0.0000000000000355
  0
LINE
  5
E29F
  8
0
  6
CONTINUOUS
 62
     3
 10
-166.0000000000003979
 20
32.3000000000002885
 30
-0.0000000000000355
 11
-164.0000000000003979
 21
32.3000000000002885
 31
-0.0000000000000351
  0
LINE
  5
E2A0
  8
0
  6
CONTINUOUS
 62
     3
 10
-164.0000000000003979
 20
23.200000000000319
 30
-0.0000000000000355
 11
-166.0000000000003979
 21
23.200000000000319
 31
-0.000000000000036
  0
LINE
  5
E2A1
  8
0
  6
CONTINUOUS
 62
     3
 10
-164.0000000000003979
 20
32.3000000000002885
 30
-0.0000000000000355
 11
-164.0000000000003979
 21
23.200000000000319
 31
-0.0000000000000355
  0
LINE
  5
E2A2
  8
0
  6
CONTINUOUS
 62
     3
 10
-164.0000000000003979
 20
67.6000000000003354
 30
-0.0000000000000355
 11
-166.0000000000003979
 21
67.6000000000003354
 31
-0.000000000000036
  0
LINE
  5
E2A3
  8
0
  6
CONTINUOUS
 62
     3
 10
-164.0000000000003979
 20
74.0000000000000568
 30
-0.0000000000000355
 11
-164.0000000000003979
 21
67.6000000000003354
 31
-0.0000000000000355
  0
LINE
  5
E2A4
  8
0
  6
CONTINUOUS
 62
     3
 10
-164.0000000000003979
 20
12.1000000000002892
 30
-0.0000000000000355
 11
-166.0000000000003979
 21
12.1000000000002892
 31
-0.000000000000036
  0
LINE
  5
E2A5
  8
0
  6
CONTINUOUS
 62
     3
 10
-164.0000000000003979
 20
21.2000000000003084
 30
-0.0000000000000355
 11
-164.0000000000003979
 21
12.1000000000003105
 31
-0.0000000000000355
  0
LINE
  5
E2A6
  8
0
  6
CONTINUOUS
 62
     3
 10
-166.0000000000003979
 20
21.2000000000003084
 30
-0.0000000000000355
 11
-164.0000000000003979
 21
21.2000000000003084
 31
-0.0000000000000351
  0
LINE
  5
E2A7
  8
0
  6
CONTINUOUS
 62
     3
 10
-166.0000000000003979
 20
-67.5999999999997101
 30
-0.0000000000000355
 11
-164.0000000000003979
 21
-67.5999999999997101
 31
-0.0000000000000351
  0
LINE
  5
E2A8
  8
0
  6
CONTINUOUS
 62
     3
 10
-164.0000000000005116
 20
-67.5999999999996817
 30
-0.0000000000000355
 11
-164.0000000000005116
 21
-73.9999999999953957
 31
-0.0000000000000355
  0
LINE
  5
E2A9
  8
0
  6
CONTINUOUS
 62
     3
 10
-67.0000000000004547
 20
-45.399999999999693
 30
-0.0000000000000142
 11
-65.0000000000004547
 21
-45.399999999999693
 31
-0.0000000000000138
  0
LINE
  5
E2AA
  8
0
  6
CONTINUOUS
 62
     3
 10
-65.0000000000004832
 20
-43.3999999999997002
 30
-0.0000000000000142
 11
-67.0000000000004832
 21
-43.3999999999997002
 31
-0.0000000000000147
  0
LINE
  5
E2AB
  8
0
  6
CONTINUOUS
 62
     3
 10
-67.000000000000469
 20
-0.9999999999996948
 30
-0.0000000000000142
 11
-65.000000000000469
 21
-0.9999999999996946
 31
-0.0000000000000138
  0
LINE
  5
E2AC
  8
0
  6
CONTINUOUS
 62
     3
 10
-65.000000000000469
 20
1.0000000000003051
 30
-0.0000000000000142
 11
-67.000000000000469
 21
1.0000000000003051
 31
-0.0000000000000147
  0
LINE
  5
E2AD
  8
0
  6
CONTINUOUS
 62
     3
 10
-67.000000000000469
 20
43.400000000000297
 30
-0.0000000000000142
 11
-65.0000000000004547
 21
43.400000000000297
 31
-0.0000000000000138
  0
LINE
  5
E2AE
  8
0
  6
CONTINUOUS
 62
     3
 10
-65.0000000000004547
 20
45.4000000000003112
 30
-0.0000000000000142
 11
-67.000000000000469
 21
45.4000000000003112
 31
-0.0000000000000147
  0
LINE
  5
E2AF
  8
0
  6
CONTINUOUS
 62
     3
 10
-65.0000000000004405
 20
56.5000000000003197
 30
-0.0000000000000142
 11
-67.000000000000469
 21
56.5000000000003197
 31
-0.0000000000000147
  0
LINE
  5
E2B0
  8
0
  6
CONTINUOUS
 62
     3
 10
-67.0000000000004832
 20
54.5000000000003197
 30
-0.0000000000000142
 11
-65.0000000000004547
 21
54.5000000000003197
 31
-0.0000000000000138
  0
LINE
  5
E2B1
  8
0
  6
CONTINUOUS
 62
     3
 10
-67.000000000000469
 20
10.1000000000002892
 30
-0.0000000000000142
 11
-65.0000000000004547
 21
10.1000000000002892
 31
-0.0000000000000138
  0
LINE
  5
E2B2
  8
0
  6
CONTINUOUS
 62
     3
 10
-65.000000000000469
 20
12.1000000000002803
 30
-0.0000000000000142
 11
-67.0000000000004832
 21
12.1000000000002803
 31
-0.0000000000000147
  0
LINE
  5
E2B3
  8
0
  6
CONTINUOUS
 62
     3
 10
-65.0000000000004832
 20
-32.2999999999997129
 30
-0.0000000000000142
 11
-67.0000000000004832
 21
-32.2999999999997129
 31
-0.0000000000000147
  0
LINE
  5
E2B4
  8
0
  6
CONTINUOUS
 62
     3
 10
-67.000000000000469
 20
-34.2999999999996987
 30
-0.0000000000000142
 11
-65.000000000000469
 21
-34.2999999999996987
 31
-0.0000000000000138
  0
LINE
  5
E2B5
  8
0
  6
CONTINUOUS
 62
     3
 10
-67.000000000000469
 20
-56.4999999999997016
 30
-0.0000000000000142
 11
-65.000000000000469
 21
-56.4999999999997016
 31
-0.0000000000000138
  0
LINE
  5
E2B6
  8
0
  6
CONTINUOUS
 62
     3
 10
-65.000000000000469
 20
-54.4999999999997016
 30
-0.0000000000000142
 11
-67.0000000000004832
 21
-54.4999999999997016
 31
-0.0000000000000147
  0
LINE
  5
E2B7
  8
0
  6
CONTINUOUS
 62
     3
 10
-67.000000000000469
 20
-12.0999999999996906
 30
-0.0000000000000142
 11
-65.000000000000469
 21
-12.0999999999996906
 31
-0.0000000000000138
  0
LINE
  5
E2B8
  8
0
  6
CONTINUOUS
 62
     3
 10
-65.000000000000469
 20
-10.0999999999996994
 30
-0.0000000000000142
 11
-67.000000000000469
 21
-10.0999999999996994
 31
-0.0000000000000147
  0
LINE
  5
E2B9
  8
0
  6
CONTINUOUS
 62
     3
 10
-67.0000000000004832
 20
32.3000000000003027
 30
-0.0000000000000142
 11
-65.0000000000004547
 21
32.3000000000003027
 31
-0.0000000000000138
  0
LINE
  5
E2BA
  8
0
  6
CONTINUOUS
 62
     3
 10
-65.000000000000469
 20
34.3000000000002814
 30
-0.0000000000000142
 11
-67.0000000000004832
 21
34.3000000000002814
 31
-0.0000000000000147
  0
LINE
  5
E2BB
  8
0
  6
CONTINUOUS
 62
     3
 10
-65.0000000000004547
 20
67.600000000000307
 30
-0.0000000000000142
 11
-67.0000000000004832
 21
67.600000000000307
 31
-0.0000000000000147
  0
LINE
  5
E2BC
  8
0
  6
CONTINUOUS
 62
     3
 10
-67.000000000000469
 20
65.600000000000307
 30
-0.0000000000000142
 11
-65.0000000000004405
 21
65.600000000000307
 31
-0.0000000000000138
  0
LINE
  5
E2BD
  8
0
  6
CONTINUOUS
 62
     3
 10
-67.000000000000469
 20
21.2000000000003084
 30
-0.0000000000000142
 11
-65.0000000000004547
 21
21.2000000000003084
 31
-0.0000000000000138
  0
LINE
  5
E2BE
  8
0
  6
CONTINUOUS
 62
     3
 10
-65.0000000000004405
 20
23.2000000000003084
 30
-0.0000000000000142
 11
-67.000000000000469
 21
23.2000000000003084
 31
-0.0000000000000147
  0
LINE
  5
E2BF
  8
0
  6
CONTINUOUS
 62
     3
 10
-67.000000000000469
 20
-23.1999999999997009
 30
-0.0000000000000142
 11
-65.000000000000469
 21
-23.1999999999997009
 31
-0.0000000000000138
  0
LINE
  5
E2C0
  8
0
  6
CONTINUOUS
 62
     3
 10
-65.0000000000004832
 20
-21.1999999999997009
 30
-0.0000000000000142
 11
-67.0000000000004832
 21
-21.1999999999997009
 31
-0.0000000000000147
  0
LINE
  5
E2C1
  8
0
  6
CONTINUOUS
 62
     3
 10
-67.000000000000469
 20
-67.5999999999996817
 30
-0.0000000000000142
 11
-65.0000000000004832
 21
-67.5999999999996817
 31
-0.0000000000000138
  0
LINE
  5
E2C2
  8
0
  6
CONTINUOUS
 62
     3
 10
-65.0000000000004832
 20
-65.5999999999997101
 30
-0.0000000000000142
 11
-67.0000000000004832
 21
-65.5999999999997101
 31
-0.0000000000000147
  0
LINE
  5
E2C3
  8
0
  6
CONTINUOUS
 62
     3
 10
-65.000000000000469
 20
-45.399999999999693
 30
-0.0000000000000142
 11
-65.000000000000469
 21
-54.4999999999996874
 31
-0.0000000000000142
  0
LINE
  5
E2C4
  8
0
  6
CONTINUOUS
 62
     3
 10
-65.000000000000469
 20
-56.4999999999997016
 30
-0.0000000000000142
 11
-65.0000000000004832
 21
-65.5999999999996817
 31
-0.0000000000000142
  0
LINE
  5
E2C5
  8
0
  6
CONTINUOUS
 62
     3
 10
-65.0000000000004832
 20
-67.5999999999996817
 30
-0.0000000000000142
 11
-65.0000000000004832
 21
-73.9999999999953815
 31
-0.0000000000000142
  0
LINE
  5
E2C6
  8
0
  6
CONTINUOUS
 62
     3
 10
-65.0000000000004405
 20
74.0000000000000568
 30
-0.0000000000000142
 11
-65.0000000000004405
 21
67.600000000000307
 31
-0.0000000000000142
  0
LINE
  5
E2C7
  8
0
  6
CONTINUOUS
 62
     3
 10
-65.0000000000004405
 20
65.600000000000307
 30
-0.0000000000000142
 11
-65.0000000000004547
 21
56.5000000000003126
 31
-0.0000000000000142
  0
LINE
  5
E2C8
  8
0
  6
CONTINUOUS
 62
     3
 10
-65.0000000000004547
 20
54.5000000000003197
 30
-0.0000000000000142
 11
-65.0000000000004547
 21
45.4000000000003183
 31
-0.0000000000000142
  0
LINE
  5
E2C9
  8
0
  6
CONTINUOUS
 62
     3
 10
-65.0000000000004547
 20
43.400000000000297
 30
-0.0000000000000142
 11
-65.0000000000004547
 21
34.3000000000002814
 31
-0.0000000000000142
  0
LINE
  5
E2CA
  8
0
  6
CONTINUOUS
 62
     3
 10
-65.0000000000004547
 20
32.3000000000003098
 30
-0.0000000000000142
 11
-65.000000000000469
 21
23.200000000000319
 31
-0.0000000000000142
  0
LINE
  5
E2CB
  8
0
  6
CONTINUOUS
 62
     3
 10
-65.0000000000004547
 20
21.2000000000003084
 30
-0.0000000000000142
 11
-65.0000000000004547
 21
12.1000000000002892
 31
-0.0000000000000142
  0
LINE
  5
E2CC
  8
0
  6
CONTINUOUS
 62
     3
 10
-65.0000000000004547
 20
10.1000000000002998
 30
-0.0000000000000142
 11
-65.0000000000004547
 21
1.0000000000003211
 31
-0.0000000000000142
  0
LINE
  5
E2CD
  8
0
  6
CONTINUOUS
 62
     3
 10
-65.000000000000469
 20
-0.9999999999996922
 30
-0.0000000000000142
 11
-65.000000000000469
 21
-10.0999999999996799
 31
-0.0000000000000142
  0
LINE
  5
E2CE
  8
0
  6
CONTINUOUS
 62
     3
 10
-65.000000000000469
 20
-12.0999999999996906
 30
-0.0000000000000142
 11
-65.000000000000469
 21
-21.1999999999997009
 31
-0.0000000000000142
  0
LINE
  5
E2CF
  8
0
  6
CONTINUOUS
 62
     3
 10
-65.000000000000469
 20
-23.1999999999996795
 30
-0.0000000000000142
 11
-65.0000000000004832
 21
-32.2999999999996987
 31
-0.0000000000000142
  0
LINE
  5
E2D0
  8
0
  6
CONTINUOUS
 62
     3
 10
-65.0000000000004832
 20
-34.2999999999996916
 30
-0.0000000000000142
 11
-65.0000000000004832
 21
-43.399999999999693
 31
-0.0000000000000142
  0
LINE
  5
E2D1
  8
0
  6
CONTINUOUS
 62
     3
 10
-67.0000000000004832
 20
-73.9999999999953957
 30
-0.0000000000000142
 11
-67.000000000000469
 21
-67.5999999999996817
 31
-0.0000000000000142
  0
LINE
  5
E2D2
  8
0
  6
CONTINUOUS
 62
     3
 10
-65.0000000000004832
 20
-73.9999999999953957
 30
-0.0000000000000142
 11
-67.0000000000004832
 21
-73.9999999999953957
 31
-0.0000000000000147
  0
LINE
  5
E2D3
  8
0
  6
CONTINUOUS
 62
     3
 10
-67.000000000000469
 20
12.1000000000002892
 30
-0.0000000000000142
 11
-67.000000000000469
 21
21.2000000000003013
 31
-0.0000000000000142
  0
LINE
  5
E2D4
  8
0
  6
CONTINUOUS
 62
     3
 10
-67.000000000000469
 20
74.0000000000000568
 30
-0.0000000000000142
 11
-65.0000000000004405
 21
74.0000000000000568
 31
-0.0000000000000138
  0
LINE
  5
E2D5
  8
0
  6
CONTINUOUS
 62
     3
 10
-67.000000000000469
 20
67.600000000000307
 30
-0.0000000000000142
 11
-67.000000000000469
 21
74.0000000000000711
 31
-0.0000000000000142
  0
LINE
  5
E2D6
  8
0
  6
CONTINUOUS
 62
     3
 10
-67.000000000000469
 20
23.2000000000003084
 30
-0.0000000000000142
 11
-67.000000000000469
 21
32.3000000000003027
 31
-0.0000000000000142
  0
LINE
  5
E2D7
  8
0
  6
CONTINUOUS
 62
     3
 10
-67.0000000000004832
 20
-21.1999999999996902
 30
-0.0000000000000142
 11
-67.000000000000469
 21
-12.0999999999996994
 31
-0.0000000000000142
  0
LINE
  5
E2D8
  8
0
  6
CONTINUOUS
 62
     3
 10
-67.000000000000469
 20
-65.5999999999997101
 30
-0.0000000000000142
 11
-67.000000000000469
 21
-56.4999999999997087
 31
-0.0000000000000142
  0
LINE
  5
E2D9
  8
0
  6
CONTINUOUS
 62
     3
 10
-67.0000000000004832
 20
-43.3999999999997073
 30
-0.0000000000000142
 11
-67.0000000000004832
 21
-34.2999999999997129
 31
-0.0000000000000142
  0
LINE
  5
E2DA
  8
0
  6
CONTINUOUS
 62
     3
 10
-67.0000000000004832
 20
-32.2999999999996916
 30
-0.0000000000000142
 11
-67.0000000000004832
 21
-23.1999999999997009
 31
-0.0000000000000142
  0
LINE
  5
E2DB
  8
0
  6
CONTINUOUS
 62
     3
 10
-67.000000000000469
 20
1.0000000000003071
 30
-0.0000000000000142
 11
-67.000000000000469
 21
10.1000000000002998
 31
-0.0000000000000142
  0
LINE
  5
E2DC
  8
0
  6
CONTINUOUS
 62
     3
 10
-67.000000000000469
 20
45.4000000000003112
 30
-0.0000000000000142
 11
-67.000000000000469
 21
54.5000000000003197
 31
-0.0000000000000142
  0
LINE
  5
E2DD
  8
0
  6
CONTINUOUS
 62
     3
 10
-67.000000000000469
 20
56.5000000000003126
 30
-0.0000000000000142
 11
-67.000000000000469
 21
65.600000000000307
 31
-0.0000000000000142
  0
LINE
  5
E2DE
  8
0
  6
CONTINUOUS
 62
     3
 10
-67.0000000000004832
 20
34.3000000000002814
 30
-0.0000000000000142
 11
-67.0000000000004832
 21
43.400000000000297
 31
-0.0000000000000142
  0
LINE
  5
E2DF
  8
0
  6
CONTINUOUS
 62
     3
 10
-67.000000000000469
 20
-10.0999999999996994
 30
-0.0000000000000142
 11
-67.000000000000469
 21
-0.9999999999996926
 31
-0.0000000000000142
  0
LINE
  5
E2E0
  8
0
  6
CONTINUOUS
 62
     3
 10
-67.000000000000469
 20
-54.4999999999997016
 30
-0.0000000000000142
 11
-67.000000000000469
 21
-45.399999999999693
 31
-0.0000000000000142
  0
LINE
  5
E2E1
  8
0
  6
CONTINUOUS
 62
     3
 10
-198.0000000000003979
 20
74.0000000000000284
 30
-0.0000000000000426
 11
-198.0000000000003126
 21
-73.9999999999999716
 31
-0.0000000000000426
  0
LINE
  5
E2E2
  8
0
  6
CONTINUOUS
 62
     3
 10
-200.0000000000003979
 20
74.0000000000000284
 30
-0.0000000000000426
 11
-198.0000000000003979
 21
74.0000000000000284
 31
-0.0000000000000422
  0
LINE
  5
E2E3
  8
0
  6
CONTINUOUS
 62
     3
 10
-200.0000000000003126
 20
-73.9999999999999716
 30
-0.0000000000000426
 11
-200.0000000000003979
 21
74.0000000000000284
 31
-0.0000000000000426
  0
LINE
  5
E2E4
  8
0
  6
CONTINUOUS
 62
     3
 10
-198.0000000000003126
 20
-73.9999999999999716
 30
-0.0000000000000426
 11
-200.0000000000003126
 21
-73.9999999999999716
 31
-0.0000000000000431
  0
LINE
  5
E2E5
  8
0
  6
CONTINUOUS
 62
     3
 10
-133.0000000000005116
 20
-45.399999999999693
 30
-0.0000000000000284
 11
-131.0000000000005116
 21
-45.399999999999693
 31
-0.000000000000028
  0
LINE
  5
E2E6
  8
0
  6
CONTINUOUS
 62
     3
 10
-131.0000000000005116
 20
-43.3999999999996788
 30
-0.0000000000000284
 11
-133.0000000000003979
 21
-43.3999999999996788
 31
-0.0000000000000289
  0
LINE
  5
E2E7
  8
0
  6
CONTINUOUS
 62
     3
 10
-133.0000000000003979
 20
-0.9999999999997083
 30
-0.0000000000000284
 11
-131.0000000000003979
 21
-0.9999999999997077
 31
-0.000000000000028
  0
LINE
  5
E2E8
  8
0
  6
CONTINUOUS
 62
     3
 10
-131.0000000000003979
 20
1.000000000000292
 30
-0.0000000000000284
 11
-133.0000000000003979
 21
1.000000000000292
 31
-0.0000000000000289
  0
LINE
  5
E2E9
  8
0
  6
CONTINUOUS
 62
     3
 10
-133.0000000000003979
 20
43.400000000000297
 30
-0.0000000000000284
 11
-131.0000000000003979
 21
43.400000000000297
 31
-0.000000000000028
  0
LINE
  5
E2EA
  8
0
  6
CONTINUOUS
 62
     3
 10
-131.0000000000003979
 20
45.400000000000297
 30
-0.0000000000000284
 11
-133.0000000000005116
 21
45.400000000000297
 31
-0.0000000000000289
  0
LINE
  5
E2EB
  8
0
  6
CONTINUOUS
 62
     3
 10
-131.0000000000003979
 20
56.5000000000003197
 30
-0.0000000000000284
 11
-133.0000000000003979
 21
56.5000000000003197
 31
-0.0000000000000289
  0
LINE
  5
E2EC
  8
0
  6
CONTINUOUS
 62
     3
 10
-133.0000000000003979
 20
54.5000000000003197
 30
-0.0000000000000284
 11
-131.0000000000003979
 21
54.5000000000003197
 31
-0.000000000000028
  0
LINE
  5
E2ED
  8
0
  6
CONTINUOUS
 62
     3
 10
-133.0000000000003979
 20
10.1000000000002892
 30
-0.0000000000000284
 11
-131.0000000000003979
 21
10.1000000000002892
 31
-0.000000000000028
  0
LINE
  5
E2EE
  8
0
  6
CONTINUOUS
 62
     3
 10
-131.0000000000003979
 20
12.1000000000002892
 30
-0.0000000000000284
 11
-133.0000000000003979
 21
12.1000000000002892
 31
-0.0000000000000289
  0
LINE
  5
E2EF
  8
0
  6
CONTINUOUS
 62
     3
 10
-131.0000000000005116
 20
-32.2999999999996916
 30
-0.0000000000000284
 11
-133.0000000000003979
 21
-32.2999999999996916
 31
-0.0000000000000289
  0
LINE
  5
E2F0
  8
0
  6
CONTINUOUS
 62
     3
 10
-133.0000000000003979
 20
-34.2999999999996916
 30
-0.0000000000000284
 11
-131.0000000000005116
 21
-34.2999999999996916
 31
-0.000000000000028
  0
LINE
  5
E2F1
  8
0
  6
CONTINUOUS
 62
     3
 10
-133.0000000000005116
 20
-56.4999999999997087
 30
-0.0000000000000284
 11
-131.0000000000005116
 21
-56.4999999999997087
 31
-0.000000000000028
  0
LINE
  5
E2F2
  8
0
  6
CONTINUOUS
 62
     3
 10
-131.0000000000003979
 20
-54.4999999999997016
 30
-0.0000000000000284
 11
-133.0000000000003979
 21
-54.4999999999997016
 31
-0.0000000000000289
  0
LINE
  5
E2F3
  8
0
  6
CONTINUOUS
 62
     3
 10
-133.0000000000003979
 20
-12.0999999999996994
 30
-0.0000000000000284
 11
-131.0000000000005116
 21
-12.0999999999996994
 31
-0.000000000000028
  0
LINE
  5
E2F4
  8
0
  6
CONTINUOUS
 62
     3
 10
-131.0000000000003979
 20
-10.0999999999996994
 30
-0.0000000000000284
 11
-133.0000000000003979
 21
-10.0999999999996994
 31
-0.0000000000000289
  0
LINE
  5
E2F5
  8
0
  6
CONTINUOUS
 62
     3
 10
-133.0000000000003979
 20
32.3000000000003027
 30
-0.0000000000000284
 11
-131.0000000000003979
 21
32.3000000000003027
 31
-0.000000000000028
  0
LINE
  5
E2F6
  8
0
  6
CONTINUOUS
 62
     3
 10
-131.0000000000003979
 20
34.3000000000002814
 30
-0.0000000000000284
 11
-133.0000000000003979
 21
34.3000000000002814
 31
-0.0000000000000289
  0
LINE
  5
E2F7
  8
0
  6
CONTINUOUS
 62
     3
 10
-131.0000000000003979
 20
67.600000000000307
 30
-0.0000000000000284
 11
-133.0000000000003979
 21
67.600000000000307
 31
-0.0000000000000289
  0
LINE
  5
E2F8
  8
0
  6
CONTINUOUS
 62
     3
 10
-133.0000000000003979
 20
65.600000000000307
 30
-0.0000000000000284
 11
-131.0000000000003979
 21
65.600000000000307
 31
-0.000000000000028
  0
LINE
  5
E2F9
  8
0
  6
CONTINUOUS
 62
     3
 10
-133.0000000000003979
 20
21.2000000000003084
 30
-0.0000000000000284
 11
-131.0000000000003979
 21
21.2000000000003084
 31
-0.000000000000028
  0
LINE
  5
E2FA
  8
0
  6
CONTINUOUS
 62
     3
 10
-131.0000000000003979
 20
23.2000000000003084
 30
-0.0000000000000284
 11
-133.0000000000003979
 21
23.2000000000003084
 31
-0.0000000000000289
  0
LINE
  5
E2FB
  8
0
  6
CONTINUOUS
 62
     3
 10
-133.0000000000003979
 20
-23.1999999999997009
 30
-0.0000000000000284
 11
-131.0000000000005116
 21
-23.1999999999997009
 31
-0.000000000000028
  0
LINE
  5
E2FC
  8
0
  6
CONTINUOUS
 62
     3
 10
-131.0000000000005116
 20
-21.1999999999996902
 30
-0.0000000000000284
 11
-133.0000000000005116
 21
-21.1999999999996902
 31
-0.0000000000000289
  0
LINE
  5
E2FD
  8
0
  6
CONTINUOUS
 62
     3
 10
-133.0000000000005116
 20
-67.5999999999997101
 30
-0.0000000000000284
 11
-131.0000000000005116
 21
-67.5999999999997101
 31
-0.000000000000028
  0
LINE
  5
E2FE
  8
0
  6
CONTINUOUS
 62
     3
 10
-131.0000000000005116
 20
-65.5999999999997101
 30
-0.0000000000000284
 11
-133.0000000000005116
 21
-65.5999999999997101
 31
-0.0000000000000289
  0
LINE
  5
E2FF
  8
0
  6
CONTINUOUS
 62
     3
 10
-131.0000000000005116
 20
-45.399999999999693
 30
-0.0000000000000284
 11
-131.0000000000005116
 21
-54.4999999999996874
 31
-0.0000000000000284
  0
LINE
  5
E300
  8
0
  6
CONTINUOUS
 62
     3
 10
-131.0000000000005116
 20
-56.4999999999997016
 30
-0.0000000000000284
 11
-131.0000000000005116
 21
-65.5999999999996959
 31
-0.0000000000000284
  0
LINE
  5
E301
  8
0
  6
CONTINUOUS
 62
     3
 10
-131.0000000000005116
 20
-67.5999999999996817
 30
-0.0000000000000284
 11
-131.0000000000005116
 21
-73.9999999999953957
 31
-0.0000000000000284
  0
LINE
  5
E302
  8
0
  6
CONTINUOUS
 62
     3
 10
-131.0000000000003979
 20
74.0000000000000568
 30
-0.0000000000000284
 11
-131.0000000000003979
 21
67.600000000000307
 31
-0.0000000000000284
  0
LINE
  5
E303
  8
0
  6
CONTINUOUS
 62
     3
 10
-131.0000000000003979
 20
65.600000000000307
 30
-0.0000000000000284
 11
-131.0000000000003979
 21
56.5000000000003411
 31
-0.0000000000000284
  0
LINE
  5
E304
  8
0
  6
CONTINUOUS
 62
     3
 10
-131.0000000000003979
 20
54.5000000000003126
 30
-0.0000000000000284
 11
-131.0000000000003979
 21
45.4000000000003183
 31
-0.0000000000000284
  0
LINE
  5
E305
  8
0
  6
CONTINUOUS
 62
     3
 10
-131.0000000000003979
 20
43.400000000000297
 30
-0.0000000000000284
 11
-131.0000000000003979
 21
34.3000000000003027
 31
-0.0000000000000284
  0
LINE
  5
E306
  8
0
  6
CONTINUOUS
 62
     3
 10
-131.0000000000003979
 20
32.3000000000003027
 30
-0.0000000000000284
 11
-131.0000000000003979
 21
23.2000000000003297
 31
-0.0000000000000284
  0
LINE
  5
E307
  8
0
  6
CONTINUOUS
 62
     3
 10
-131.0000000000003979
 20
21.2000000000003084
 30
-0.0000000000000284
 11
-131.0000000000003979
 21
12.1000000000002998
 31
-0.0000000000000284
  0
LINE
  5
E308
  8
0
  6
CONTINUOUS
 62
     3
 10
-131.0000000000003979
 20
10.1000000000002998
 30
-0.0000000000000284
 11
-131.0000000000003979
 21
1.0000000000003091
 31
-0.0000000000000284
  0
LINE
  5
E309
  8
0
  6
CONTINUOUS
 62
     3
 10
-131.0000000000003979
 20
-0.9999999999997042
 30
-0.0000000000000284
 11
-131.0000000000003979
 21
-10.0999999999996906
 31
-0.0000000000000284
  0
LINE
  5
E30A
  8
0
  6
CONTINUOUS
 62
     3
 10
-131.0000000000003979
 20
-12.0999999999996906
 30
-0.0000000000000284
 11
-131.0000000000003979
 21
-21.1999999999996902
 31
-0.0000000000000284
  0
LINE
  5
E30B
  8
0
  6
CONTINUOUS
 62
     3
 10
-131.0000000000003979
 20
-23.1999999999996795
 30
-0.0000000000000284
 11
-131.0000000000003979
 21
-32.2999999999996774
 31
-0.0000000000000284
  0
LINE
  5
E30C
  8
0
  6
CONTINUOUS
 62
     3
 10
-131.0000000000003979
 20
-34.2999999999996916
 30
-0.0000000000000284
 11
-131.0000000000003979
 21
-43.399999999999693
 31
-0.0000000000000284
  0
LINE
  5
E30D
  8
0
  6
CONTINUOUS
 62
     3
 10
-133.0000000000005116
 20
-73.9999999999953957
 30
-0.0000000000000284
 11
-133.0000000000005116
 21
-67.5999999999996817
 31
-0.0000000000000284
  0
LINE
  5
E30E
  8
0
  6
CONTINUOUS
 62
     3
 10
-131.0000000000005116
 20
-73.9999999999953957
 30
-0.0000000000000284
 11
-133.0000000000005116
 21
-73.9999999999953957
 31
-0.0000000000000289
  0
LINE
  5
E30F
  8
0
  6
CONTINUOUS
 62
     3
 10
-133.0000000000005116
 20
12.1000000000002892
 30
-0.0000000000000284
 11
-133.0000000000003979
 21
21.2000000000003084
 31
-0.0000000000000284
  0
LINE
  5
E310
  8
0
  6
CONTINUOUS
 62
     3
 10
-133.0000000000005116
 20
74.0000000000000568
 30
-0.0000000000000284
 11
-131.0000000000003979
 21
74.0000000000000568
 31
-0.000000000000028
  0
LINE
  5
E311
  8
0
  6
CONTINUOUS
 62
     3
 10
-133.0000000000003979
 20
67.600000000000307
 30
-0.0000000000000284
 11
-133.0000000000003979
 21
74.0000000000000568
 31
-0.0000000000000284
  0
LINE
  5
E312
  8
0
  6
CONTINUOUS
 62
     3
 10
-133.0000000000003979
 20
23.2000000000003084
 30
-0.0000000000000284
 11
-133.0000000000003979
 21
32.3000000000002814
 31
-0.0000000000000284
  0
LINE
  5
E313
  8
0
  6
CONTINUOUS
 62
     3
 10
-133.0000000000005116
 20
-21.1999999999996902
 30
-0.0000000000000284
 11
-133.0000000000005116
 21
-12.0999999999996799
 31
-0.0000000000000284
  0
LINE
  5
E314
  8
0
  6
CONTINUOUS
 62
     3
 10
-133.0000000000005116
 20
-65.5999999999997101
 30
-0.0000000000000284
 11
-133.0000000000005116
 21
-56.4999999999997087
 31
-0.0000000000000284
  0
LINE
  5
E315
  8
0
  6
CONTINUOUS
 62
     3
 10
-133.0000000000005116
 20
-43.399999999999693
 30
-0.0000000000000284
 11
-133.0000000000005116
 21
-34.2999999999996987
 31
-0.0000000000000284
  0
LINE
  5
E316
  8
0
  6
CONTINUOUS
 62
     3
 10
-133.0000000000005116
 20
-32.2999999999996774
 30
-0.0000000000000284
 11
-133.0000000000005116
 21
-23.1999999999996795
 31
-0.0000000000000284
  0
LINE
  5
E317
  8
0
  6
CONTINUOUS
 62
     3
 10
-133.0000000000005116
 20
1.0000000000002951
 30
-0.0000000000000284
 11
-133.0000000000005116
 21
10.1000000000002892
 31
-0.0000000000000284
  0
LINE
  5
E318
  8
0
  6
CONTINUOUS
 62
     3
 10
-133.0000000000003979
 20
45.400000000000297
 30
-0.0000000000000284
 11
-133.0000000000003979
 21
54.5000000000003197
 31
-0.0000000000000284
  0
LINE
  5
E319
  8
0
  6
CONTINUOUS
 62
     3
 10
-133.0000000000003979
 20
56.5000000000003268
 30
-0.0000000000000284
 11
-133.0000000000003979
 21
65.6000000000003212
 31
-0.0000000000000284
  0
LINE
  5
E31A
  8
0
  6
CONTINUOUS
 62
     3
 10
-133.0000000000003979
 20
34.3000000000002814
 30
-0.0000000000000284
 11
-133.0000000000003979
 21
43.400000000000297
 31
-0.0000000000000284
  0
LINE
  5
E31B
  8
0
  6
CONTINUOUS
 62
     3
 10
-133.0000000000005116
 20
-10.0999999999996994
 30
-0.0000000000000284
 11
-133.0000000000005116
 21
-0.9999999999997051
 31
-0.0000000000000284
  0
LINE
  5
E31C
  8
0
  6
CONTINUOUS
 62
     3
 10
-133.0000000000005116
 20
-54.4999999999997087
 30
-0.0000000000000284
 11
-133.0000000000005116
 21
-45.3999999999997002
 31
-0.0000000000000284
  0
LINE
  5
E31D
  8
0
  6
CONTINUOUS
 62
     3
 10
-0.5000000000008546
 20
76.0000000000003126
 30
0.0
 11
-0.5000000000008534
 21
53.9979166304967393
 31
0.0
  0
LINE
  5
E31E
  8
0
  6
CONTINUOUS
 62
     3
 10
-3.500000000000854
 20
76.0000000000003126
 30
0.0
 11
-0.5000000000008545
 21
76.0000000000003126
 31
0.0000000000000007
  0
LINE
  5
E31F
  8
0
  6
CONTINUOUS
 62
     3
 10
-3.5000000000008549
 20
56.902702644640307
 30
0.0
 11
-3.500000000000854
 21
76.0000000000003126
 31
0.0
  0
ARC
  5
E320
  8
0
  6
CONTINUOUS
 62
     3
 10
-0.0000000000008199
 20
-5.9999999999996936
 30
0.0
 40
62.9999999999999787
 50
93.1847385367204453
 51
120.5264790631923972
  0
ARC
  5
E321
  8
0
  6
CONTINUOUS
 62
     3
 10
-0.0000000000008341
 20
-5.9999999999997007
 30
0.0
 40
62.9999999999999787
 50
120.5264790631922978
 51
239.4735209368076028
  0
ARC
  5
E322
  8
0
  6
CONTINUOUS
 62
     3
 10
-0.0000000000008306
 20
-5.9999999999996092
 30
0.0
 40
63.0000000000000711
 50
239.473520936807688
 51
266.8152614632796258
  0
LINE
  5
E323
  8
0
  6
CONTINUOUS
 62
     3
 10
-3.5000000000008642
 20
-75.9999999999996874
 30
0.0
 11
-3.5000000000008629
 21
-68.9027026446396746
 31
0.0
  0
LINE
  5
E324
  8
0
  6
CONTINUOUS
 62
     3
 10
-0.5000000000008367
 20
-75.9999999999996874
 30
0.0
 11
-3.5000000000008642
 21
-75.9999999999996874
 31
-0.0000000000000007
  0
LINE
  5
E325
  8
0
  6
CONTINUOUS
 62
     3
 10
-0.5000000000008374
 20
-65.9979166304961211
 30
0.0
 11
-0.5000000000008366
 21
-75.9999999999997016
 31
0.0
  0
ARC
  5
E326
  8
0
  6
CONTINUOUS
 62
     3
 10
-0.0000000000008483
 20
-5.99999999999969
 30
0.0
 40
59.9999999999999929
 50
90.4774703556617084
 51
269.5225296443383058
  0
LINE
  5
E327
  8
0
  6
CONTINUOUS
 62
     3
 10
-34.0000000000003979
 20
-60.2678542048604768
 30
-0.0000000000000071
 11
-32.0000000000004121
 21
-60.2678542048604768
 31
-0.0000000000000067
  0
LINE
  5
E328
  8
0
  6
CONTINUOUS
 62
     3
 10
-32.0000000000003268
 20
-74.0000000000023874
 30
-0.0000000000000071
 11
-34.0000000000003126
 21
-74.0000000000023874
 31
-0.0000000000000075
  0
LINE
  5
E329
  8
0
  6
CONTINUOUS
 62
     3
 10
-34.0000000000003624
 20
-65.5999999999996817
 30
-0.0000000000000071
 11
-34.0000000000003908
 21
-60.2678542048604626
 31
-0.0000000000000071
  0
LINE
  5
E32A
  8
0
  6
CONTINUOUS
 62
     3
 10
-34.0000000000003197
 20
-74.0000000000023874
 30
-0.0000000000000071
 11
-34.0000000000003624
 21
-67.5999999999996533
 31
-0.0000000000000071
  0
LINE
  5
E32B
  8
0
  6
CONTINUOUS
 62
     3
 10
-32.0000000000003766
 20
56.5000000000003126
 30
-0.0000000000000071
 11
-34.0000000000003766
 21
56.5000000000003126
 31
-0.0000000000000075
  0
LINE
  5
E32C
  8
0
  6
CONTINUOUS
 62
     3
 10
-32.0000000000003695
 20
65.600000000000307
 30
-0.0000000000000071
 11
-32.0000000000003908
 21
56.5000000000003126
 31
-0.0000000000000071
  0
LINE
  5
E32D
  8
0
  6
CONTINUOUS
 62
     3
 10
-34.0000000000003695
 20
65.600000000000307
 30
-0.0000000000000071
 11
-32.0000000000003766
 21
65.600000000000307
 31
-0.0000000000000067
  0
LINE
  5
E32E
  8
0
  6
CONTINUOUS
 62
     3
 10
-34.0000000000003979
 20
56.5000000000003126
 30
-0.0000000000000071
 11
-34.0000000000003766
 21
65.6000000000003212
 31
-0.0000000000000071
  0
LINE
  5
E32F
  8
0
  6
CONTINUOUS
 62
     3
 10
-32.0000000000003979
 20
54.5000000000003197
 30
-0.0000000000000071
 11
-32.0000000000004121
 21
48.2678542048610808
 31
-0.0000000000000071
  0
LINE
  5
E330
  8
0
  6
CONTINUOUS
 62
     3
 10
-32.0000000000003482
 20
74.0000000000000853
 30
-0.0000000000000071
 11
-32.0000000000003695
 21
67.600000000000307
 31
-0.0000000000000071
  0
LINE
  5
E331
  8
0
  6
CONTINUOUS
 62
     3
 10
-32.0000000000004192
 20
48.2678542048610808
 30
-0.0000000000000071
 11
-34.0000000000004121
 21
48.2678542048610808
 31
-0.0000000000000075
  0
LINE
  5
E332
  8
0
  6
CONTINUOUS
 62
     3
 10
-34.0000000000003482
 20
74.0000000000000853
 30
-0.0000000000000071
 11
-32.0000000000003482
 21
74.0000000000000853
 31
-0.0000000000000067
  0
LINE
  5
E333
  8
0
  6
CONTINUOUS
 62
     3
 10
-32.0000000000003624
 20
-67.5999999999996817
 30
-0.0000000000000071
 11
-32.0000000000003197
 21
-74.0000000000023874
 31
-0.0000000000000071
  0
LINE
  5
E334
  8
0
  6
CONTINUOUS
 62
     3
 10
-32.0000000000003979
 20
-60.2678542048604768
 30
-0.0000000000000071
 11
-32.0000000000003695
 21
-65.5999999999996959
 31
-0.0000000000000071
  0
LINE
  5
E335
  8
0
  6
CONTINUOUS
 62
     3
 10
-34.0000000000003411
 20
-67.5999999999996817
 30
-0.0000000000000071
 11
-32.0000000000003624
 21
-67.5999999999996817
 31
-0.0000000000000067
  0
LINE
  5
E336
  8
0
  6
CONTINUOUS
 62
     3
 10
-32.0000000000003624
 20
-65.5999999999996817
 30
-0.0000000000000071
 11
-34.0000000000003482
 21
-65.5999999999996817
 31
-0.0000000000000075
  0
LINE
  5
E337
  8
0
  6
CONTINUOUS
 62
     3
 10
-32.0000000000003766
 20
67.600000000000307
 30
-0.0000000000000071
 11
-34.0000000000003766
 21
67.600000000000307
 31
-0.0000000000000075
  0
LINE
  5
E338
  8
0
  6
CONTINUOUS
 62
     3
 10
-34.0000000000003695
 20
67.600000000000307
 30
-0.0000000000000071
 11
-34.0000000000003624
 21
74.0000000000000853
 31
-0.0000000000000071
  0
LINE
  5
E339
  8
0
  6
CONTINUOUS
 62
     3
 10
-34.0000000000004121
 20
54.5000000000003197
 30
-0.0000000000000071
 11
-32.0000000000003979
 21
54.5000000000003197
 31
-0.0000000000000067
  0
LINE
  5
E33A
  8
0
  6
CONTINUOUS
 62
     3
 10
-34.0000000000004121
 20
48.2678542048610808
 30
-0.0000000000000071
 11
-34.0000000000003979
 21
54.5000000000003197
 31
-0.0000000000000071
  0
ARC
  5
E33B
  8
0
  6
CONTINUOUS
 62
     3
 10
-140.0000000000009095
 20
-50.0000000000000711
 30
-0.000000000000032
 40
5.0000000000004539
 50
0.0000000000029516
 51
66.9260819343684545
  0
ARC
  5
E33C
  8
0
  6
CONTINUOUS
 62
     3
 10
-140.000000000000199
 20
-49.9999999999997797
 30
-0.000000000000032
 40
5.0000000000000613
 50
113.0739180656303944
 51
244.1580672368278044
  0
ARC
  5
E33D
  8
0
  6
CONTINUOUS
 62
     3
 10
-140.0000000000007105
 20
-49.9999999999997016
 30
-0.000000000000032
 40
5.0000000000002043
 50
295.8419327631718261
 51
359.9999999999985789
  0
CIRCLE
  5
E33E
  8
0
  6
CONTINUOUS
 62
     3
 10
-140.0000000000003979
 20
-49.9999999999998224
 30
-0.000000000000032
 40
4.0000000000002274
  0
LINE
  5
E33F
  8
0
  6
CONTINUOUS
 62
     3
 10
-3.5000000000008642
 20
-75.9999999999996874
 30
0.0
 11
-200.0000000000003126
 21
-75.9999999999997158
 31
-0.0000000000000436
  0
LINE
  5
E340
  8
0
  6
CONTINUOUS
 62
     3
 10
-200.0000000000003126
 20
-75.9999999999997442
 30
-0.0000000000000426
 11
-200.0000000000003126
 21
-73.9999999999999716
 31
-0.0000000000000426
  0
LINE
  5
E341
  8
0
  6
CONTINUOUS
 62
     3
 10
-200.0000000000003126
 20
-73.9999999999999716
 30
-0.0000000000000426
 11
-3.5000000000008522
 21
-73.9999999999999432
 31
0.000000000000001
  0
LINE
  5
E342
  8
0
  6
CONTINUOUS
 62
     3
 10
-3.5000000000008602
 20
-73.9999999999999716
 30
0.0
 11
-3.5000000000008642
 21
-75.9999999999997016
 31
0.0
  0
LINE
  5
E343
  8
0
  6
CONTINUOUS
 62
     3
 10
-3.500000000000854
 20
76.0000000000003126
 30
0.0
 11
-3.500000000000854
 21
74.0000000000000426
 31
0.0
  0
LINE
  5
E344
  8
0
  6
CONTINUOUS
 62
     3
 10
-3.500000000000854
 20
74.0000000000000568
 30
0.0
 11
-200.0000000000003979
 21
74.0000000000000426
 31
-0.0000000000000436
  0
LINE
  5
E345
  8
0
  6
CONTINUOUS
 62
     3
 10
-200.0000000000003979
 20
74.0000000000000284
 30
-0.0000000000000426
 11
-200.0000000000003979
 21
76.0000000000002558
 31
-0.0000000000000426
  0
LINE
  5
E346
  8
0
  6
CONTINUOUS
 62
     3
 10
-200.0000000000003979
 20
76.0000000000002558
 30
-0.0000000000000426
 11
-3.5000000000009091
 21
76.0000000000003126
 31
0.000000000000001
  0
LINE
  5
E347
  8
0
  6
CONTINUOUS
 62
     3
 10
-198.0000000000003979
 20
-43.3999999999997002
 30
-0.0000000000000426
 11
-50.6975344568163777
 21
-43.399999999999693
 31
-0.0000000000000099
  0
LINE
  5
E348
  8
0
  6
CONTINUOUS
 62
     3
 10
-50.6975344568163706
 20
-43.399999999999693
 30
-0.0000000000000142
 11
-50.6975344568163706
 21
-45.399999999999693
 31
-0.0000000000000142
  0
LINE
  5
E349
  8
0
  6
CONTINUOUS
 62
     3
 10
-50.6975344568163706
 20
-45.399999999999693
 30
-0.0000000000000142
 11
-198.0000000000003126
 21
-45.399999999999693
 31
-0.0000000000000469
  0
LINE
  5
E34A
  8
0
  6
CONTINUOUS
 62
     3
 10
-198.0000000000003979
 20
-45.3999999999997002
 30
-0.0000000000000426
 11
-198.0000000000003979
 21
-43.3999999999997002
 31
-0.0000000000000426
  0
LINE
  5
E34B
  8
0
  6
CONTINUOUS
 62
     3
 10
-62.8012738724311532
 20
1.0000000000003051
 30
-0.0000000000000142
 11
-62.8012738724311532
 21
-0.9999999999996941
 31
-0.0000000000000142
  0
LINE
  5
E34C
  8
0
  6
CONTINUOUS
 62
     3
 10
-62.8012738724311532
 20
-0.9999999999996942
 30
-0.0000000000000142
 11
-198.0000000000003979
 21
-0.9999999999997212
 31
-0.0000000000000442
  0
LINE
  5
E34D
  8
0
  6
CONTINUOUS
 62
     3
 10
-198.0000000000003979
 20
-0.9999999999997211
 30
-0.0000000000000426
 11
-198.0000000000003979
 21
1.000000000000278
 31
-0.0000000000000426
  0
LINE
  5
E34E
  8
0
  6
CONTINUOUS
 62
     3
 10
-198.0000000000003979
 20
1.0000000000002791
 30
-0.0000000000000426
 11
-62.8012738724311603
 21
1.0000000000003051
 31
-0.0000000000000126
  0
LINE
  5
E34F
  8
0
  6
CONTINUOUS
 62
     3
 10
-39.0978260265204867
 20
43.4000000000003112
 30
-0.0000000000000071
 11
-198.0000000000003126
 21
43.4000000000002899
 31
-0.0000000000000424
  0
LINE
  5
E350
  8
0
  6
CONTINUOUS
 62
     3
 10
-198.0000000000003979
 20
43.4000000000002899
 30
-0.0000000000000426
 11
-198.0000000000003979
 21
45.4000000000002899
 31
-0.0000000000000426
  0
LINE
  5
E351
  8
0
  6
CONTINUOUS
 62
     3
 10
-198.0000000000003979
 20
45.4000000000002899
 30
-0.0000000000000426
 11
-39.0978260265204867
 21
45.4000000000003183
 31
-0.0000000000000073
  0
LINE
  5
E352
  8
0
  6
CONTINUOUS
 62
     3
 10
-39.0978260265204867
 20
45.4000000000003183
 30
-0.0000000000000071
 11
-39.0978260265204867
 21
43.4000000000003112
 31
-0.0000000000000071
  0
LINE
  5
E353
  8
0
  6
CONTINUOUS
 62
     3
 10
-17.5712833908063004
 20
54.5000000000003268
 30
-0.0000000000000071
 11
-198.0000000000003979
 21
54.5000000000003197
 31
-0.0000000000000472
  0
LINE
  5
E354
  8
0
  6
CONTINUOUS
 62
     3
 10
-198.0000000000003979
 20
54.5000000000003126
 30
-0.0000000000000426
 11
-198.0000000000003979
 21
56.5000000000003126
 31
-0.0000000000000426
  0
LINE
  5
E355
  8
0
  6
CONTINUOUS
 62
     3
 10
-198.0000000000003979
 20
56.5000000000003197
 30
-0.0000000000000426
 11
-17.5712833908062791
 21
56.5000000000003197
 31
-0.0000000000000026
  0
LINE
  5
E356
  8
0
  6
CONTINUOUS
 62
     3
 10
-17.5712833908063004
 20
56.5000000000003197
 30
-0.0000000000000071
 11
-17.5712833908063004
 21
54.5000000000003268
 31
-0.0000000000000071
  0
LINE
  5
E357
  8
0
  6
CONTINUOUS
 62
     3
 10
-198.0000000000003979
 20
10.1000000000002998
 30
-0.0000000000000426
 11
-198.0000000000003979
 21
12.1000000000002998
 31
-0.0000000000000426
  0
LINE
  5
E358
  8
0
  6
CONTINUOUS
 62
     3
 10
-198.0000000000003979
 20
12.1000000000002998
 30
-0.0000000000000426
 11
-60.9080454455739471
 21
12.1000000000002803
 31
-0.0000000000000122
  0
LINE
  5
E359
  8
0
  6
CONTINUOUS
 62
     3
 10
-60.9080454455739329
 20
12.1000000000002803
 30
-0.0000000000000142
 11
-60.9080454455739329
 21
10.1000000000002892
 31
-0.0000000000000142
  0
LINE
  5
E35A
  8
0
  6
CONTINUOUS
 62
     3
 10
-60.9080454455739329
 20
10.1000000000002892
 30
-0.0000000000000142
 11
-198.0000000000003979
 21
10.1000000000002892
 31
-0.0000000000000447
  0
LINE
  5
E35B
  8
0
  6
CONTINUOUS
 62
     3
 10
-198.0000000000003979
 20
-32.2999999999996916
 30
-0.0000000000000426
 11
-57.2477947173521713
 21
-32.2999999999996987
 31
-0.0000000000000114
  0
LINE
  5
E35C
  8
0
  6
CONTINUOUS
 62
     3
 10
-57.2477947173521571
 20
-32.2999999999996987
 30
-0.0000000000000142
 11
-57.2477947173521571
 21
-34.2999999999996916
 31
-0.0000000000000142
  0
LINE
  5
E35D
  8
0
  6
CONTINUOUS
 62
     3
 10
-57.2477947173521571
 20
-34.2999999999996916
 30
-0.0000000000000142
 11
-198.0000000000003126
 21
-34.2999999999996916
 31
-0.0000000000000455
  0
LINE
  5
E35E
  8
0
  6
CONTINUOUS
 62
     3
 10
-198.0000000000003979
 20
-34.2999999999996916
 30
-0.0000000000000426
 11
-198.0000000000003979
 21
-32.2999999999996916
 31
-0.0000000000000426
  0
LINE
  5
E35F
  8
0
  6
CONTINUOUS
 62
     3
 10
-40.208829876036738
 20
-54.4999999999996874
 30
-0.0000000000000071
 11
-40.208829876036738
 21
-56.4999999999997016
 31
-0.0000000000000071
  0
LINE
  5
E360
  8
0
  6
CONTINUOUS
 62
     3
 10
-40.208829876036738
 20
-56.4999999999997016
 30
-0.0000000000000071
 11
-198.0000000000003979
 21
-56.4999999999997016
 31
-0.0000000000000421
  0
LINE
  5
E361
  8
0
  6
CONTINUOUS
 62
     3
 10
-198.0000000000003979
 20
-56.4999999999997087
 30
-0.0000000000000426
 11
-198.0000000000003979
 21
-54.4999999999997016
 31
-0.0000000000000426
  0
LINE
  5
E362
  8
0
  6
CONTINUOUS
 62
     3
 10
-198.0000000000003979
 20
-54.4999999999997016
 30
-0.0000000000000426
 11
-40.2088298760367593
 21
-54.4999999999996874
 31
-0.0000000000000076
  0
LINE
  5
E363
  8
0
  6
CONTINUOUS
 62
     3
 10
-62.8664457401569905
 20
-10.0999999999996994
 30
-0.0000000000000142
 11
-62.8664457401569905
 21
-12.0999999999996906
 31
-0.0000000000000142
  0
LINE
  5
E364
  8
0
  6
CONTINUOUS
 62
     3
 10
-62.8664457401569905
 20
-12.0999999999996906
 30
-0.0000000000000142
 11
-198.0000000000003126
 21
-12.0999999999997101
 31
-0.0000000000000442
  0
LINE
  5
E365
  8
0
  6
CONTINUOUS
 62
     3
 10
-198.0000000000003979
 20
-12.0999999999996994
 30
-0.0000000000000426
 11
-198.0000000000003979
 21
-10.0999999999996994
 31
-0.0000000000000426
  0
LINE
  5
E366
  8
0
  6
CONTINUOUS
 62
     3
 10
-198.0000000000003979
 20
-10.0999999999996994
 30
-0.0000000000000426
 11
-62.8664457401569905
 21
-10.0999999999996994
 31
-0.0000000000000126
  0
LINE
  5
E367
  8
0
  6
CONTINUOUS
 62
     3
 10
-50.0210955497786216
 20
32.3000000000003098
 30
-0.0000000000000142
 11
-198.0000000000003979
 21
32.3000000000002814
 31
-0.0000000000000471
  0
LINE
  5
E368
  8
0
  6
CONTINUOUS
 62
     3
 10
-198.0000000000003979
 20
32.3000000000002814
 30
-0.0000000000000426
 11
-198.0000000000003979
 21
34.3000000000002814
 31
-0.0000000000000426
  0
LINE
  5
E369
  8
0
  6
CONTINUOUS
 62
     3
 10
-198.0000000000003979
 20
34.3000000000002814
 30
-0.0000000000000426
 11
-50.0210955497786287
 21
34.3000000000002814
 31
-0.0000000000000098
  0
LINE
  5
E36A
  8
0
  6
CONTINUOUS
 62
     3
 10
-50.0210955497786216
 20
34.3000000000002814
 30
-0.0000000000000142
 11
-50.0210955497786216
 21
32.3000000000003098
 31
-0.0000000000000142
  0
LINE
  5
E36B
  8
0
  6
CONTINUOUS
 62
     3
 10
-3.5000000000008611
 20
65.600000000000307
 30
0.0
 11
-198.0000000000003979
 21
65.600000000000307
 31
-0.0000000000000432
  0
LINE
  5
E36C
  8
0
  6
CONTINUOUS
 62
     3
 10
-198.0000000000003979
 20
65.600000000000307
 30
-0.0000000000000426
 11
-198.0000000000003979
 21
67.600000000000307
 31
-0.0000000000000426
  0
LINE
  5
E36D
  8
0
  6
CONTINUOUS
 62
     3
 10
-198.0000000000003979
 20
67.600000000000307
 30
-0.0000000000000426
 11
-3.5000000000008522
 21
67.6000000000002785
 31
0.0000000000000006
  0
LINE
  5
E36E
  8
0
  6
CONTINUOUS
 62
     3
 10
-3.5000000000008691
 20
67.6000000000002785
 30
0.0
 11
-3.5000000000008611
 21
65.600000000000307
 31
0.0
  0
LINE
  5
E36F
  8
0
  6
CONTINUOUS
 62
     3
 10
-198.0000000000003979
 20
21.2000000000003084
 30
-0.0000000000000426
 11
-198.0000000000003979
 21
23.200000000000319
 31
-0.0000000000000426
  0
LINE
  5
E370
  8
0
  6
CONTINUOUS
 62
     3
 10
-198.0000000000003979
 20
23.2000000000003084
 30
-0.0000000000000426
 11
-56.8256984118989408
 21
23.2000000000003084
 31
-0.0000000000000113
  0
LINE
  5
E371
  8
0
  6
CONTINUOUS
 62
     3
 10
-56.8256984118989479
 20
23.2000000000003084
 30
-0.0000000000000142
 11
-56.8256984118989479
 21
21.2000000000003084
 31
-0.0000000000000142
  0
LINE
  5
E372
  8
0
  6
CONTINUOUS
 62
     3
 10
-56.8256984118989479
 20
21.2000000000003084
 30
-0.0000000000000142
 11
-198.0000000000003979
 21
21.2000000000003084
 31
-0.0000000000000456
  0
LINE
  5
E373
  8
0
  6
CONTINUOUS
 62
     3
 10
-61.1388583472091014
 20
-23.1999999999997009
 30
-0.0000000000000142
 11
-198.0000000000003979
 21
-23.1999999999996902
 31
-0.0000000000000446
  0
LINE
  5
E374
  8
0
  6
CONTINUOUS
 62
     3
 10
-198.0000000000003979
 20
-23.1999999999996902
 30
-0.0000000000000426
 11
-198.0000000000003979
 21
-21.1999999999996902
 31
-0.0000000000000426
  0
LINE
  5
E375
  8
0
  6
CONTINUOUS
 62
     3
 10
-198.0000000000003979
 20
-21.1999999999996902
 30
-0.0000000000000426
 11
-61.1388583472091227
 21
-21.1999999999997009
 31
-0.0000000000000122
  0
LINE
  5
E376
  8
0
  6
CONTINUOUS
 62
     3
 10
-61.1388583472091014
 20
-21.1999999999997009
 30
-0.0000000000000142
 11
-61.1388583472091014
 21
-23.1999999999997009
 31
-0.0000000000000142
  0
LINE
  5
E377
  8
0
  6
CONTINUOUS
 62
     3
 10
-20.4166598639452701
 20
-65.5999999999996817
 30
-0.0000000000000071
 11
-20.4166598639452701
 21
-67.5999999999996817
 31
-0.0000000000000071
  0
LINE
  5
E378
  8
0
  6
CONTINUOUS
 62
     3
 10
-20.4166598639452701
 20
-67.5999999999996817
 30
-0.0000000000000071
 11
-198.0000000000003979
 21
-67.5999999999996959
 31
-0.0000000000000465
  0
LINE
  5
E379
  8
0
  6
CONTINUOUS
 62
     3
 10
-198.0000000000003979
 20
-67.5999999999997101
 30
-0.0000000000000426
 11
-198.0000000000003979
 21
-65.5999999999997101
 31
-0.0000000000000426
  0
LINE
  5
E37A
  8
0
  6
CONTINUOUS
 62
     3
 10
-198.0000000000003979
 20
-65.5999999999997101
 30
-0.0000000000000426
 11
-20.4166598639453092
 21
-65.5999999999996959
 31
-0.0000000000000032
  0
ARC
  5
E37B
  8
0
  6
CONTINUOUS
 62
     3
 10
-140.0000000000007105
 20
50.0000000000000711
 30
-0.000000000000032
 40
5.0000000000002274
 50
293.0739180656462963
 51
359.9999999999974989
  0
ARC
  5
E37C
  8
0
  6
CONTINUOUS
 62
     3
 10
-140.0000000000007105
 20
49.9999999999998508
 30
-0.000000000000032
 40
4.9999999999999112
 50
115.8419327631531957
 51
246.9260819343573985
  0
ARC
  5
E37D
  8
0
  6
CONTINUOUS
 62
     3
 10
-140.0
 20
50.0000000000000995
 30
-0.000000000000032
 40
4.9999999999995799
 50
359.9999999999972147
 51
64.1580672368478844
  0
CIRCLE
  5
E37E
  8
0
  6
CONTINUOUS
 62
     3
 10
-140.0000000000003979
 20
49.9999999999998508
 30
-0.000000000000032
 40
4.0000000000002274
  0
ARC
  5
E37F
  8
0
  6
CONTINUOUS
 62
     3
 10
-140.0000000000003979
 20
-49.9999999999999289
 30
-0.0000000000000284
 40
6.0000000000000204
 50
311.4096221092743804
 51
50.0554948101885984
  0
ARC
  5
E380
  8
0
  6
CONTINUOUS
 62
     3
 10
-140.0000000000003126
 20
-49.9999999999999218
 30
-0.0000000000000284
 40
6.0000000000000266
 50
129.9445051898117072
 51
228.5903778907255912
  0
ARC
  5
E381
  8
0
  6
CONTINUOUS
 62
     3
 10
-140.0000000000003979
 20
50.0000000000000426
 30
-0.0000000000000284
 40
6.0000000000000151
 50
309.9445051898189263
 51
48.590377890733059
  0
ARC
  5
E382
  8
0
  6
CONTINUOUS
 62
     3
 10
-140.0000000000003979
 20
50.0000000000000426
 30
-0.0000000000000284
 40
6.0000000000000107
 50
131.4096221092673034
 51
230.0554948101811021
  0
ARC
  5
E383
  8
0
  6
CONTINUOUS
 62
     3
 10
139.9999999999994884
 20
-50.0000000000000426
 30
0.0000000000000284
 40
5.9999999999999938
 50
311.4096221092756878
 51
50.0554948101905381
  0
ARC
  5
E384
  8
0
  6
CONTINUOUS
 62
     3
 10
139.9999999999994884
 20
-50.0000000000000426
 30
0.0000000000000284
 40
5.9999999999999956
 50
129.9445051898100871
 51
228.5903778907241986
  0
ARC
  5
E385
  8
0
  6
CONTINUOUS
 62
     3
 10
139.9999999999994884
 20
49.9999999999999574
 30
0.000000000000032
 40
6.0000000000000417
 50
309.9445051898204042
 51
48.5903778907340111
  0
ARC
  5
E386
  8
0
  6
CONTINUOUS
 62
     3
 10
139.9999999999996021
 20
49.9999999999999432
 30
0.000000000000032
 40
6.0000000000000062
 50
131.4096221092657117
 51
230.0554948101797095
  0
ARC
  5
E387
  8
0
  6
CONTINUOUS
 62
     3
 10
0.0000000000000502
 20
-6.0000000000672449
 30
0.0
 40
59.9999999999327471
 50
269.5225296443368848
 51
270.4774703556623194
  0
LINE
  5
E388
  8
0
  6
CONTINUOUS
 62
     3
 10
-53.0377224247051018
 20
-39.9999999999999929
 30
-0.0000000000000142
 11
-65.000000000000469
 21
-39.9999999999999787
 31
-0.0000000000000169
  0
LINE
  5
E389
  8
0
  6
CONTINUOUS
 62
     3
 10
-67.0000000000004832
 20
-39.9999999999999929
 30
-0.0000000000000142
 11
-98.0000000000004547
 21
-39.9999999999999716
 31
-0.0000000000000211
  0
LINE
  5
E38A
  8
0
  6
CONTINUOUS
 62
     3
 10
-100.0000000000004974
 20
-39.9999999999999716
 30
-0.0000000000000213
 11
-131.0000000000005116
 21
-39.9999999999999574
 31
-0.0000000000000282
  0
LINE
  5
E38B
  8
0
  6
CONTINUOUS
 62
     3
 10
-133.0000000000005116
 20
-39.9999999999999574
 30
-0.0000000000000284
 11
-164.0000000000003126
 21
-39.9999999999999503
 31
-0.0000000000000353
  0
LINE
  5
E38C
  8
0
  6
CONTINUOUS
 62
     3
 10
-164.0000000000003979
 20
40.0000000000000711
 30
-0.0000000000000355
 11
-133.0000000000003979
 21
40.0000000000000568
 31
-0.0000000000000286
  0
LINE
  5
E38D
  8
0
  6
CONTINUOUS
 62
     3
 10
-131.0000000000003979
 20
40.0000000000000568
 30
-0.0000000000000284
 11
-100.0000000000004974
 21
40.0000000000000497
 31
-0.0000000000000215
  0
LINE
  5
E38E
  8
0
  6
CONTINUOUS
 62
     3
 10
-98.0000000000004547
 20
40.0000000000000426
 30
-0.0000000000000213
 11
-67.0000000000004832
 21
40.0000000000000213
 31
-0.0000000000000144
  0
LINE
  5
E38F
  8
0
  6
CONTINUOUS
 62
     3
 10
-65.000000000000469
 20
40.0000000000000071
 30
-0.0000000000000142
 11
-49.9599839871871509
 21
40.0
 31
-0.0000000000000109
  0
ARC
  5
E390
  8
0
  6
CONTINUOUS
 62
     3
 10
-49.959983987187158
 20
41.0000000000000426
 30
-0.0000000000000142
 40
1.00000000000003
 50
270.0000000000003979
 51
324.98642562037071
  0
ARC
  5
E391
  8
0
  6
CONTINUOUS
 62
     3
 10
0.0000000000068754
 20
5.999999999995139
 30
0.0
 40
60.0000000000083915
 50
141.4400371614127039
 51
144.986425620371989
  0
ARC
  5
E392
  8
0
  6
CONTINUOUS
 62
     3
 10
-0.0000000000010116
 20
6.0000000000010871
 30
0.0
 40
59.9999999999984865
 50
126.0665882597875935
 51
138.9538534148242093
  0
ARC
  5
E393
  8
0
  6
CONTINUOUS
 62
     3
 10
0.0000000000001341
 20
5.9999999999996438
 30
0.0
 40
60.0000000000003624
 50
96.6196277952813745
 51
122.2309526355025042
  0
ARC
  5
E394
  8
0
  6
CONTINUOUS
 62
     3
 10
0.0000000000004472
 20
5.9999999999633067
 30
0.0
 40
60.0000000000366924
 50
89.5225296443389453
 51
90.4774703556626463
  0
ARC
  5
E395
  8
0
  6
CONTINUOUS
 62
     3
 10
0.0000000000001323
 20
6.00000000000027
 30
0.0
 40
59.99999999999973
 50
57.7690473644982774
 51
83.380372204718725
  0
ARC
  5
E396
  8
0
  6
CONTINUOUS
 62
     3
 10
-0.0000000000000666
 20
5.9999999999998863
 30
0.0
 40
60.0000000000001492
 50
41.0461465851759684
 51
53.9334117402121791
  0
ARC
  5
E397
  8
0
  6
CONTINUOUS
 62
     3
 10
0.0000000000043601
 20
6.0000000000032179
 30
0.0
 40
59.999999999994607
 50
35.0135743796277481
 51
38.5599628385879001
  0
ARC
  5
E398
  8
0
  6
CONTINUOUS
 62
     3
 10
49.9599839871872291
 20
41.0
 30
0.0000000000000142
 40
1.000000000000014
 50
215.01357437962929
 51
270.0
  0
LINE
  5
E399
  8
0
  6
CONTINUOUS
 62
     3
 10
49.9599839871872291
 20
39.9999999999999929
 30
0.0000000000000142
 11
64.9999999999996732
 21
39.9999999999999787
 31
0.0000000000000176
  0
LINE
  5
E39A
  8
0
  6
CONTINUOUS
 62
     3
 10
66.9999999999997158
 20
39.9999999999999929
 30
0.0000000000000142
 11
97.9999999999996589
 21
39.9999999999999787
 31
0.0000000000000211
  0
LINE
  5
E39B
  8
0
  6
CONTINUOUS
 62
     3
 10
99.9999999999996874
 20
39.9999999999999716
 30
0.0000000000000213
 11
130.9999999999996021
 21
39.9999999999999503
 31
0.0000000000000282
  0
LINE
  5
E39C
  8
0
  6
CONTINUOUS
 62
     3
 10
132.9999999999996021
 20
39.9999999999999503
 30
0.0000000000000284
 11
163.9999999999996021
 21
39.9999999999999432
 31
0.0000000000000353
  0
LINE
  5
E39D
  8
0
  6
CONTINUOUS
 62
     3
 10
163.9999999999996021
 20
-40.0000000000000711
 30
0.0000000000000355
 11
132.9999999999996021
 21
-40.0000000000000568
 31
0.0000000000000286
  0
LINE
  5
E39E
  8
0
  6
CONTINUOUS
 62
     3
 10
130.9999999999996021
 20
-40.0000000000000568
 30
0.0000000000000284
 11
99.9999999999996874
 21
-40.0000000000000426
 31
0.0000000000000215
  0
LINE
  5
E39F
  8
0
  6
CONTINUOUS
 62
     3
 10
97.9999999999997016
 20
-40.0000000000000426
 30
0.0000000000000213
 11
66.99999999999973
 21
-40.0000000000000213
 31
0.0000000000000144
  0
LINE
  5
E3A0
  8
0
  6
CONTINUOUS
 62
     3
 10
64.99999999999973
 20
-40.0000000000000284
 30
0.0000000000000142
 11
53.0377224247043273
 21
-40.0000000000000213
 31
0.0000000000000116
  0
LINE
  5
E3A1
  8
0
  6
CONTINUOUS
 62
     3
 10
199.9999999999994884
 20
-78.5
 30
0.0000000000000426
 11
198.9999999999994884
 21
-78.5
 31
0.0000000000000426
  0
LINE
  5
E3A2
  8
0
  6
CONTINUOUS
 62
     3
 10
199.9999999999996021
 20
-78.4999999999999858
 30
0.0000000000000426
 11
199.9999999999996021
 21
-76.5
 31
0.0000000000000426
  0
LINE
  5
E3A3
  8
0
  6
CONTINUOUS
 62
     3
 10
198.9999999999994884
 20
-76.5
 30
0.0000000000000426
 11
199.9999999999994884
 21
-76.5
 31
0.0000000000000426
  0
LINE
  5
E3A4
  8
0
  6
CONTINUOUS
 62
     3
 10
-199.0000000000003126
 20
-76.5000000000000284
 30
-0.0000000000000426
 11
198.9999999999994884
 21
-76.5
 31
0.0000000000000457
  0
LINE
  5
E3A5
  8
0
  6
CONTINUOUS
 62
     3
 10
-199.0000000000003126
 20
-78.5000000000000284
 30
-0.0000000000000426
 11
198.9999999999994884
 21
-78.5
 31
0.0000000000000457
  0
LINE
  5
E3A6
  8
0
  6
CONTINUOUS
 62
     3
 10
-200.0000000000003126
 20
-76.5
 30
-0.0000000000000426
 11
-199.0000000000003126
 21
-76.5
 31
-0.0000000000000426
  0
LINE
  5
E3A7
  8
0
  6
CONTINUOUS
 62
     3
 10
-199.0000000000003126
 20
-78.5
 30
-0.0000000000000426
 11
-200.0000000000003126
 21
-78.5
 31
-0.0000000000000426
  0
LINE
  5
E3A8
  8
0
  6
CONTINUOUS
 62
     3
 10
-200.0000000000003126
 20
-76.5000000000000568
 30
-0.0000000000000426
 11
-200.0000000000003126
 21
-78.5000000000000142
 31
-0.0000000000000426
  0
LINE
  5
E3A9
  8
0
  6
CONTINUOUS
 62
     3
 10
199.9999999999996021
 20
-76.4999999999999716
 30
0.0000000000000426
 11
199.9999999999996021
 21
-75.9999999999997442
 31
0.0000000000000426
  0
LINE
  5
E3AA
  8
0
  6
CONTINUOUS
 62
     3
 10
-200.0000000000003126
 20
-76.4999999999999858
 30
-0.0000000000000426
 11
-200.0000000000003126
 21
-75.9999999999997442
 31
-0.0000000000000426
  0
LINE
  5
E3AB
  8
0
  6
CONTINUOUS
 62
     3
 10
199.9999999999996021
 20
78.4999999999998863
 30
0.0000000000000426
 11
198.9999999999994884
 21
78.4999999999998863
 31
0.0000000000000426
  0
LINE
  5
E3AC
  8
0
  6
CONTINUOUS
 62
     3
 10
198.9999999999994884
 20
76.4999999999998863
 30
0.0000000000000426
 11
199.9999999999996021
 21
76.4999999999998863
 31
0.0000000000000426
  0
LINE
  5
E3AD
  8
0
  6
CONTINUOUS
 62
     3
 10
199.9999999999996021
 20
78.4999999999998579
 30
0.0000000000000426
 11
199.9999999999996021
 21
76.4999999999998579
 31
0.0000000000000426
  0
LINE
  5
E3AE
  8
0
  6
CONTINUOUS
 62
     3
 10
-199.0000000000003126
 20
78.5000000000001421
 30
-0.0000000000000426
 11
198.9999999999994884
 21
78.4999999999998721
 31
0.0000000000000457
  0
LINE
  5
E3AF
  8
0
  6
CONTINUOUS
 62
     3
 10
-199.0000000000003126
 20
76.5000000000001421
 30
-0.0000000000000426
 11
198.9999999999994884
 21
76.4999999999998721
 31
0.0000000000000457
  0
LINE
  5
E3B0
  8
0
  6
CONTINUOUS
 62
     3
 10
-200.0000000000003126
 20
76.5000000000001137
 30
-0.0000000000000426
 11
-199.0000000000003126
 21
76.5000000000001137
 31
-0.0000000000000426
  0
LINE
  5
E3B1
  8
0
  6
CONTINUOUS
 62
     3
 10
-199.0000000000003126
 20
78.5000000000001137
 30
-0.0000000000000426
 11
-200.0000000000003126
 21
78.5000000000001137
 31
-0.0000000000000426
  0
LINE
  5
E3B2
  8
0
  6
CONTINUOUS
 62
     3
 10
-200.0000000000003126
 20
76.5000000000001847
 30
-0.0000000000000426
 11
-200.0000000000003126
 21
78.5000000000001421
 31
-0.0000000000000426
  0
LINE
  5
E3B3
  8
0
  6
CONTINUOUS
 62
     3
 10
-200.0000000000003126
 20
76.5000000000000853
 30
-0.0000000000000426
 11
-200.0000000000003126
 21
76.0000000000002558
 31
-0.0000000000000426
  0
LINE
  5
E3B4
  8
0
  6
CONTINUOUS
 62
     3
 10
199.9999999999996021
 20
76.4999999999998579
 30
0.0000000000000426
 11
199.9999999999996021
 21
76.0000000000002558
 31
0.0000000000000426
  0
LINE
  5
E3B5
  8
0
  6
CONTINUOUS
 62
     3
 10
99.9999999999997158
 20
-45.399999999999693
 30
0.0000000000000213
 11
97.9999999999997016
 21
-45.399999999999693
 31
0.0000000000000209
  0
LINE
  5
E3B6
  8
0
  6
CONTINUOUS
 62
     3
 10
97.9999999999997016
 20
-43.399999999999693
 30
0.0000000000000213
 11
99.9999999999997158
 21
-43.399999999999693
 31
0.0000000000000218
  0
LINE
  5
E3B7
  8
0
  6
CONTINUOUS
 62
     3
 10
99.9999999999997158
 20
-0.9999999999997015
 30
0.0000000000000213
 11
97.9999999999997016
 21
-0.9999999999997012
 31
0.0000000000000209
  0
LINE
  5
E3B8
  8
0
  6
CONTINUOUS
 62
     3
 10
97.9999999999996732
 20
1.0000000000002991
 30
0.0000000000000213
 11
99.9999999999997158
 21
1.000000000000298
 31
0.0000000000000218
  0
LINE
  5
E3B9
  8
0
  6
CONTINUOUS
 62
     3
 10
99.9999999999997158
 20
43.400000000000297
 30
0.0000000000000213
 11
97.9999999999997016
 21
43.400000000000297
 31
0.0000000000000209
  0
LINE
  5
E3BA
  8
0
  6
CONTINUOUS
 62
     3
 10
97.9999999999996732
 20
45.400000000000297
 30
0.0000000000000213
 11
99.9999999999996874
 21
45.400000000000297
 31
0.0000000000000218
  0
LINE
  5
E3BB
  8
0
  6
CONTINUOUS
 62
     3
 10
97.9999999999996589
 20
56.5000000000003126
 30
0.0000000000000213
 11
99.9999999999996874
 21
56.5000000000003126
 31
0.0000000000000218
  0
LINE
  5
E3BC
  8
0
  6
CONTINUOUS
 62
     3
 10
99.9999999999997158
 20
54.5000000000003126
 30
0.0000000000000213
 11
97.9999999999997016
 21
54.5000000000003126
 31
0.0000000000000209
  0
LINE
  5
E3BD
  8
0
  6
CONTINUOUS
 62
     3
 10
99.9999999999997158
 20
10.1000000000002892
 30
0.0000000000000213
 11
97.9999999999997016
 21
10.1000000000002892
 31
0.0000000000000209
  0
LINE
  5
E3BE
  8
0
  6
CONTINUOUS
 62
     3
 10
97.9999999999997016
 20
12.1000000000002892
 30
0.0000000000000213
 11
99.9999999999997158
 21
12.1000000000002892
 31
0.0000000000000218
  0
LINE
  5
E3BF
  8
0
  6
CONTINUOUS
 62
     3
 10
97.9999999999997016
 20
-32.2999999999996987
 30
0.0000000000000213
 11
99.9999999999997158
 21
-32.2999999999996987
 31
0.0000000000000218
  0
LINE
  5
E3C0
  8
0
  6
CONTINUOUS
 62
     3
 10
99.99999999999973
 20
-34.2999999999996916
 30
0.0000000000000213
 11
97.9999999999997158
 21
-34.2999999999996916
 31
0.0000000000000209
  0
LINE
  5
E3C1
  8
0
  6
CONTINUOUS
 62
     3
 10
99.9999999999997158
 20
-56.4999999999997087
 30
0.0000000000000213
 11
97.9999999999997158
 21
-56.4999999999997087
 31
0.0000000000000209
  0
LINE
  5
E3C2
  8
0
  6
CONTINUOUS
 62
     3
 10
97.9999999999996732
 20
-54.4999999999997016
 30
0.0000000000000213
 11
99.9999999999997158
 21
-54.4999999999997016
 31
0.0000000000000218
  0
LINE
  5
E3C3
  8
0
  6
CONTINUOUS
 62
     3
 10
99.9999999999997158
 20
-12.0999999999996906
 30
0.0000000000000213
 11
97.9999999999997016
 21
-12.0999999999996906
 31
0.0000000000000209
  0
LINE
  5
E3C4
  8
0
  6
CONTINUOUS
 62
     3
 10
97.9999999999996732
 20
-10.0999999999996994
 30
0.0000000000000213
 11
99.9999999999997158
 21
-10.0999999999996994
 31
0.0000000000000218
  0
LINE
  5
E3C5
  8
0
  6
CONTINUOUS
 62
     3
 10
99.9999999999997158
 20
32.3000000000003027
 30
0.0000000000000213
 11
97.9999999999997016
 21
32.3000000000003027
 31
0.0000000000000209
  0
LINE
  5
E3C6
  8
0
  6
CONTINUOUS
 62
     3
 10
97.9999999999996732
 20
34.3000000000002814
 30
0.0000000000000213
 11
99.9999999999997158
 21
34.3000000000002814
 31
0.0000000000000218
  0
LINE
  5
E3C7
  8
0
  6
CONTINUOUS
 62
     3
 10
97.9999999999996589
 20
67.600000000000307
 30
0.0000000000000213
 11
99.9999999999996874
 21
67.600000000000307
 31
0.0000000000000218
  0
LINE
  5
E3C8
  8
0
  6
CONTINUOUS
 62
     3
 10
99.9999999999997158
 20
65.600000000000307
 30
0.0000000000000213
 11
97.9999999999996732
 21
65.600000000000307
 31
0.0000000000000209
  0
LINE
  5
E3C9
  8
0
  6
CONTINUOUS
 62
     3
 10
99.9999999999997158
 20
21.2000000000003084
 30
0.0000000000000213
 11
97.9999999999997016
 21
21.2000000000003084
 31
0.0000000000000209
  0
LINE
  5
E3CA
  8
0
  6
CONTINUOUS
 62
     3
 10
97.9999999999996732
 20
23.2000000000003084
 30
0.0000000000000213
 11
99.9999999999997158
 21
23.2000000000003084
 31
0.0000000000000218
  0
LINE
  5
E3CB
  8
0
  6
CONTINUOUS
 62
     3
 10
99.9999999999997158
 20
-23.1999999999996902
 30
0.0000000000000213
 11
97.9999999999997158
 21
-23.1999999999996902
 31
0.0000000000000209
  0
LINE
  5
E3CC
  8
0
  6
CONTINUOUS
 62
     3
 10
97.9999999999997016
 20
-21.1999999999997009
 30
0.0000000000000213
 11
99.9999999999996874
 21
-21.1999999999997009
 31
0.0000000000000218
  0
LINE
  5
E3CD
  8
0
  6
CONTINUOUS
 62
     3
 10
99.9999999999997158
 20
-67.5999999999996817
 30
0.0000000000000213
 11
97.9999999999997158
 21
-67.5999999999996817
 31
0.0000000000000209
  0
LINE
  5
E3CE
  8
0
  6
CONTINUOUS
 62
     3
 10
97.9999999999997158
 20
-65.5999999999997101
 30
0.0000000000000213
 11
99.9999999999997158
 21
-65.5999999999997101
 31
0.0000000000000218
  0
LINE
  5
E3CF
  8
0
  6
CONTINUOUS
 62
     3
 10
97.9999999999997158
 20
-67.5999999999996817
 30
0.0000000000000213
 11
97.9999999999997158
 21
-73.9999999999953815
 31
0.0000000000000213
  0
LINE
  5
E3D0
  8
0
  6
CONTINUOUS
 62
     3
 10
97.9999999999997158
 20
-73.9999999999953957
 30
0.0000000000000213
 11
99.9999999999997158
 21
-73.9999999999953957
 31
0.0000000000000218
  0
LINE
  5
E3D1
  8
0
  6
CONTINUOUS
 62
     3
 10
99.9999999999996874
 20
-73.9999999999953957
 30
0.0000000000000213
 11
99.9999999999996874
 21
-67.5999999999996817
 31
0.0000000000000213
  0
LINE
  5
E3D2
  8
0
  6
CONTINUOUS
 62
     3
 10
99.9999999999996874
 20
67.600000000000307
 30
0.0000000000000213
 11
99.9999999999996874
 21
74.0000000000000568
 31
0.0000000000000213
  0
LINE
  5
E3D3
  8
0
  6
CONTINUOUS
 62
     3
 10
99.9999999999996874
 20
74.0000000000000568
 30
0.0000000000000213
 11
97.9999999999996589
 21
74.0000000000000568
 31
0.0000000000000209
  0
LINE
  5
E3D4
  8
0
  6
CONTINUOUS
 62
     3
 10
97.9999999999996732
 20
74.0000000000000568
 30
0.0000000000000213
 11
97.9999999999996732
 21
67.600000000000307
 31
0.0000000000000213
  0
LINE
  5
E3D5
  8
0
  6
CONTINUOUS
 62
     3
 10
97.9999999999996732
 20
32.3000000000003027
 30
0.0000000000000213
 11
97.9999999999997016
 21
23.200000000000319
 31
0.0000000000000213
  0
LINE
  5
E3D6
  8
0
  6
CONTINUOUS
 62
     3
 10
99.9999999999996874
 20
23.2000000000003013
 30
0.0000000000000213
 11
99.9999999999996874
 21
32.3000000000003027
 31
0.0000000000000213
  0
LINE
  5
E3D7
  8
0
  6
CONTINUOUS
 62
     3
 10
97.9999999999997016
 20
-12.0999999999996906
 30
0.0000000000000213
 11
97.9999999999997016
 21
-21.1999999999996902
 31
0.0000000000000213
  0
LINE
  5
E3D8
  8
0
  6
CONTINUOUS
 62
     3
 10
99.9999999999997158
 20
-21.1999999999996902
 30
0.0000000000000213
 11
99.9999999999996874
 21
-12.0999999999996994
 31
0.0000000000000213
  0
LINE
  5
E3D9
  8
0
  6
CONTINUOUS
 62
     3
 10
97.9999999999997016
 20
-56.4999999999997016
 30
0.0000000000000213
 11
97.9999999999997158
 21
-65.5999999999996959
 31
0.0000000000000213
  0
LINE
  5
E3DA
  8
0
  6
CONTINUOUS
 62
     3
 10
99.9999999999996874
 20
-65.5999999999997101
 30
0.0000000000000213
 11
99.9999999999996874
 21
-56.4999999999997087
 31
0.0000000000000213
  0
LINE
  5
E3DB
  8
0
  6
CONTINUOUS
 62
     3
 10
99.9999999999997158
 20
-32.2999999999996987
 30
0.0000000000000213
 11
99.9999999999997158
 21
-23.1999999999997009
 31
0.0000000000000213
  0
LINE
  5
E3DC
  8
0
  6
CONTINUOUS
 62
     3
 10
97.9999999999997016
 20
-23.1999999999996902
 30
0.0000000000000213
 11
97.9999999999997158
 21
-32.2999999999996987
 31
0.0000000000000213
  0
LINE
  5
E3DD
  8
0
  6
CONTINUOUS
 62
     3
 10
99.9999999999996874
 20
12.1000000000002892
 30
0.0000000000000213
 11
99.9999999999996874
 21
21.2000000000003084
 31
0.0000000000000213
  0
LINE
  5
E3DE
  8
0
  6
CONTINUOUS
 62
     3
 10
97.9999999999996732
 20
21.2000000000003084
 30
0.0000000000000213
 11
97.9999999999996732
 21
12.1000000000003105
 31
0.0000000000000213
  0
LINE
  5
E3DF
  8
0
  6
CONTINUOUS
 62
     3
 10
99.9999999999996874
 20
56.5000000000003126
 30
0.0000000000000213
 11
99.9999999999996874
 21
65.600000000000307
 31
0.0000000000000213
  0
LINE
  5
E3E0
  8
0
  6
CONTINUOUS
 62
     3
 10
97.9999999999996732
 20
65.600000000000307
 30
0.0000000000000213
 11
97.9999999999996732
 21
56.5000000000003126
 31
0.0000000000000213
  0
LINE
  5
E3E1
  8
0
  6
CONTINUOUS
 62
     3
 10
99.9999999999996874
 20
45.400000000000297
 30
0.0000000000000213
 11
99.9999999999996874
 21
54.5000000000003126
 31
0.0000000000000213
  0
LINE
  5
E3E2
  8
0
  6
CONTINUOUS
 62
     3
 10
97.9999999999996732
 20
54.5000000000003126
 30
0.0000000000000213
 11
97.9999999999996732
 21
45.4000000000003183
 31
0.0000000000000213
  0
LINE
  5
E3E3
  8
0
  6
CONTINUOUS
 62
     3
 10
97.9999999999996732
 20
43.400000000000297
 30
0.0000000000000213
 11
97.9999999999996732
 21
34.3000000000003027
 31
0.0000000000000213
  0
LINE
  5
E3E4
  8
0
  6
CONTINUOUS
 62
     3
 10
99.9999999999997158
 20
34.3000000000002814
 30
0.0000000000000213
 11
99.9999999999997158
 21
43.400000000000297
 31
0.0000000000000213
  0
LINE
  5
E3E5
  8
0
  6
CONTINUOUS
 62
     3
 10
99.9999999999996874
 20
1.0000000000003011
 30
0.0000000000000213
 11
99.9999999999996874
 21
10.1000000000002892
 31
0.0000000000000213
  0
LINE
  5
E3E6
  8
0
  6
CONTINUOUS
 62
     3
 10
97.9999999999996732
 20
10.1000000000003105
 30
0.0000000000000213
 11
97.9999999999996732
 21
1.000000000000316
 31
0.0000000000000213
  0
LINE
  5
E3E7
  8
0
  6
CONTINUOUS
 62
     3
 10
97.9999999999997016
 20
-0.9999999999996981
 30
0.0000000000000213
 11
97.9999999999997016
 21
-10.0999999999996906
 31
0.0000000000000213
  0
LINE
  5
E3E8
  8
0
  6
CONTINUOUS
 62
     3
 10
99.9999999999996874
 20
-10.0999999999996906
 30
0.0000000000000213
 11
99.9999999999996874
 21
-0.999999999999698
 31
0.0000000000000213
  0
LINE
  5
E3E9
  8
0
  6
CONTINUOUS
 62
     3
 10
99.9999999999997158
 20
-43.399999999999693
 30
0.0000000000000213
 11
99.9999999999997158
 21
-34.2999999999996987
 31
0.0000000000000213
  0
LINE
  5
E3EA
  8
0
  6
CONTINUOUS
 62
     3
 10
97.9999999999997158
 20
-34.2999999999996916
 30
0.0000000000000213
 11
97.9999999999997158
 21
-43.399999999999693
 31
0.0000000000000213
  0
LINE
  5
E3EB
  8
0
  6
CONTINUOUS
 62
     3
 10
97.9999999999997016
 20
-45.399999999999693
 30
0.0000000000000213
 11
97.9999999999997016
 21
-54.4999999999996874
 31
0.0000000000000213
  0
LINE
  5
E3EC
  8
0
  6
CONTINUOUS
 62
     3
 10
99.9999999999996874
 20
-54.4999999999997087
 30
0.0000000000000213
 11
99.9999999999996874
 21
-45.3999999999997002
 31
0.0000000000000213
  0
LINE
  5
E3ED
  8
0
  6
CONTINUOUS
 62
     3
 10
165.9999999999996021
 20
-45.399999999999693
 30
0.0000000000000355
 11
163.9999999999996021
 21
-45.399999999999693
 31
0.0000000000000351
  0
LINE
  5
E3EE
  8
0
  6
CONTINUOUS
 62
     3
 10
163.9999999999996874
 20
-45.3999999999996788
 30
0.0000000000000355
 11
163.9999999999996874
 21
-54.4999999999996874
 31
0.0000000000000355
  0
LINE
  5
E3EF
  8
0
  6
CONTINUOUS
 62
     3
 10
163.9999999999996874
 20
-54.4999999999997016
 30
0.0000000000000355
 11
165.9999999999996874
 21
-54.4999999999997016
 31
0.000000000000036
  0
LINE
  5
E3F0
  8
0
  6
CONTINUOUS
 62
     3
 10
165.9999999999996874
 20
-54.4999999999996874
 30
0.0000000000000355
 11
165.9999999999996874
 21
-45.399999999999693
 31
0.0000000000000355
  0
LINE
  5
E3F1
  8
0
  6
CONTINUOUS
 62
     3
 10
165.9999999999996874
 20
-65.5999999999997101
 30
0.0000000000000355
 11
165.9999999999996874
 21
-56.4999999999997087
 31
0.0000000000000355
  0
LINE
  5
E3F2
  8
0
  6
CONTINUOUS
 62
     3
 10
165.9999999999996874
 20
-73.9999999999953957
 30
0.0000000000000355
 11
165.9999999999996874
 21
-67.5999999999996817
 31
0.0000000000000355
  0
LINE
  5
E3F3
  8
0
  6
CONTINUOUS
 62
     3
 10
165.9999999999996021
 20
67.600000000000307
 30
0.0000000000000355
 11
165.9999999999996021
 21
74.0000000000000426
 31
0.0000000000000355
  0
LINE
  5
E3F4
  8
0
  6
CONTINUOUS
 62
     3
 10
165.9999999999996021
 20
56.5000000000003197
 30
0.0000000000000355
 11
165.9999999999996021
 21
65.600000000000307
 31
0.0000000000000355
  0
LINE
  5
E3F5
  8
0
  6
CONTINUOUS
 62
     3
 10
165.9999999999996021
 20
45.400000000000297
 30
0.0000000000000355
 11
165.9999999999996021
 21
54.5000000000003126
 31
0.0000000000000355
  0
LINE
  5
E3F6
  8
0
  6
CONTINUOUS
 62
     3
 10
165.9999999999996021
 20
34.3000000000002814
 30
0.0000000000000355
 11
165.9999999999996021
 21
43.400000000000297
 31
0.0000000000000355
  0
LINE
  5
E3F7
  8
0
  6
CONTINUOUS
 62
     3
 10
165.9999999999996021
 20
23.2000000000003084
 30
0.0000000000000355
 11
165.9999999999996021
 21
32.3000000000002814
 31
0.0000000000000355
  0
LINE
  5
E3F8
  8
0
  6
CONTINUOUS
 62
     3
 10
165.9999999999996874
 20
12.1000000000002892
 30
0.0000000000000355
 11
165.9999999999996021
 21
21.2000000000003084
 31
0.0000000000000355
  0
LINE
  5
E3F9
  8
0
  6
CONTINUOUS
 62
     3
 10
165.9999999999996874
 20
1.0000000000002891
 30
0.0000000000000355
 11
165.9999999999996874
 21
10.1000000000002892
 31
0.0000000000000355
  0
LINE
  5
E3FA
  8
0
  6
CONTINUOUS
 62
     3
 10
165.9999999999996874
 20
-10.0999999999996994
 30
0.0000000000000355
 11
165.9999999999996874
 21
-0.9999999999997105
 31
0.0000000000000355
  0
LINE
  5
E3FB
  8
0
  6
CONTINUOUS
 62
     3
 10
165.9999999999996874
 20
-21.1999999999997009
 30
0.0000000000000355
 11
165.9999999999996874
 21
-12.0999999999996906
 31
0.0000000000000355
  0
LINE
  5
E3FC
  8
0
  6
CONTINUOUS
 62
     3
 10
165.9999999999996874
 20
-32.2999999999996916
 30
0.0000000000000355
 11
165.9999999999996874
 21
-23.1999999999996795
 31
0.0000000000000355
  0
LINE
  5
E3FD
  8
0
  6
CONTINUOUS
 62
     3
 10
165.9999999999996874
 20
-43.3999999999996788
 30
0.0000000000000355
 11
165.9999999999996874
 21
-34.2999999999996774
 31
0.0000000000000355
  0
LINE
  5
E3FE
  8
0
  6
CONTINUOUS
 62
     3
 10
165.9999999999996021
 20
74.0000000000000568
 30
0.0000000000000355
 11
163.9999999999996021
 21
74.0000000000000568
 31
0.0000000000000351
  0
LINE
  5
E3FF
  8
0
  6
CONTINUOUS
 62
     3
 10
163.9999999999996874
 20
-73.9999999999953957
 30
0.0000000000000355
 11
165.9999999999996874
 21
-73.9999999999953957
 31
0.000000000000036
  0
LINE
  5
E400
  8
0
  6
CONTINUOUS
 62
     3
 10
165.9999999999996021
 20
-0.9999999999997147
 30
0.0000000000000355
 11
163.9999999999996021
 21
-0.9999999999997143
 31
0.0000000000000351
  0
LINE
  5
E401
  8
0
  6
CONTINUOUS
 62
     3
 10
163.9999999999996021
 20
-0.9999999999997105
 30
0.0000000000000355
 11
163.9999999999996021
 21
-10.0999999999996994
 31
0.0000000000000355
  0
LINE
  5
E402
  8
0
  6
CONTINUOUS
 62
     3
 10
163.9999999999996021
 20
-10.0999999999996994
 30
0.0000000000000355
 11
165.9999999999996021
 21
-10.0999999999996994
 31
0.000000000000036
  0
LINE
  5
E403
  8
0
  6
CONTINUOUS
 62
     3
 10
165.9999999999996021
 20
43.400000000000297
 30
0.0000000000000355
 11
163.9999999999996021
 21
43.400000000000297
 31
0.0000000000000351
  0
LINE
  5
E404
  8
0
  6
CONTINUOUS
 62
     3
 10
163.9999999999996021
 20
43.400000000000297
 30
0.0000000000000355
 11
163.9999999999996021
 21
34.3000000000002885
 31
0.0000000000000355
  0
LINE
  5
E405
  8
0
  6
CONTINUOUS
 62
     3
 10
163.9999999999996021
 20
34.3000000000002814
 30
0.0000000000000355
 11
165.9999999999996021
 21
34.3000000000002814
 31
0.000000000000036
  0
LINE
  5
E406
  8
0
  6
CONTINUOUS
 62
     3
 10
163.9999999999996021
 20
56.5000000000003126
 30
0.0000000000000355
 11
165.9999999999996021
 21
56.5000000000003126
 31
0.000000000000036
  0
LINE
  5
E407
  8
0
  6
CONTINUOUS
 62
     3
 10
165.9999999999996021
 20
65.600000000000307
 30
0.0000000000000355
 11
163.9999999999996021
 21
65.600000000000307
 31
0.0000000000000351
  0
LINE
  5
E408
  8
0
  6
CONTINUOUS
 62
     3
 10
163.9999999999996021
 20
65.6000000000003354
 30
0.0000000000000355
 11
163.9999999999996021
 21
56.5000000000003411
 31
0.0000000000000355
  0
LINE
  5
E409
  8
0
  6
CONTINUOUS
 62
     3
 10
163.9999999999996021
 20
45.400000000000297
 30
0.0000000000000355
 11
165.9999999999996021
 21
45.400000000000297
 31
0.000000000000036
  0
LINE
  5
E40A
  8
0
  6
CONTINUOUS
 62
     3
 10
165.9999999999996021
 20
54.5000000000003197
 30
0.0000000000000355
 11
163.9999999999996021
 21
54.5000000000003197
 31
0.0000000000000351
  0
LINE
  5
E40B
  8
0
  6
CONTINUOUS
 62
     3
 10
163.9999999999996021
 20
54.5000000000003126
 30
0.0000000000000355
 11
163.9999999999996021
 21
45.4000000000003112
 31
0.0000000000000355
  0
LINE
  5
E40C
  8
0
  6
CONTINUOUS
 62
     3
 10
163.9999999999996021
 20
1.0000000000002851
 30
0.0000000000000355
 11
165.9999999999996021
 21
1.0000000000002851
 31
0.000000000000036
  0
LINE
  5
E40D
  8
0
  6
CONTINUOUS
 62
     3
 10
165.9999999999996021
 20
10.1000000000002892
 30
0.0000000000000355
 11
163.9999999999996021
 21
10.1000000000002892
 31
0.0000000000000351
  0
LINE
  5
E40E
  8
0
  6
CONTINUOUS
 62
     3
 10
163.9999999999996021
 20
10.1000000000002892
 30
0.0000000000000355
 11
163.9999999999996021
 21
1.0000000000003031
 31
0.0000000000000355
  0
LINE
  5
E40F
  8
0
  6
CONTINUOUS
 62
     3
 10
163.9999999999996021
 20
-32.2999999999996916
 30
0.0000000000000355
 11
165.9999999999996874
 21
-32.2999999999996916
 31
0.000000000000036
  0
LINE
  5
E410
  8
0
  6
CONTINUOUS
 62
     3
 10
165.9999999999996021
 20
-23.1999999999997009
 30
0.0000000000000355
 11
163.9999999999996021
 21
-23.1999999999997009
 31
0.0000000000000351
  0
LINE
  5
E411
  8
0
  6
CONTINUOUS
 62
     3
 10
163.9999999999996021
 20
-23.1999999999996795
 30
0.0000000000000355
 11
163.9999999999996021
 21
-32.2999999999996774
 31
0.0000000000000355
  0
LINE
  5
E412
  8
0
  6
CONTINUOUS
 62
     3
 10
163.9999999999996874
 20
-43.399999999999693
 30
0.0000000000000355
 11
165.9999999999996874
 21
-43.399999999999693
 31
0.000000000000036
  0
LINE
  5
E413
  8
0
  6
CONTINUOUS
 62
     3
 10
165.9999999999996021
 20
-34.2999999999996916
 30
0.0000000000000355
 11
163.9999999999996021
 21
-34.2999999999996916
 31
0.0000000000000351
  0
LINE
  5
E414
  8
0
  6
CONTINUOUS
 62
     3
 10
163.9999999999996021
 20
-34.2999999999996916
 30
0.0000000000000355
 11
163.9999999999996021
 21
-43.3999999999996788
 31
0.0000000000000355
  0
LINE
  5
E415
  8
0
  6
CONTINUOUS
 62
     3
 10
165.9999999999996021
 20
-56.4999999999997016
 30
0.0000000000000355
 11
163.9999999999996021
 21
-56.4999999999997016
 31
0.0000000000000351
  0
LINE
  5
E416
  8
0
  6
CONTINUOUS
 62
     3
 10
163.9999999999996874
 20
-56.4999999999997016
 30
0.0000000000000355
 11
163.9999999999996874
 21
-65.5999999999996817
 31
0.0000000000000355
  0
LINE
  5
E417
  8
0
  6
CONTINUOUS
 62
     3
 10
163.9999999999996874
 20
-65.5999999999997101
 30
0.0000000000000355
 11
165.9999999999996874
 21
-65.5999999999997101
 31
0.000000000000036
  0
LINE
  5
E418
  8
0
  6
CONTINUOUS
 62
     3
 10
165.9999999999996021
 20
-12.0999999999996994
 30
0.0000000000000355
 11
163.9999999999996021
 21
-12.0999999999996994
 31
0.0000000000000351
  0
LINE
  5
E419
  8
0
  6
CONTINUOUS
 62
     3
 10
163.9999999999996021
 20
-12.0999999999996906
 30
0.0000000000000355
 11
163.9999999999996021
 21
-21.1999999999996902
 31
0.0000000000000355
  0
LINE
  5
E41A
  8
0
  6
CONTINUOUS
 62
     3
 10
163.9999999999996021
 20
-21.1999999999996902
 30
0.0000000000000355
 11
165.9999999999996021
 21
-21.1999999999996902
 31
0.000000000000036
  0
LINE
  5
E41B
  8
0
  6
CONTINUOUS
 62
     3
 10
165.9999999999996021
 20
32.3000000000002885
 30
0.0000000000000355
 11
163.9999999999996021
 21
32.3000000000002885
 31
0.0000000000000351
  0
LINE
  5
E41C
  8
0
  6
CONTINUOUS
 62
     3
 10
163.9999999999996021
 20
32.3000000000002885
 30
0.0000000000000355
 11
163.9999999999996021
 21
23.200000000000319
 31
0.0000000000000355
  0
LINE
  5
E41D
  8
0
  6
CONTINUOUS
 62
     3
 10
163.9999999999996021
 20
23.200000000000319
 30
0.0000000000000355
 11
165.9999999999996021
 21
23.200000000000319
 31
0.000000000000036
  0
LINE
  5
E41E
  8
0
  6
CONTINUOUS
 62
     3
 10
163.9999999999996021
 20
67.6000000000003354
 30
0.0000000000000355
 11
165.9999999999996021
 21
67.6000000000003354
 31
0.000000000000036
  0
LINE
  5
E41F
  8
0
  6
CONTINUOUS
 62
     3
 10
163.9999999999996021
 20
74.0000000000000568
 30
0.0000000000000355
 11
163.9999999999996021
 21
67.6000000000003354
 31
0.0000000000000355
  0
LINE
  5
E420
  8
0
  6
CONTINUOUS
 62
     3
 10
163.9999999999996021
 20
12.1000000000002892
 30
0.0000000000000355
 11
165.9999999999996021
 21
12.1000000000002892
 31
0.000000000000036
  0
LINE
  5
E421
  8
0
  6
CONTINUOUS
 62
     3
 10
165.9999999999996021
 20
21.2000000000003084
 30
0.0000000000000355
 11
163.9999999999996021
 21
21.2000000000003084
 31
0.0000000000000351
  0
LINE
  5
E422
  8
0
  6
CONTINUOUS
 62
     3
 10
163.9999999999996021
 20
21.2000000000003084
 30
0.0000000000000355
 11
163.9999999999996021
 21
12.1000000000003105
 31
0.0000000000000355
  0
LINE
  5
E423
  8
0
  6
CONTINUOUS
 62
     3
 10
165.9999999999996021
 20
-67.5999999999997101
 30
0.0000000000000355
 11
163.9999999999996021
 21
-67.5999999999997101
 31
0.0000000000000351
  0
LINE
  5
E424
  8
0
  6
CONTINUOUS
 62
     3
 10
163.9999999999996874
 20
-67.5999999999996817
 30
0.0000000000000355
 11
163.9999999999996874
 21
-73.9999999999953957
 31
0.0000000000000355
  0
LINE
  5
E425
  8
0
  6
CONTINUOUS
 62
     3
 10
66.9999999999996874
 20
-45.399999999999693
 30
0.0000000000000142
 11
64.9999999999996732
 21
-45.399999999999693
 31
0.0000000000000138
  0
LINE
  5
E426
  8
0
  6
CONTINUOUS
 62
     3
 10
64.9999999999997158
 20
-43.3999999999997002
 30
0.0000000000000142
 11
66.99999999999973
 21
-43.3999999999997002
 31
0.0000000000000147
  0
LINE
  5
E427
  8
0
  6
CONTINUOUS
 62
     3
 10
66.9999999999997016
 20
-0.9999999999996948
 30
0.0000000000000142
 11
64.9999999999997016
 21
-0.9999999999996946
 31
0.0000000000000138
  0
LINE
  5
E428
  8
0
  6
CONTINUOUS
 62
     3
 10
64.9999999999997016
 20
1.0000000000003051
 30
0.0000000000000142
 11
66.9999999999997016
 21
1.0000000000003051
 31
0.0000000000000147
  0
LINE
  5
E429
  8
0
  6
CONTINUOUS
 62
     3
 10
66.9999999999997016
 20
43.400000000000297
 30
0.0000000000000142
 11
64.9999999999996732
 21
43.400000000000297
 31
0.0000000000000138
  0
LINE
  5
E42A
  8
0
  6
CONTINUOUS
 62
     3
 10
64.9999999999996732
 20
45.4000000000003112
 30
0.0000000000000142
 11
66.9999999999997016
 21
45.4000000000003112
 31
0.0000000000000147
  0
LINE
  5
E42B
  8
0
  6
CONTINUOUS
 62
     3
 10
64.9999999999996732
 20
56.5000000000003197
 30
0.0000000000000142
 11
66.9999999999997016
 21
56.5000000000003197
 31
0.0000000000000147
  0
LINE
  5
E42C
  8
0
  6
CONTINUOUS
 62
     3
 10
66.9999999999997158
 20
54.5000000000003197
 30
0.0000000000000142
 11
64.9999999999996732
 21
54.5000000000003197
 31
0.0000000000000138
  0
LINE
  5
E42D
  8
0
  6
CONTINUOUS
 62
     3
 10
66.9999999999997016
 20
10.1000000000002892
 30
0.0000000000000142
 11
64.9999999999996732
 21
10.1000000000002892
 31
0.0000000000000138
  0
LINE
  5
E42E
  8
0
  6
CONTINUOUS
 62
     3
 10
64.9999999999997016
 20
12.1000000000002803
 30
0.0000000000000142
 11
66.9999999999997158
 21
12.1000000000002803
 31
0.0000000000000147
  0
LINE
  5
E42F
  8
0
  6
CONTINUOUS
 62
     3
 10
64.9999999999997158
 20
-32.2999999999997129
 30
0.0000000000000142
 11
66.9999999999997158
 21
-32.2999999999997129
 31
0.0000000000000147
  0
LINE
  5
E430
  8
0
  6
CONTINUOUS
 62
     3
 10
66.9999999999997016
 20
-34.2999999999996987
 30
0.0000000000000142
 11
64.9999999999997016
 21
-34.2999999999996987
 31
0.0000000000000138
  0
LINE
  5
E431
  8
0
  6
CONTINUOUS
 62
     3
 10
66.9999999999997016
 20
-56.4999999999997016
 30
0.0000000000000142
 11
64.9999999999997016
 21
-56.4999999999997016
 31
0.0000000000000138
  0
LINE
  5
E432
  8
0
  6
CONTINUOUS
 62
     3
 10
64.9999999999997016
 20
-54.4999999999997016
 30
0.0000000000000142
 11
66.9999999999997158
 21
-54.4999999999997016
 31
0.0000000000000147
  0
LINE
  5
E433
  8
0
  6
CONTINUOUS
 62
     3
 10
66.9999999999997016
 20
-12.0999999999996906
 30
0.0000000000000142
 11
64.9999999999997016
 21
-12.0999999999996906
 31
0.0000000000000138
  0
LINE
  5
E434
  8
0
  6
CONTINUOUS
 62
     3
 10
64.9999999999997016
 20
-10.0999999999996994
 30
0.0000000000000142
 11
66.9999999999997016
 21
-10.0999999999996994
 31
0.0000000000000147
  0
LINE
  5
E435
  8
0
  6
CONTINUOUS
 62
     3
 10
66.9999999999997158
 20
32.3000000000003027
 30
0.0000000000000142
 11
64.9999999999996732
 21
32.3000000000003027
 31
0.0000000000000138
  0
LINE
  5
E436
  8
0
  6
CONTINUOUS
 62
     3
 10
64.9999999999997016
 20
34.3000000000002814
 30
0.0000000000000142
 11
66.99999999999973
 21
34.3000000000002814
 31
0.0000000000000147
  0
LINE
  5
E437
  8
0
  6
CONTINUOUS
 62
     3
 10
64.9999999999996732
 20
67.600000000000307
 30
0.0000000000000142
 11
66.9999999999997158
 21
67.600000000000307
 31
0.0000000000000147
  0
LINE
  5
E438
  8
0
  6
CONTINUOUS
 62
     3
 10
66.9999999999997016
 20
65.600000000000307
 30
0.0000000000000142
 11
64.9999999999996732
 21
65.600000000000307
 31
0.0000000000000138
  0
LINE
  5
E439
  8
0
  6
CONTINUOUS
 62
     3
 10
66.9999999999997016
 20
21.2000000000003084
 30
0.0000000000000142
 11
64.9999999999996732
 21
21.2000000000003084
 31
0.0000000000000138
  0
LINE
  5
E43A
  8
0
  6
CONTINUOUS
 62
     3
 10
64.9999999999996732
 20
23.2000000000003084
 30
0.0000000000000142
 11
66.9999999999997016
 21
23.2000000000003084
 31
0.0000000000000147
  0
LINE
  5
E43B
  8
0
  6
CONTINUOUS
 62
     3
 10
66.9999999999997016
 20
-23.1999999999997009
 30
0.0000000000000142
 11
64.9999999999997016
 21
-23.1999999999997009
 31
0.0000000000000138
  0
LINE
  5
E43C
  8
0
  6
CONTINUOUS
 62
     3
 10
64.9999999999997158
 20
-21.1999999999997009
 30
0.0000000000000142
 11
66.9999999999997158
 21
-21.1999999999997009
 31
0.0000000000000147
  0
LINE
  5
E43D
  8
0
  6
CONTINUOUS
 62
     3
 10
66.9999999999997016
 20
-67.5999999999996817
 30
0.0000000000000142
 11
64.9999999999997158
 21
-67.5999999999996817
 31
0.0000000000000138
  0
LINE
  5
E43E
  8
0
  6
CONTINUOUS
 62
     3
 10
64.9999999999997158
 20
-65.5999999999997101
 30
0.0000000000000142
 11
66.9999999999997158
 21
-65.5999999999997101
 31
0.0000000000000147
  0
LINE
  5
E43F
  8
0
  6
CONTINUOUS
 62
     3
 10
64.9999999999997158
 20
-34.2999999999996916
 30
0.0000000000000142
 11
64.9999999999997158
 21
-43.399999999999693
 31
0.0000000000000142
  0
LINE
  5
E440
  8
0
  6
CONTINUOUS
 62
     3
 10
64.9999999999997016
 20
-23.1999999999996795
 30
0.0000000000000142
 11
64.9999999999997158
 21
-32.2999999999996987
 31
0.0000000000000142
  0
LINE
  5
E441
  8
0
  6
CONTINUOUS
 62
     3
 10
64.9999999999997016
 20
-12.0999999999996906
 30
0.0000000000000142
 11
64.9999999999997016
 21
-21.1999999999997009
 31
0.0000000000000142
  0
LINE
  5
E442
  8
0
  6
CONTINUOUS
 62
     3
 10
64.9999999999997016
 20
-0.9999999999996922
 30
0.0000000000000142
 11
64.9999999999997016
 21
-10.0999999999996799
 31
0.0000000000000142
  0
LINE
  5
E443
  8
0
  6
CONTINUOUS
 62
     3
 10
64.9999999999996732
 20
10.1000000000002998
 30
0.0000000000000142
 11
64.9999999999996732
 21
1.0000000000003211
 31
0.0000000000000142
  0
LINE
  5
E444
  8
0
  6
CONTINUOUS
 62
     3
 10
64.9999999999996732
 20
21.2000000000003084
 30
0.0000000000000142
 11
64.9999999999996732
 21
12.1000000000002892
 31
0.0000000000000142
  0
LINE
  5
E445
  8
0
  6
CONTINUOUS
 62
     3
 10
64.9999999999996732
 20
32.3000000000003098
 30
0.0000000000000142
 11
64.9999999999997016
 21
23.200000000000319
 31
0.0000000000000142
  0
LINE
  5
E446
  8
0
  6
CONTINUOUS
 62
     3
 10
64.9999999999996732
 20
43.400000000000297
 30
0.0000000000000142
 11
64.9999999999996732
 21
34.3000000000002814
 31
0.0000000000000142
  0
LINE
  5
E447
  8
0
  6
CONTINUOUS
 62
     3
 10
64.9999999999996732
 20
54.5000000000003197
 30
0.0000000000000142
 11
64.9999999999996732
 21
45.4000000000003183
 31
0.0000000000000142
  0
LINE
  5
E448
  8
0
  6
CONTINUOUS
 62
     3
 10
64.9999999999996732
 20
65.600000000000307
 30
0.0000000000000142
 11
64.9999999999996732
 21
56.5000000000003126
 31
0.0000000000000142
  0
LINE
  5
E449
  8
0
  6
CONTINUOUS
 62
     3
 10
64.9999999999996732
 20
74.0000000000000568
 30
0.0000000000000142
 11
64.9999999999996732
 21
67.600000000000307
 31
0.0000000000000142
  0
LINE
  5
E44A
  8
0
  6
CONTINUOUS
 62
     3
 10
64.9999999999997158
 20
-67.5999999999996817
 30
0.0000000000000142
 11
64.9999999999997158
 21
-73.9999999999953815
 31
0.0000000000000142
  0
LINE
  5
E44B
  8
0
  6
CONTINUOUS
 62
     3
 10
64.9999999999997016
 20
-56.4999999999997016
 30
0.0000000000000142
 11
64.9999999999997158
 21
-65.5999999999996817
 31
0.0000000000000142
  0
LINE
  5
E44C
  8
0
  6
CONTINUOUS
 62
     3
 10
64.9999999999997016
 20
-45.399999999999693
 30
0.0000000000000142
 11
64.9999999999997016
 21
-54.4999999999996874
 31
0.0000000000000142
  0
LINE
  5
E44D
  8
0
  6
CONTINUOUS
 62
     3
 10
64.9999999999997158
 20
-73.9999999999953957
 30
0.0000000000000142
 11
66.9999999999997158
 21
-73.9999999999953957
 31
0.0000000000000147
  0
LINE
  5
E44E
  8
0
  6
CONTINUOUS
 62
     3
 10
66.9999999999997158
 20
-73.9999999999953957
 30
0.0000000000000142
 11
66.9999999999997016
 21
-67.5999999999996817
 31
0.0000000000000142
  0
LINE
  5
E44F
  8
0
  6
CONTINUOUS
 62
     3
 10
66.9999999999997016
 20
12.1000000000002892
 30
0.0000000000000142
 11
66.9999999999997016
 21
21.2000000000003013
 31
0.0000000000000142
  0
LINE
  5
E450
  8
0
  6
CONTINUOUS
 62
     3
 10
66.9999999999997016
 20
67.600000000000307
 30
0.0000000000000142
 11
66.9999999999997016
 21
74.0000000000000711
 31
0.0000000000000142
  0
LINE
  5
E451
  8
0
  6
CONTINUOUS
 62
     3
 10
66.9999999999997016
 20
74.0000000000000568
 30
0.0000000000000142
 11
64.9999999999996732
 21
74.0000000000000568
 31
0.0000000000000138
  0
LINE
  5
E452
  8
0
  6
CONTINUOUS
 62
     3
 10
66.9999999999997016
 20
23.2000000000003084
 30
0.0000000000000142
 11
66.9999999999997016
 21
32.3000000000003027
 31
0.0000000000000142
  0
LINE
  5
E453
  8
0
  6
CONTINUOUS
 62
     3
 10
66.9999999999997158
 20
-21.1999999999996902
 30
0.0000000000000142
 11
66.9999999999997016
 21
-12.0999999999996994
 31
0.0000000000000142
  0
LINE
  5
E454
  8
0
  6
CONTINUOUS
 62
     3
 10
66.9999999999997016
 20
-65.5999999999997101
 30
0.0000000000000142
 11
66.9999999999997016
 21
-56.4999999999997087
 31
0.0000000000000142
  0
LINE
  5
E455
  8
0
  6
CONTINUOUS
 62
     3
 10
66.9999999999997158
 20
-43.3999999999997073
 30
0.0000000000000142
 11
66.9999999999997158
 21
-34.2999999999997129
 31
0.0000000000000142
  0
LINE
  5
E456
  8
0
  6
CONTINUOUS
 62
     3
 10
66.9999999999997158
 20
-32.2999999999996916
 30
0.0000000000000142
 11
66.9999999999997158
 21
-23.1999999999997009
 31
0.0000000000000142
  0
LINE
  5
E457
  8
0
  6
CONTINUOUS
 62
     3
 10
66.9999999999997016
 20
1.0000000000003071
 30
0.0000000000000142
 11
66.9999999999997016
 21
10.1000000000002998
 31
0.0000000000000142
  0
LINE
  5
E458
  8
0
  6
CONTINUOUS
 62
     3
 10
66.9999999999997016
 20
45.4000000000003112
 30
0.0000000000000142
 11
66.9999999999997016
 21
54.5000000000003197
 31
0.0000000000000142
  0
LINE
  5
E459
  8
0
  6
CONTINUOUS
 62
     3
 10
66.9999999999997016
 20
56.5000000000003126
 30
0.0000000000000142
 11
66.9999999999997016
 21
65.600000000000307
 31
0.0000000000000142
  0
LINE
  5
E45A
  8
0
  6
CONTINUOUS
 62
     3
 10
66.9999999999997158
 20
34.3000000000002814
 30
0.0000000000000142
 11
66.9999999999997158
 21
43.400000000000297
 31
0.0000000000000142
  0
LINE
  5
E45B
  8
0
  6
CONTINUOUS
 62
     3
 10
66.9999999999997016
 20
-10.0999999999996994
 30
0.0000000000000142
 11
66.9999999999997016
 21
-0.9999999999996926
 31
0.0000000000000142
  0
LINE
  5
E45C
  8
0
  6
CONTINUOUS
 62
     3
 10
66.9999999999997016
 20
-54.4999999999997016
 30
0.0000000000000142
 11
66.9999999999997016
 21
-45.399999999999693
 31
0.0000000000000142
  0
LINE
  5
E45D
  8
0
  6
CONTINUOUS
 62
     3
 10
197.9999999999996021
 20
74.0000000000000284
 30
0.0000000000000426
 11
197.9999999999994884
 21
-73.9999999999999716
 31
0.0000000000000426
  0
LINE
  5
E45E
  8
0
  6
CONTINUOUS
 62
     3
 10
197.9999999999994884
 20
-73.9999999999999716
 30
0.0000000000000426
 11
199.9999999999996021
 21
-73.9999999999999716
 31
0.0000000000000431
  0
LINE
  5
E45F
  8
0
  6
CONTINUOUS
 62
     3
 10
199.9999999999994884
 20
-73.9999999999999716
 30
0.0000000000000426
 11
199.9999999999996021
 21
74.0000000000000284
 31
0.0000000000000426
  0
LINE
  5
E460
  8
0
  6
CONTINUOUS
 62
     3
 10
199.9999999999996021
 20
74.0000000000000284
 30
0.0000000000000426
 11
197.9999999999996021
 21
74.0000000000000284
 31
0.0000000000000422
  0
LINE
  5
E461
  8
0
  6
CONTINUOUS
 62
     3
 10
132.9999999999996874
 20
-45.399999999999693
 30
0.0000000000000284
 11
130.9999999999996874
 21
-45.399999999999693
 31
0.000000000000028
  0
LINE
  5
E462
  8
0
  6
CONTINUOUS
 62
     3
 10
130.9999999999996874
 20
-43.3999999999996788
 30
0.0000000000000284
 11
132.9999999999996021
 21
-43.3999999999996788
 31
0.0000000000000289
  0
LINE
  5
E463
  8
0
  6
CONTINUOUS
 62
     3
 10
132.9999999999996021
 20
-0.9999999999997083
 30
0.0000000000000284
 11
130.9999999999996021
 21
-0.9999999999997077
 31
0.000000000000028
  0
LINE
  5
E464
  8
0
  6
CONTINUOUS
 62
     3
 10
130.9999999999996021
 20
1.000000000000292
 30
0.0000000000000284
 11
132.9999999999996021
 21
1.000000000000292
 31
0.0000000000000289
  0
LINE
  5
E465
  8
0
  6
CONTINUOUS
 62
     3
 10
132.9999999999996021
 20
43.400000000000297
 30
0.0000000000000284
 11
130.9999999999996021
 21
43.400000000000297
 31
0.000000000000028
  0
LINE
  5
E466
  8
0
  6
CONTINUOUS
 62
     3
 10
130.9999999999996021
 20
45.400000000000297
 30
0.0000000000000284
 11
132.9999999999996874
 21
45.400000000000297
 31
0.0000000000000289
  0
LINE
  5
E467
  8
0
  6
CONTINUOUS
 62
     3
 10
130.9999999999996021
 20
56.5000000000003197
 30
0.0000000000000284
 11
132.9999999999996021
 21
56.5000000000003197
 31
0.0000000000000289
  0
LINE
  5
E468
  8
0
  6
CONTINUOUS
 62
     3
 10
132.9999999999996021
 20
54.5000000000003197
 30
0.0000000000000284
 11
130.9999999999996021
 21
54.5000000000003197
 31
0.000000000000028
  0
LINE
  5
E469
  8
0
  6
CONTINUOUS
 62
     3
 10
132.9999999999996021
 20
10.1000000000002892
 30
0.0000000000000284
 11
130.9999999999996021
 21
10.1000000000002892
 31
0.000000000000028
  0
LINE
  5
E46A
  8
0
  6
CONTINUOUS
 62
     3
 10
130.9999999999996021
 20
12.1000000000002892
 30
0.0000000000000284
 11
132.9999999999996021
 21
12.1000000000002892
 31
0.0000000000000289
  0
LINE
  5
E46B
  8
0
  6
CONTINUOUS
 62
     3
 10
130.9999999999996874
 20
-32.2999999999996916
 30
0.0000000000000284
 11
132.9999999999996021
 21
-32.2999999999996916
 31
0.0000000000000289
  0
LINE
  5
E46C
  8
0
  6
CONTINUOUS
 62
     3
 10
132.9999999999996021
 20
-34.2999999999996916
 30
0.0000000000000284
 11
130.9999999999996874
 21
-34.2999999999996916
 31
0.000000000000028
  0
LINE
  5
E46D
  8
0
  6
CONTINUOUS
 62
     3
 10
132.9999999999996874
 20
-56.4999999999997087
 30
0.0000000000000284
 11
130.9999999999996874
 21
-56.4999999999997087
 31
0.000000000000028
  0
LINE
  5
E46E
  8
0
  6
CONTINUOUS
 62
     3
 10
130.9999999999996021
 20
-54.4999999999997016
 30
0.0000000000000284
 11
132.9999999999996021
 21
-54.4999999999997016
 31
0.0000000000000289
  0
LINE
  5
E46F
  8
0
  6
CONTINUOUS
 62
     3
 10
132.9999999999996021
 20
-12.0999999999996994
 30
0.0000000000000284
 11
130.9999999999996874
 21
-12.0999999999996994
 31
0.000000000000028
  0
LINE
  5
E470
  8
0
  6
CONTINUOUS
 62
     3
 10
130.9999999999996021
 20
-10.0999999999996994
 30
0.0000000000000284
 11
132.9999999999996021
 21
-10.0999999999996994
 31
0.0000000000000289
  0
LINE
  5
E471
  8
0
  6
CONTINUOUS
 62
     3
 10
132.9999999999996021
 20
32.3000000000003027
 30
0.0000000000000284
 11
130.9999999999996021
 21
32.3000000000003027
 31
0.000000000000028
  0
LINE
  5
E472
  8
0
  6
CONTINUOUS
 62
     3
 10
130.9999999999996021
 20
34.3000000000002814
 30
0.0000000000000284
 11
132.9999999999996021
 21
34.3000000000002814
 31
0.0000000000000289
  0
LINE
  5
E473
  8
0
  6
CONTINUOUS
 62
     3
 10
130.9999999999996021
 20
67.600000000000307
 30
0.0000000000000284
 11
132.9999999999996021
 21
67.600000000000307
 31
0.0000000000000289
  0
LINE
  5
E474
  8
0
  6
CONTINUOUS
 62
     3
 10
132.9999999999996021
 20
65.600000000000307
 30
0.0000000000000284
 11
130.9999999999996021
 21
65.600000000000307
 31
0.000000000000028
  0
LINE
  5
E475
  8
0
  6
CONTINUOUS
 62
     3
 10
132.9999999999996021
 20
21.2000000000003084
 30
0.0000000000000284
 11
130.9999999999996021
 21
21.2000000000003084
 31
0.000000000000028
  0
LINE
  5
E476
  8
0
  6
CONTINUOUS
 62
     3
 10
130.9999999999996021
 20
23.2000000000003084
 30
0.0000000000000284
 11
132.9999999999996021
 21
23.2000000000003084
 31
0.0000000000000289
  0
LINE
  5
E477
  8
0
  6
CONTINUOUS
 62
     3
 10
132.9999999999996021
 20
-23.1999999999997009
 30
0.0000000000000284
 11
130.9999999999996874
 21
-23.1999999999997009
 31
0.000000000000028
  0
LINE
  5
E478
  8
0
  6
CONTINUOUS
 62
     3
 10
130.9999999999996874
 20
-21.1999999999996902
 30
0.0000000000000284
 11
132.9999999999996874
 21
-21.1999999999996902
 31
0.0000000000000289
  0
LINE
  5
E479
  8
0
  6
CONTINUOUS
 62
     3
 10
132.9999999999996874
 20
-67.5999999999997101
 30
0.0000000000000284
 11
130.9999999999996874
 21
-67.5999999999997101
 31
0.000000000000028
  0
LINE
  5
E47A
  8
0
  6
CONTINUOUS
 62
     3
 10
130.9999999999996874
 20
-65.5999999999997101
 30
0.0000000000000284
 11
132.9999999999996874
 21
-65.5999999999997101
 31
0.0000000000000289
  0
LINE
  5
E47B
  8
0
  6
CONTINUOUS
 62
     3
 10
130.9999999999996021
 20
-34.2999999999996916
 30
0.0000000000000284
 11
130.9999999999996021
 21
-43.399999999999693
 31
0.0000000000000284
  0
LINE
  5
E47C
  8
0
  6
CONTINUOUS
 62
     3
 10
130.9999999999996021
 20
-23.1999999999996795
 30
0.0000000000000284
 11
130.9999999999996021
 21
-32.2999999999996774
 31
0.0000000000000284
  0
LINE
  5
E47D
  8
0
  6
CONTINUOUS
 62
     3
 10
130.9999999999996021
 20
-12.0999999999996906
 30
0.0000000000000284
 11
130.9999999999996021
 21
-21.1999999999996902
 31
0.0000000000000284
  0
LINE
  5
E47E
  8
0
  6
CONTINUOUS
 62
     3
 10
130.9999999999996021
 20
-0.9999999999997042
 30
0.0000000000000284
 11
130.9999999999996021
 21
-10.0999999999996906
 31
0.0000000000000284
  0
LINE
  5
E47F
  8
0
  6
CONTINUOUS
 62
     3
 10
130.9999999999996021
 20
10.1000000000002998
 30
0.0000000000000284
 11
130.9999999999996021
 21
1.0000000000003091
 31
0.0000000000000284
  0
LINE
  5
E480
  8
0
  6
CONTINUOUS
 62
     3
 10
130.9999999999996021
 20
21.2000000000003084
 30
0.0000000000000284
 11
130.9999999999996021
 21
12.1000000000002998
 31
0.0000000000000284
  0
LINE
  5
E481
  8
0
  6
CONTINUOUS
 62
     3
 10
130.9999999999996021
 20
32.3000000000003027
 30
0.0000000000000284
 11
130.9999999999996021
 21
23.2000000000003297
 31
0.0000000000000284
  0
LINE
  5
E482
  8
0
  6
CONTINUOUS
 62
     3
 10
130.9999999999996021
 20
43.400000000000297
 30
0.0000000000000284
 11
130.9999999999996021
 21
34.3000000000003027
 31
0.0000000000000284
  0
LINE
  5
E483
  8
0
  6
CONTINUOUS
 62
     3
 10
130.9999999999996021
 20
54.5000000000003126
 30
0.0000000000000284
 11
130.9999999999996021
 21
45.4000000000003183
 31
0.0000000000000284
  0
LINE
  5
E484
  8
0
  6
CONTINUOUS
 62
     3
 10
130.9999999999996021
 20
65.600000000000307
 30
0.0000000000000284
 11
130.9999999999996021
 21
56.5000000000003411
 31
0.0000000000000284
  0
LINE
  5
E485
  8
0
  6
CONTINUOUS
 62
     3
 10
130.9999999999996021
 20
74.0000000000000568
 30
0.0000000000000284
 11
130.9999999999996021
 21
67.600000000000307
 31
0.0000000000000284
  0
LINE
  5
E486
  8
0
  6
CONTINUOUS
 62
     3
 10
130.9999999999996874
 20
-67.5999999999996817
 30
0.0000000000000284
 11
130.9999999999996874
 21
-73.9999999999953957
 31
0.0000000000000284
  0
LINE
  5
E487
  8
0
  6
CONTINUOUS
 62
     3
 10
130.9999999999996874
 20
-56.4999999999997016
 30
0.0000000000000284
 11
130.9999999999996874
 21
-65.5999999999996959
 31
0.0000000000000284
  0
LINE
  5
E488
  8
0
  6
CONTINUOUS
 62
     3
 10
130.9999999999996874
 20
-45.399999999999693
 30
0.0000000000000284
 11
130.9999999999996874
 21
-54.4999999999996874
 31
0.0000000000000284
  0
LINE
  5
E489
  8
0
  6
CONTINUOUS
 62
     3
 10
130.9999999999996874
 20
-73.9999999999953957
 30
0.0000000000000284
 11
132.9999999999996874
 21
-73.9999999999953957
 31
0.0000000000000289
  0
LINE
  5
E48A
  8
0
  6
CONTINUOUS
 62
     3
 10
132.9999999999996874
 20
-73.9999999999953957
 30
0.0000000000000284
 11
132.9999999999996874
 21
-67.5999999999996817
 31
0.0000000000000284
  0
LINE
  5
E48B
  8
0
  6
CONTINUOUS
 62
     3
 10
132.9999999999996874
 20
12.1000000000002892
 30
0.0000000000000284
 11
132.9999999999996021
 21
21.2000000000003084
 31
0.0000000000000284
  0
LINE
  5
E48C
  8
0
  6
CONTINUOUS
 62
     3
 10
132.9999999999996021
 20
67.600000000000307
 30
0.0000000000000284
 11
132.9999999999996021
 21
74.0000000000000568
 31
0.0000000000000284
  0
LINE
  5
E48D
  8
0
  6
CONTINUOUS
 62
     3
 10
132.9999999999996874
 20
74.0000000000000568
 30
0.0000000000000284
 11
130.9999999999996021
 21
74.0000000000000568
 31
0.000000000000028
  0
LINE
  5
E48E
  8
0
  6
CONTINUOUS
 62
     3
 10
132.9999999999996021
 20
23.2000000000003084
 30
0.0000000000000284
 11
132.9999999999996021
 21
32.3000000000002814
 31
0.0000000000000284
  0
LINE
  5
E48F
  8
0
  6
CONTINUOUS
 62
     3
 10
132.9999999999996874
 20
-21.1999999999996902
 30
0.0000000000000284
 11
132.9999999999996874
 21
-12.0999999999996799
 31
0.0000000000000284
  0
LINE
  5
E490
  8
0
  6
CONTINUOUS
 62
     3
 10
132.9999999999996874
 20
-65.5999999999997101
 30
0.0000000000000284
 11
132.9999999999996874
 21
-56.4999999999997087
 31
0.0000000000000284
  0
LINE
  5
E491
  8
0
  6
CONTINUOUS
 62
     3
 10
132.9999999999996874
 20
-43.399999999999693
 30
0.0000000000000284
 11
132.9999999999996874
 21
-34.2999999999996987
 31
0.0000000000000284
  0
LINE
  5
E492
  8
0
  6
CONTINUOUS
 62
     3
 10
132.9999999999996874
 20
-32.2999999999996774
 30
0.0000000000000284
 11
132.9999999999996874
 21
-23.1999999999996795
 31
0.0000000000000284
  0
LINE
  5
E493
  8
0
  6
CONTINUOUS
 62
     3
 10
132.9999999999996874
 20
1.0000000000002951
 30
0.0000000000000284
 11
132.9999999999996874
 21
10.1000000000002892
 31
0.0000000000000284
  0
LINE
  5
E494
  8
0
  6
CONTINUOUS
 62
     3
 10
132.9999999999996021
 20
45.400000000000297
 30
0.0000000000000284
 11
132.9999999999996021
 21
54.5000000000003197
 31
0.0000000000000284
  0
LINE
  5
E495
  8
0
  6
CONTINUOUS
 62
     3
 10
132.9999999999996021
 20
56.5000000000003268
 30
0.0000000000000284
 11
132.9999999999996021
 21
65.6000000000003212
 31
0.0000000000000284
  0
LINE
  5
E496
  8
0
  6
CONTINUOUS
 62
     3
 10
132.9999999999996021
 20
34.3000000000002814
 30
0.0000000000000284
 11
132.9999999999996021
 21
43.400000000000297
 31
0.0000000000000284
  0
LINE
  5
E497
  8
0
  6
CONTINUOUS
 62
     3
 10
132.9999999999996874
 20
-10.0999999999996994
 30
0.0000000000000284
 11
132.9999999999996874
 21
-0.9999999999997051
 31
0.0000000000000284
  0
LINE
  5
E498
  8
0
  6
CONTINUOUS
 62
     3
 10
132.9999999999996874
 20
-54.4999999999997087
 30
0.0000000000000284
 11
132.9999999999996874
 21
-45.3999999999997002
 31
0.0000000000000284
  0
LINE
  5
E499
  8
0
  6
CONTINUOUS
 62
     3
 10
0.5000000000000818
 20
76.0000000000003126
 30
0.0
 11
0.5000000000000807
 21
53.9979166304967393
 31
0.0
  0
ARC
  5
E49A
  8
0
  6
CONTINUOUS
 62
     3
 10
0.0000000000000756
 20
-5.99999999999969
 30
0.0
 40
59.9999999999999929
 50
270.4774703556616942
 51
89.5225296443383058
  0
LINE
  5
E49B
  8
0
  6
CONTINUOUS
 62
     3
 10
0.5000000000000647
 20
-65.9979166304961211
 30
0.0
 11
0.5000000000000639
 21
-75.9999999999997016
 31
0.0
  0
LINE
  5
E49C
  8
0
  6
CONTINUOUS
 62
     3
 10
0.5000000000000639
 20
-75.9999999999996874
 30
0.0
 11
3.500000000000091
 21
-75.9999999999996874
 31
0.0000000000000007
  0
LINE
  5
E49D
  8
0
  6
CONTINUOUS
 62
     3
 10
3.500000000000091
 20
-75.9999999999996874
 30
0.0
 11
3.5000000000000902
 21
-68.9027026446396746
 31
0.0
  0
ARC
  5
E49E
  8
0
  6
CONTINUOUS
 62
     3
 10
0.0000000000000579
 20
-5.9999999999996092
 30
0.0
 40
63.0000000000000711
 50
273.1847385367203742
 51
300.526479063192312
  0
ARC
  5
E49F
  8
0
  6
CONTINUOUS
 62
     3
 10
0.0000000000000614
 20
-5.9999999999997007
 30
0.0
 40
62.9999999999999787
 50
300.5264790631924257
 51
59.4735209368076525
  0
ARC
  5
E4A0
  8
0
  6
CONTINUOUS
 62
     3
 10
0.0000000000000472
 20
-5.9999999999996936
 30
0.0
 40
62.9999999999999787
 50
59.473520936807617
 51
86.8152614632795547
  0
LINE
  5
E4A1
  8
0
  6
CONTINUOUS
 62
     3
 10
3.500000000000083
 20
56.902702644640307
 30
0.0
 11
3.5000000000000808
 21
76.0000000000003126
 31
0.0
  0
LINE
  5
E4A2
  8
0
  6
CONTINUOUS
 62
     3
 10
3.5000000000000808
 20
76.0000000000003126
 30
0.0
 11
0.5000000000000818
 21
76.0000000000003126
 31
-0.0000000000000007
  0
LINE
  5
E4A3
  8
0
  6
CONTINUOUS
 62
     3
 10
33.9999999999996305
 20
-60.2678542048604768
 30
0.0000000000000071
 11
31.9999999999996412
 21
-60.2678542048604768
 31
0.0000000000000067
  0
LINE
  5
E4A4
  8
0
  6
CONTINUOUS
 62
     3
 10
31.9999999999995595
 20
-74.0000000000023874
 30
0.0000000000000071
 11
33.9999999999995524
 21
-74.0000000000023874
 31
0.0000000000000075
  0
LINE
  5
E4A5
  8
0
  6
CONTINUOUS
 62
     3
 10
33.9999999999995524
 20
-74.0000000000023874
 30
0.0000000000000071
 11
33.9999999999995879
 21
-67.5999999999996533
 31
0.0000000000000071
  0
LINE
  5
E4A6
  8
0
  6
CONTINUOUS
 62
     3
 10
33.9999999999995879
 20
-65.5999999999996817
 30
0.0000000000000071
 11
33.9999999999996305
 21
-60.2678542048604626
 31
0.0000000000000071
  0
LINE
  5
E4A7
  8
0
  6
CONTINUOUS
 62
     3
 10
31.9999999999996092
 20
56.5000000000003126
 30
0.0000000000000071
 11
33.9999999999996021
 21
56.5000000000003126
 31
0.0000000000000075
  0
LINE
  5
E4A8
  8
0
  6
CONTINUOUS
 62
     3
 10
33.9999999999996305
 20
56.5000000000003126
 30
0.0000000000000071
 11
33.9999999999996092
 21
65.6000000000003212
 31
0.0000000000000071
  0
LINE
  5
E4A9
  8
0
  6
CONTINUOUS
 62
     3
 10
33.9999999999996021
 20
65.600000000000307
 30
0.0000000000000071
 11
31.9999999999996199
 21
65.600000000000307
 31
0.0000000000000067
  0
LINE
  5
E4AA
  8
0
  6
CONTINUOUS
 62
     3
 10
31.9999999999995985
 20
65.600000000000307
 30
0.0000000000000071
 11
31.9999999999996305
 21
56.5000000000003126
 31
0.0000000000000071
  0
LINE
  5
E4AB
  8
0
  6
CONTINUOUS
 62
     3
 10
31.9999999999995808
 20
74.0000000000000853
 30
0.0000000000000071
 11
31.9999999999995985
 21
67.600000000000307
 31
0.0000000000000071
  0
LINE
  5
E4AC
  8
0
  6
CONTINUOUS
 62
     3
 10
31.9999999999996305
 20
54.5000000000003197
 30
0.0000000000000071
 11
31.9999999999996483
 21
48.2678542048610808
 31
0.0000000000000071
  0
LINE
  5
E4AD
  8
0
  6
CONTINUOUS
 62
     3
 10
31.9999999999996483
 20
48.2678542048610808
 30
0.0000000000000071
 11
33.9999999999996376
 21
48.2678542048610808
 31
0.0000000000000075
  0
LINE
  5
E4AE
  8
0
  6
CONTINUOUS
 62
     3
 10
33.9999999999995808
 20
74.0000000000000853
 30
0.0000000000000071
 11
31.9999999999995808
 21
74.0000000000000853
 31
0.0000000000000067
  0
LINE
  5
E4AF
  8
0
  6
CONTINUOUS
 62
     3
 10
31.9999999999996305
 20
-60.2678542048604768
 30
0.0000000000000071
 11
31.9999999999995985
 21
-65.5999999999996959
 31
0.0000000000000071
  0
LINE
  5
E4B0
  8
0
  6
CONTINUOUS
 62
     3
 10
31.9999999999995914
 20
-67.5999999999996817
 30
0.0000000000000071
 11
31.9999999999995595
 21
-74.0000000000023874
 31
0.0000000000000071
  0
LINE
  5
E4B1
  8
0
  6
CONTINUOUS
 62
     3
 10
33.9999999999995808
 20
-67.5999999999996817
 30
0.0000000000000071
 11
31.9999999999995914
 21
-67.5999999999996817
 31
0.0000000000000067
  0
LINE
  5
E4B2
  8
0
  6
CONTINUOUS
 62
     3
 10
31.9999999999995914
 20
-65.5999999999996817
 30
0.0000000000000071
 11
33.9999999999995808
 21
-65.5999999999996817
 31
0.0000000000000075
  0
LINE
  5
E4B3
  8
0
  6
CONTINUOUS
 62
     3
 10
31.9999999999996092
 20
67.600000000000307
 30
0.0000000000000071
 11
33.9999999999996021
 21
67.600000000000307
 31
0.0000000000000075
  0
LINE
  5
E4B4
  8
0
  6
CONTINUOUS
 62
     3
 10
33.9999999999996021
 20
67.600000000000307
 30
0.0000000000000071
 11
33.9999999999995879
 21
74.0000000000000853
 31
0.0000000000000071
  0
LINE
  5
E4B5
  8
0
  6
CONTINUOUS
 62
     3
 10
33.9999999999996518
 20
54.5000000000003197
 30
0.0000000000000071
 11
31.9999999999996305
 21
54.5000000000003197
 31
0.0000000000000067
  0
LINE
  5
E4B6
  8
0
  6
CONTINUOUS
 62
     3
 10
33.9999999999996518
 20
48.2678542048610808
 30
0.0000000000000071
 11
33.9999999999996305
 21
54.5000000000003197
 31
0.0000000000000071
  0
ARC
  5
E4B7
  8
0
  6
VERDECKT
 62
     1
 10
140.0000000000003979
 20
50.0000000000004832
 30
0.000000000000032
 40
5.0000000000005782
 50
246.9260819343579101
 51
293.0739180656420899
  0
ARC
  5
E4B8
  8
0
  6
VERDECKT
 62
     1
 10
140.0000000000003979
 20
49.9999999999993179
 30
0.000000000000032
 40
5.0000000000004867
 50
64.158067236847117
 51
115.8419327631528972
  0
CIRCLE
  5
E4B9
  8
0
  6
VERDECKT
 62
     1
 10
140.0000000000003979
 20
49.9999999999998508
 30
0.000000000000032
 40
10.0
  0
ARC
  5
E4BA
  8
0
  6
VERDECKT
 62
     1
 10
140.0000000000003979
 20
-49.9999999999993179
 30
0.000000000000032
 40
4.9999999999995399
 50
66.9260819343698046
 51
113.073918065630096
  0
ARC
  5
E4BB
  8
0
  6
VERDECKT
 62
     1
 10
140.0000000000003979
 20
-49.9999999999998508
 30
0.000000000000032
 40
4.9999999999999734
 50
244.158067236829794
 51
295.8419327631701776
  0
CIRCLE
  5
E4BC
  8
0
  6
VERDECKT
 62
     1
 10
140.0000000000003979
 20
-49.9999999999998224
 30
0.000000000000032
 40
10.0
  0
LINE
  5
E4BD
  8
0
  6
VERDECKT
 62
     1
 10
-100.0000000000003979
 20
-43.399999999999693
 30
-0.0000000000000213
 11
-100.0000000000003979
 21
-45.399999999999693
 31
-0.0000000000000213
  0
LINE
  5
E4BE
  8
0
  6
VERDECKT
 62
     1
 10
-98.0000000000004547
 20
-45.399999999999693
 30
-0.0000000000000213
 11
-98.0000000000004547
 21
-43.399999999999693
 31
-0.0000000000000213
  0
LINE
  5
E4BF
  8
0
  6
VERDECKT
 62
     1
 10
-100.0000000000003979
 20
1.0000000000003011
 30
-0.0000000000000213
 11
-100.0000000000003979
 21
-0.9999999999996984
 31
-0.0000000000000213
  0
LINE
  5
E4C0
  8
0
  6
VERDECKT
 62
     1
 10
-98.0000000000004547
 20
-0.9999999999997053
 30
-0.0000000000000213
 11
-98.0000000000004547
 21
1.000000000000294
 31
-0.0000000000000213
  0
LINE
  5
E4C1
  8
0
  6
VERDECKT
 62
     1
 10
-100.0000000000003979
 20
45.400000000000297
 30
-0.0000000000000213
 11
-100.0000000000003979
 21
43.400000000000297
 31
-0.0000000000000213
  0
LINE
  5
E4C2
  8
0
  6
VERDECKT
 62
     1
 10
-98.0000000000004547
 20
43.400000000000297
 30
-0.0000000000000213
 11
-98.0000000000004263
 21
45.400000000000297
 31
-0.0000000000000213
  0
LINE
  5
E4C3
  8
0
  6
VERDECKT
 62
     1
 10
-100.0000000000003979
 20
56.5000000000003268
 30
-0.0000000000000213
 11
-100.0000000000003979
 21
54.5000000000003197
 31
-0.0000000000000213
  0
LINE
  5
E4C4
  8
0
  6
VERDECKT
 62
     1
 10
-98.0000000000004263
 20
54.5000000000003197
 30
-0.0000000000000213
 11
-98.0000000000004263
 21
56.5000000000003197
 31
-0.0000000000000213
  0
LINE
  5
E4C5
  8
0
  6
VERDECKT
 62
     1
 10
-100.0000000000003979
 20
12.1000000000002892
 30
-0.0000000000000213
 11
-100.0000000000003979
 21
10.1000000000002892
 31
-0.0000000000000213
  0
LINE
  5
E4C6
  8
0
  6
VERDECKT
 62
     1
 10
-98.0000000000004547
 20
10.1000000000002892
 30
-0.0000000000000213
 11
-98.0000000000004547
 21
12.1000000000002892
 31
-0.0000000000000213
  0
LINE
  5
E4C7
  8
0
  6
VERDECKT
 62
     1
 10
-100.0000000000004974
 20
-32.2999999999996987
 30
-0.0000000000000213
 11
-100.0000000000004974
 21
-34.2999999999996916
 31
-0.0000000000000213
  0
LINE
  5
E4C8
  8
0
  6
VERDECKT
 62
     1
 10
-98.0000000000004832
 20
-34.2999999999996987
 30
-0.0000000000000213
 11
-98.0000000000004832
 21
-32.2999999999996987
 31
-0.0000000000000213
  0
LINE
  5
E4C9
  8
0
  6
VERDECKT
 62
     1
 10
-100.0000000000003979
 20
-54.4999999999997016
 30
-0.0000000000000213
 11
-100.0000000000003979
 21
-56.4999999999997016
 31
-0.0000000000000213
  0
LINE
  5
E4CA
  8
0
  6
VERDECKT
 62
     1
 10
-98.0000000000004547
 20
-56.4999999999997016
 30
-0.0000000000000213
 11
-98.0000000000004547
 21
-54.4999999999996874
 31
-0.0000000000000213
  0
LINE
  5
E4CB
  8
0
  6
VERDECKT
 62
     1
 10
-100.0000000000003979
 20
-10.0999999999996994
 30
-0.0000000000000213
 11
-100.0000000000003979
 21
-12.0999999999996906
 31
-0.0000000000000213
  0
LINE
  5
E4CC
  8
0
  6
VERDECKT
 62
     1
 10
-98.0000000000004547
 20
-12.0999999999996994
 30
-0.0000000000000213
 11
-98.0000000000004547
 21
-10.0999999999996994
 31
-0.0000000000000213
  0
LINE
  5
E4CD
  8
0
  6
VERDECKT
 62
     1
 10
-100.0000000000003979
 20
34.3000000000002814
 30
-0.0000000000000213
 11
-100.0000000000003979
 21
32.3000000000003098
 31
-0.0000000000000213
  0
LINE
  5
E4CE
  8
0
  6
VERDECKT
 62
     1
 10
-98.0000000000004263
 20
32.3000000000003027
 30
-0.0000000000000213
 11
-98.0000000000004263
 21
34.3000000000002672
 31
-0.0000000000000213
  0
LINE
  5
E4CF
  8
0
  6
VERDECKT
 62
     1
 10
-100.0000000000003979
 20
67.600000000000307
 30
-0.0000000000000213
 11
-100.0000000000003979
 21
65.6000000000003212
 31
-0.0000000000000213
  0
LINE
  5
E4D0
  8
0
  6
VERDECKT
 62
     1
 10
-98.0000000000004263
 20
65.600000000000307
 30
-0.0000000000000213
 11
-98.0000000000004263
 21
67.6000000000002927
 31
-0.0000000000000213
  0
LINE
  5
E4D1
  8
0
  6
VERDECKT
 62
     1
 10
-100.0000000000003979
 20
23.200000000000319
 30
-0.0000000000000213
 11
-100.0000000000003979
 21
21.200000000000319
 31
-0.0000000000000213
  0
LINE
  5
E4D2
  8
0
  6
VERDECKT
 62
     1
 10
-98.0000000000004547
 20
21.2000000000003084
 30
-0.0000000000000213
 11
-98.0000000000004547
 21
23.2000000000003084
 31
-0.0000000000000213
  0
LINE
  5
E4D3
  8
0
  6
VERDECKT
 62
     1
 10
-100.0000000000004974
 20
-21.1999999999996902
 30
-0.0000000000000213
 11
-100.0000000000004974
 21
-23.1999999999996902
 31
-0.0000000000000213
  0
LINE
  5
E4D4
  8
0
  6
VERDECKT
 62
     1
 10
-98.0000000000004547
 20
-23.1999999999997009
 30
-0.0000000000000213
 11
-98.0000000000004547
 21
-21.1999999999996902
 31
-0.0000000000000213
  0
LINE
  5
E4D5
  8
0
  6
VERDECKT
 62
     1
 10
-100.0000000000003979
 20
-65.5999999999997101
 30
-0.0000000000000213
 11
-100.0000000000003979
 21
-67.5999999999997101
 31
-0.0000000000000213
  0
LINE
  5
E4D6
  8
0
  6
VERDECKT
 62
     1
 10
-98.0000000000004547
 20
-67.5999999999997101
 30
-0.0000000000000213
 11
-98.0000000000004547
 21
-65.5999999999997101
 31
-0.0000000000000213
  0
LINE
  5
E4D7
  8
0
  6
VERDECKT
 62
     1
 10
-166.0000000000005116
 20
-43.399999999999693
 30
-0.0000000000000355
 11
-166.0000000000005116
 21
-45.399999999999693
 31
-0.0000000000000355
  0
LINE
  5
E4D8
  8
0
  6
VERDECKT
 62
     1
 10
-166.0000000000005116
 20
-32.2999999999996916
 30
-0.0000000000000355
 11
-166.0000000000005116
 21
-34.2999999999996916
 31
-0.0000000000000355
  0
LINE
  5
E4D9
  8
0
  6
VERDECKT
 62
     1
 10
-166.0000000000005116
 20
-21.1999999999996902
 30
-0.0000000000000355
 11
-166.0000000000005116
 21
-23.1999999999997009
 31
-0.0000000000000355
  0
LINE
  5
E4DA
  8
0
  6
VERDECKT
 62
     1
 10
-166.0000000000005116
 20
-10.0999999999996994
 30
-0.0000000000000355
 11
-166.0000000000005116
 21
-12.0999999999996994
 31
-0.0000000000000355
  0
LINE
  5
E4DB
  8
0
  6
VERDECKT
 62
     1
 10
-166.0000000000005116
 20
1.0000000000002891
 30
-0.0000000000000355
 11
-166.0000000000005116
 21
-0.9999999999997108
 31
-0.0000000000000355
  0
LINE
  5
E4DC
  8
0
  6
VERDECKT
 62
     1
 10
-166.0000000000005116
 20
12.1000000000002892
 30
-0.0000000000000355
 11
-166.0000000000005116
 21
10.1000000000002892
 31
-0.0000000000000355
  0
LINE
  5
E4DD
  8
0
  6
VERDECKT
 62
     1
 10
-166.0000000000005116
 20
23.200000000000319
 30
-0.0000000000000355
 11
-166.0000000000005116
 21
21.2000000000003084
 31
-0.0000000000000355
  0
LINE
  5
E4DE
  8
0
  6
VERDECKT
 62
     1
 10
-166.0000000000005116
 20
34.3000000000002814
 30
-0.0000000000000355
 11
-166.0000000000005116
 21
32.3000000000002885
 31
-0.0000000000000355
  0
LINE
  5
E4DF
  8
0
  6
VERDECKT
 62
     1
 10
-166.0000000000003979
 20
45.4000000000002899
 30
-0.0000000000000355
 11
-166.0000000000005116
 21
43.4000000000002899
 31
-0.0000000000000355
  0
LINE
  5
E4E0
  8
0
  6
VERDECKT
 62
     1
 10
-166.0000000000003979
 20
56.5000000000003268
 30
-0.0000000000000355
 11
-166.0000000000003979
 21
54.5000000000003197
 31
-0.0000000000000355
  0
LINE
  5
E4E1
  8
0
  6
VERDECKT
 62
     1
 10
-166.0000000000003979
 20
67.6000000000003354
 30
-0.0000000000000355
 11
-166.0000000000003979
 21
65.6000000000003354
 31
-0.0000000000000355
  0
LINE
  5
E4E2
  8
0
  6
VERDECKT
 62
     1
 10
-166.0000000000005116
 20
-65.5999999999997101
 30
-0.0000000000000355
 11
-166.0000000000005116
 21
-67.5999999999997101
 31
-0.0000000000000355
  0
LINE
  5
E4E3
  8
0
  6
VERDECKT
 62
     1
 10
-166.0000000000005116
 20
-54.4999999999996874
 30
-0.0000000000000355
 11
-166.0000000000005116
 21
-56.4999999999997016
 31
-0.0000000000000355
  0
LINE
  5
E4E4
  8
0
  6
VERDECKT
 62
     1
 10
-164.0000000000005116
 20
-56.4999999999997016
 30
-0.0000000000000355
 11
-164.0000000000005116
 21
-54.4999999999996874
 31
-0.0000000000000355
  0
LINE
  5
E4E5
  8
0
  6
VERDECKT
 62
     1
 10
-164.0000000000005116
 20
-67.5999999999997101
 30
-0.0000000000000355
 11
-164.0000000000005116
 21
-65.5999999999997243
 31
-0.0000000000000355
  0
LINE
  5
E4E6
  8
0
  6
VERDECKT
 62
     1
 10
-164.0000000000003979
 20
65.6000000000003354
 30
-0.0000000000000355
 11
-164.0000000000003979
 21
67.6000000000003354
 31
-0.0000000000000355
  0
LINE
  5
E4E7
  8
0
  6
VERDECKT
 62
     1
 10
-164.0000000000003979
 20
54.5000000000003197
 30
-0.0000000000000355
 11
-164.0000000000003979
 21
56.5000000000003197
 31
-0.0000000000000355
  0
LINE
  5
E4E8
  8
0
  6
VERDECKT
 62
     1
 10
-164.0000000000003979
 20
43.400000000000297
 30
-0.0000000000000355
 11
-164.0000000000003979
 21
45.400000000000297
 31
-0.0000000000000355
  0
LINE
  5
E4E9
  8
0
  6
VERDECKT
 62
     1
 10
-164.0000000000003979
 20
32.3000000000002885
 30
-0.0000000000000355
 11
-164.0000000000003979
 21
34.3000000000002814
 31
-0.0000000000000355
  0
LINE
  5
E4EA
  8
0
  6
VERDECKT
 62
     1
 10
-164.0000000000003979
 20
21.2000000000003084
 30
-0.0000000000000355
 11
-164.0000000000003979
 21
23.200000000000319
 31
-0.0000000000000355
  0
LINE
  5
E4EB
  8
0
  6
VERDECKT
 62
     1
 10
-164.0000000000003979
 20
10.1000000000002892
 30
-0.0000000000000355
 11
-164.0000000000003979
 21
12.1000000000002892
 31
-0.0000000000000355
  0
LINE
  5
E4EC
  8
0
  6
VERDECKT
 62
     1
 10
-164.0000000000003979
 20
-0.9999999999997174
 30
-0.0000000000000355
 11
-164.0000000000003979
 21
1.0000000000002891
 31
-0.0000000000000355
  0
LINE
  5
E4ED
  8
0
  6
VERDECKT
 62
     1
 10
-164.0000000000005116
 20
-12.0999999999997101
 30
-0.0000000000000355
 11
-164.0000000000005116
 21
-10.0999999999996994
 31
-0.0000000000000355
  0
LINE
  5
E4EE
  8
0
  6
VERDECKT
 62
     1
 10
-164.0000000000005116
 20
-23.1999999999997009
 30
-0.0000000000000355
 11
-164.0000000000005116
 21
-21.1999999999996902
 31
-0.0000000000000355
  0
LINE
  5
E4EF
  8
0
  6
VERDECKT
 62
     1
 10
-164.0000000000005116
 20
-34.2999999999996916
 30
-0.0000000000000355
 11
-164.0000000000005116
 21
-32.2999999999996916
 31
-0.0000000000000355
  0
LINE
  5
E4F0
  8
0
  6
VERDECKT
 62
     1
 10
-164.0000000000005116
 20
-45.399999999999693
 30
-0.0000000000000355
 11
-164.0000000000005116
 21
-43.399999999999693
 31
-0.0000000000000355
  0
LINE
  5
E4F1
  8
0
  6
VERDECKT
 62
     1
 10
-65.000000000000469
 20
-45.399999999999693
 30
-0.0000000000000142
 11
-65.000000000000469
 21
-43.3999999999997002
 31
-0.0000000000000142
  0
LINE
  5
E4F2
  8
0
  6
VERDECKT
 62
     1
 10
-67.0000000000004832
 20
-43.3999999999997002
 30
-0.0000000000000142
 11
-67.0000000000004832
 21
-45.399999999999693
 31
-0.0000000000000142
  0
LINE
  5
E4F3
  8
0
  6
VERDECKT
 62
     1
 10
-65.0000000000004547
 20
-0.9999999999996922
 30
-0.0000000000000142
 11
-65.0000000000004547
 21
1.0000000000003
 31
-0.0000000000000142
  0
LINE
  5
E4F4
  8
0
  6
VERDECKT
 62
     1
 10
-67.000000000000469
 20
1.0000000000003
 30
-0.0000000000000142
 11
-67.000000000000469
 21
-0.9999999999996926
 31
-0.0000000000000142
  0
LINE
  5
E4F5
  8
0
  6
VERDECKT
 62
     1
 10
-65.000000000000469
 20
43.400000000000297
 30
-0.0000000000000142
 11
-65.0000000000004547
 21
45.4000000000003112
 31
-0.0000000000000142
  0
LINE
  5
E4F6
  8
0
  6
VERDECKT
 62
     1
 10
-67.000000000000469
 20
45.4000000000003112
 30
-0.0000000000000142
 11
-67.000000000000469
 21
43.400000000000297
 31
-0.0000000000000142
  0
LINE
  5
E4F7
  8
0
  6
VERDECKT
 62
     1
 10
-65.0000000000004405
 20
54.5000000000003197
 30
-0.0000000000000142
 11
-65.0000000000004405
 21
56.5000000000003126
 31
-0.0000000000000142
  0
LINE
  5
E4F8
  8
0
  6
VERDECKT
 62
     1
 10
-67.000000000000469
 20
56.5000000000003126
 30
-0.0000000000000142
 11
-67.000000000000469
 21
54.5000000000003197
 31
-0.0000000000000142
  0
LINE
  5
E4F9
  8
0
  6
VERDECKT
 62
     1
 10
-65.0000000000004547
 20
10.1000000000002892
 30
-0.0000000000000142
 11
-65.0000000000004547
 21
12.1000000000002892
 31
-0.0000000000000142
  0
LINE
  5
E4FA
  8
0
  6
VERDECKT
 62
     1
 10
-67.000000000000469
 20
12.1000000000002803
 30
-0.0000000000000142
 11
-67.000000000000469
 21
10.1000000000002892
 31
-0.0000000000000142
  0
LINE
  5
E4FB
  8
0
  6
VERDECKT
 62
     1
 10
-65.0000000000004832
 20
-34.2999999999996987
 30
-0.0000000000000142
 11
-65.0000000000004832
 21
-32.2999999999996987
 31
-0.0000000000000142
  0
LINE
  5
E4FC
  8
0
  6
VERDECKT
 62
     1
 10
-67.0000000000004832
 20
-32.2999999999997129
 30
-0.0000000000000142
 11
-67.0000000000004832
 21
-34.2999999999996987
 31
-0.0000000000000142
  0
LINE
  5
E4FD
  8
0
  6
VERDECKT
 62
     1
 10
-65.0000000000004832
 20
-56.4999999999997016
 30
-0.0000000000000142
 11
-65.0000000000004832
 21
-54.4999999999997016
 31
-0.0000000000000142
  0
LINE
  5
E4FE
  8
0
  6
VERDECKT
 62
     1
 10
-67.0000000000004832
 20
-54.4999999999996874
 30
-0.0000000000000142
 11
-67.0000000000004832
 21
-56.4999999999997016
 31
-0.0000000000000142
  0
LINE
  5
E4FF
  8
0
  6
VERDECKT
 62
     1
 10
-65.0000000000004547
 20
-12.0999999999996906
 30
-0.0000000000000142
 11
-65.0000000000004547
 21
-10.0999999999996906
 31
-0.0000000000000142
  0
LINE
  5
E500
  8
0
  6
VERDECKT
 62
     1
 10
-67.000000000000469
 20
-10.0999999999996906
 30
-0.0000000000000142
 11
-67.000000000000469
 21
-12.0999999999996906
 31
-0.0000000000000142
  0
LINE
  5
E501
  8
0
  6
VERDECKT
 62
     1
 10
-65.0000000000004547
 20
32.3000000000003027
 30
-0.0000000000000142
 11
-65.0000000000004547
 21
34.3000000000002814
 31
-0.0000000000000142
  0
LINE
  5
E502
  8
0
  6
VERDECKT
 62
     1
 10
-67.0000000000004547
 20
34.3000000000002814
 30
-0.0000000000000142
 11
-67.0000000000004547
 21
32.3000000000003098
 31
-0.0000000000000142
  0
LINE
  5
E503
  8
0
  6
VERDECKT
 62
     1
 10
-65.0000000000004405
 20
65.600000000000307
 30
-0.0000000000000142
 11
-65.0000000000004405
 21
67.6000000000002927
 31
-0.0000000000000142
  0
LINE
  5
E504
  8
0
  6
VERDECKT
 62
     1
 10
-67.000000000000469
 20
67.600000000000307
 30
-0.0000000000000142
 11
-67.000000000000469
 21
65.6000000000003212
 31
-0.0000000000000142
  0
LINE
  5
E505
  8
0
  6
VERDECKT
 62
     1
 10
-65.0000000000004547
 20
21.2000000000003084
 30
-0.0000000000000142
 11
-65.0000000000004547
 21
23.2000000000003084
 31
-0.0000000000000142
  0
LINE
  5
E506
  8
0
  6
VERDECKT
 62
     1
 10
-67.0000000000004547
 20
23.2000000000003013
 30
-0.0000000000000142
 11
-67.0000000000004547
 21
21.200000000000319
 31
-0.0000000000000142
  0
LINE
  5
E507
  8
0
  6
VERDECKT
 62
     1
 10
-65.000000000000469
 20
-23.1999999999997009
 30
-0.0000000000000142
 11
-65.000000000000469
 21
-21.1999999999997009
 31
-0.0000000000000142
  0
LINE
  5
E508
  8
0
  6
VERDECKT
 62
     1
 10
-67.0000000000004832
 20
-21.1999999999996902
 30
-0.0000000000000142
 11
-67.0000000000004832
 21
-23.1999999999996902
 31
-0.0000000000000142
  0
LINE
  5
E509
  8
0
  6
VERDECKT
 62
     1
 10
-65.0000000000004832
 20
-67.5999999999996817
 30
-0.0000000000000142
 11
-65.0000000000004832
 21
-65.5999999999996817
 31
-0.0000000000000142
  0
LINE
  5
E50A
  8
0
  6
VERDECKT
 62
     1
 10
-67.0000000000004832
 20
-65.5999999999997101
 30
-0.0000000000000142
 11
-67.0000000000004832
 21
-67.5999999999997101
 31
-0.0000000000000142
  0
LINE
  5
E50B
  8
0
  6
VERDECKT
 62
     1
 10
-131.0000000000005116
 20
-45.399999999999693
 30
-0.0000000000000284
 11
-131.0000000000005116
 21
-43.399999999999693
 31
-0.0000000000000284
  0
LINE
  5
E50C
  8
0
  6
VERDECKT
 62
     1
 10
-133.0000000000005116
 20
-43.399999999999693
 30
-0.0000000000000284
 11
-133.0000000000005116
 21
-45.399999999999693
 31
-0.0000000000000284
  0
LINE
  5
E50D
  8
0
  6
VERDECKT
 62
     1
 10
-131.0000000000005116
 20
-0.9999999999997042
 30
-0.0000000000000284
 11
-131.0000000000005116
 21
1.0000000000002951
 31
-0.0000000000000284
  0
LINE
  5
E50E
  8
0
  6
VERDECKT
 62
     1
 10
-133.0000000000003979
 20
1.000000000000288
 30
-0.0000000000000284
 11
-133.0000000000003979
 21
-0.9999999999997047
 31
-0.0000000000000284
  0
LINE
  5
E50F
  8
0
  6
VERDECKT
 62
     1
 10
-131.0000000000003979
 20
43.400000000000297
 30
-0.0000000000000284
 11
-131.0000000000003979
 21
45.400000000000297
 31
-0.0000000000000284
  0
LINE
  5
E510
  8
0
  6
VERDECKT
 62
     1
 10
-133.0000000000003979
 20
45.400000000000297
 30
-0.0000000000000284
 11
-133.0000000000003979
 21
43.400000000000297
 31
-0.0000000000000284
  0
LINE
  5
E511
  8
0
  6
VERDECKT
 62
     1
 10
-131.0000000000003979
 20
54.5000000000003197
 30
-0.0000000000000284
 11
-131.0000000000003979
 21
56.5000000000003197
 31
-0.0000000000000284
  0
LINE
  5
E512
  8
0
  6
VERDECKT
 62
     1
 10
-133.0000000000003979
 20
56.5000000000003268
 30
-0.0000000000000284
 11
-133.0000000000003979
 21
54.5000000000003197
 31
-0.0000000000000284
  0
LINE
  5
E513
  8
0
  6
VERDECKT
 62
     1
 10
-131.0000000000005116
 20
10.1000000000002892
 30
-0.0000000000000284
 11
-131.0000000000005116
 21
12.1000000000002892
 31
-0.0000000000000284
  0
LINE
  5
E514
  8
0
  6
VERDECKT
 62
     1
 10
-133.0000000000003979
 20
12.1000000000002892
 30
-0.0000000000000284
 11
-133.0000000000003979
 21
10.1000000000002892
 31
-0.0000000000000284
  0
LINE
  5
E515
  8
0
  6
VERDECKT
 62
     1
 10
-131.0000000000005116
 20
-34.2999999999996987
 30
-0.0000000000000284
 11
-131.0000000000005116
 21
-32.2999999999996987
 31
-0.0000000000000284
  0
LINE
  5
E516
  8
0
  6
VERDECKT
 62
     1
 10
-133.0000000000005116
 20
-32.2999999999996916
 30
-0.0000000000000284
 11
-133.0000000000005116
 21
-34.2999999999996916
 31
-0.0000000000000284
  0
LINE
  5
E517
  8
0
  6
VERDECKT
 62
     1
 10
-131.0000000000005116
 20
-56.4999999999997016
 30
-0.0000000000000284
 11
-131.0000000000005116
 21
-54.4999999999996874
 31
-0.0000000000000284
  0
LINE
  5
E518
  8
0
  6
VERDECKT
 62
     1
 10
-133.0000000000005116
 20
-54.4999999999997016
 30
-0.0000000000000284
 11
-133.0000000000005116
 21
-56.4999999999997016
 31
-0.0000000000000284
  0
LINE
  5
E519
  8
0
  6
VERDECKT
 62
     1
 10
-131.0000000000005116
 20
-12.0999999999996994
 30
-0.0000000000000284
 11
-131.0000000000005116
 21
-10.0999999999996994
 31
-0.0000000000000284
  0
LINE
  5
E51A
  8
0
  6
VERDECKT
 62
     1
 10
-133.0000000000005116
 20
-10.0999999999996994
 30
-0.0000000000000284
 11
-133.0000000000005116
 21
-12.0999999999996994
 31
-0.0000000000000284
  0
LINE
  5
E51B
  8
0
  6
VERDECKT
 62
     1
 10
-131.0000000000003979
 20
32.3000000000002885
 30
-0.0000000000000284
 11
-131.0000000000003979
 21
34.3000000000002814
 31
-0.0000000000000284
  0
LINE
  5
E51C
  8
0
  6
VERDECKT
 62
     1
 10
-133.0000000000003979
 20
34.3000000000002814
 30
-0.0000000000000284
 11
-133.0000000000003979
 21
32.3000000000003027
 31
-0.0000000000000284
  0
LINE
  5
E51D
  8
0
  6
VERDECKT
 62
     1
 10
-131.0000000000003979
 20
65.600000000000307
 30
-0.0000000000000284
 11
-131.0000000000003979
 21
67.600000000000307
 31
-0.0000000000000284
  0
LINE
  5
E51E
  8
0
  6
VERDECKT
 62
     1
 10
-133.0000000000003979
 20
67.600000000000307
 30
-0.0000000000000284
 11
-133.0000000000003979
 21
65.600000000000307
 31
-0.0000000000000284
  0
LINE
  5
E51F
  8
0
  6
VERDECKT
 62
     1
 10
-131.0000000000003979
 20
21.2000000000003084
 30
-0.0000000000000284
 11
-131.0000000000003979
 21
23.2000000000003013
 31
-0.0000000000000284
  0
LINE
  5
E520
  8
0
  6
VERDECKT
 62
     1
 10
-133.0000000000003979
 20
23.2000000000003084
 30
-0.0000000000000284
 11
-133.0000000000003979
 21
21.2000000000003084
 31
-0.0000000000000284
  0
LINE
  5
E521
  8
0
  6
VERDECKT
 62
     1
 10
-131.0000000000005116
 20
-23.1999999999997009
 30
-0.0000000000000284
 11
-131.0000000000005116
 21
-21.1999999999996902
 31
-0.0000000000000284
  0
LINE
  5
E522
  8
0
  6
VERDECKT
 62
     1
 10
-133.0000000000005116
 20
-21.1999999999996902
 30
-0.0000000000000284
 11
-133.0000000000005116
 21
-23.1999999999996902
 31
-0.0000000000000284
  0
LINE
  5
E523
  8
0
  6
VERDECKT
 62
     1
 10
-131.0000000000005116
 20
-67.5999999999997101
 30
-0.0000000000000284
 11
-131.0000000000005116
 21
-65.5999999999997243
 31
-0.0000000000000284
  0
LINE
  5
E524
  8
0
  6
VERDECKT
 62
     1
 10
-133.0000000000005116
 20
-65.5999999999997101
 30
-0.0000000000000284
 11
-133.0000000000005116
 21
-67.5999999999996959
 31
-0.0000000000000284
  0
LINE
  5
E525
  8
0
  6
VERDECKT
 62
     1
 10
-34.0000000000003624
 20
-65.5999999999996817
 30
-0.0000000000000071
 11
-34.0000000000003624
 21
-67.5999999999996817
 31
-0.0000000000000071
  0
LINE
  5
E526
  8
0
  6
VERDECKT
 62
     1
 10
-32.0000000000004121
 20
54.5000000000003126
 30
-0.0000000000000071
 11
-32.0000000000004121
 21
56.5000000000002984
 31
-0.0000000000000071
  0
LINE
  5
E527
  8
0
  6
VERDECKT
 62
     1
 10
-32.0000000000003766
 20
65.6000000000003354
 30
-0.0000000000000071
 11
-32.0000000000003695
 21
67.600000000000307
 31
-0.0000000000000071
  0
LINE
  5
E528
  8
0
  6
VERDECKT
 62
     1
 10
-32.0000000000003695
 20
-67.5999999999996817
 30
-0.0000000000000071
 11
-32.0000000000003766
 21
-65.5999999999996959
 31
-0.0000000000000071
  0
LINE
  5
E529
  8
0
  6
VERDECKT
 62
     1
 10
-34.0000000000003766
 20
67.600000000000307
 30
-0.0000000000000071
 11
-34.0000000000003766
 21
65.6000000000003354
 31
-0.0000000000000071
  0
LINE
  5
E52A
  8
0
  6
VERDECKT
 62
     1
 10
-34.0000000000003979
 20
56.5000000000002984
 30
-0.0000000000000071
 11
-34.0000000000004121
 21
54.5000000000003126
 31
-0.0000000000000071
  0
ARC
  5
E52B
  8
0
  6
VERDECKT
 62
     1
 10
-140.0000000000003979
 20
-49.9999999999993179
 30
-0.000000000000032
 40
4.9999999999995399
 50
66.926081934369833
 51
113.0739180656301954
  0
ARC
  5
E52C
  8
0
  6
VERDECKT
 62
     1
 10
-140.0000000000003979
 20
-49.9999999999998508
 30
-0.000000000000032
 40
4.9999999999999734
 50
244.158067236829794
 51
295.8419327631701776
  0
CIRCLE
  5
E52D
  8
0
  6
VERDECKT
 62
     1
 10
-140.0000000000003979
 20
-49.9999999999998224
 30
-0.000000000000032
 40
10.0
  0
ARC
  5
E52E
  8
0
  6
VERDECKT
 62
     1
 10
-140.0000000000003979
 20
50.0000000000004832
 30
-0.000000000000032
 40
5.0000000000005782
 50
246.9260819343579101
 51
293.0739180656420899
  0
ARC
  5
E52F
  8
0
  6
VERDECKT
 62
     1
 10
-140.0000000000003979
 20
49.9999999999993179
 30
-0.000000000000032
 40
5.0000000000004867
 50
64.1580672368471028
 51
115.8419327631528972
  0
CIRCLE
  5
E530
  8
0
  6
VERDECKT
 62
     1
 10
-140.0000000000003979
 20
49.9999999999998508
 30
-0.000000000000032
 40
10.0
  0
ARC
  5
E531
  8
0
  6
VERDECKT
 62
     1
 10
49.9599839871872291
 20
-41.0000000000000071
 30
0.0000000000000142
 40
1.0000000000000091
 50
90.0000000000000711
 51
144.98642562037179
  0
ARC
  5
E532
  8
0
  6
VERDECKT
 62
     1
 10
-140.0000000000003979
 20
-50.0000000000000284
 30
-0.0000000000000284
 40
6.0000000000000826
 50
50.0554948101892023
 51
89.9999999999997158
  0
ARC
  5
E533
  8
0
  6
VERDECKT
 62
     1
 10
-140.0000000000003979
 20
-49.9999999999999076
 30
-0.0000000000000284
 40
6.0000000000000231
 50
228.5903778907259039
 51
311.4096221092740961
  0
ARC
  5
E534
  8
0
  6
VERDECKT
 62
     1
 10
-140.0000000000003979
 20
-49.9999999999999289
 30
-0.0000000000000284
 40
5.9999999999999867
 50
89.9999999999996874
 51
129.9445051898111956
  0
ARC
  5
E535
  8
0
  6
VERDECKT
 62
     1
 10
-140.0000000000003979
 20
49.9999999999999929
 30
-0.0000000000000284
 40
6.0000000000000711
 50
48.5903778907334001
 51
90.0
  0
ARC
  5
E536
  8
0
  6
VERDECKT
 62
     1
 10
-140.0000000000003979
 20
50.0000000000000284
 30
-0.0000000000000284
 40
5.9999999999999991
 50
230.0554948101809885
 51
309.9445051898189263
  0
ARC
  5
E537
  8
0
  6
VERDECKT
 62
     1
 10
-140.0000000000003979
 20
49.9999999999999929
 30
-0.0000000000000284
 40
6.0000000000000551
 50
89.9999999999999858
 51
131.4096221092669055
  0
ARC
  5
E538
  8
0
  6
VERDECKT
 62
     1
 10
139.9999999999996021
 20
-49.9999999999998721
 30
0.0000000000000284
 40
5.9999999999998392
 50
50.0554948101896997
 51
90.0000000000002558
  0
ARC
  5
E539
  8
0
  6
VERDECKT
 62
     1
 10
139.9999999999994884
 20
-50.0000000000000711
 30
0.0000000000000284
 40
5.9999999999999707
 50
228.5903778907238859
 51
311.409622109275972
  0
ARC
  5
E53A
  8
0
  6
VERDECKT
 62
     1
 10
139.9999999999994884
 20
-49.9999999999999574
 30
0.0000000000000284
 40
5.9999999999999334
 50
89.9999999999996874
 51
129.9445051898102861
  0
ARC
  5
E53B
  8
0
  6
VERDECKT
 62
     1
 10
139.9999999999994884
 20
49.9999999999998366
 30
0.000000000000032
 40
6.0000000000001128
 50
48.5903778907349277
 51
89.9999999999996874
  0
ARC
  5
E53C
  8
0
  6
VERDECKT
 62
     1
 10
139.9999999999994884
 20
49.9999999999999218
 30
0.000000000000032
 40
5.9999999999999671
 50
230.0554948101797095
 51
309.9445051898202905
  0
ARC
  5
E53D
  8
0
  6
VERDECKT
 62
     1
 10
139.9999999999994884
 20
50.0000000000000782
 30
0.000000000000032
 40
5.9999999999998597
 50
89.9999999999994458
 51
131.409622109265996
  0
ARC
  5
E53E
  8
0
  6
VERDECKT
 62
     1
 10
-49.9599839871871509
 20
-40.9999999999999574
 30
-0.0000000000000142
 40
0.9999999999999911
 50
35.0135743796273928
 51
90.0000000000003837
  0
LINE
  5
E53F
  8
0
  6
VERDECKT
 62
     1
 10
-49.9599839871871509
 20
-40.0
 30
-0.0000000000000142
 11
-53.0377224247051018
 21
-40.0
 31
-0.0000000000000149
  0
LINE
  5
E540
  8
0
  6
VERDECKT
 62
     1
 10
-65.000000000000469
 20
-39.9999999999999929
 30
-0.0000000000000142
 11
-67.0000000000004832
 21
-39.9999999999999929
 31
-0.0000000000000147
  0
LINE
  5
E541
  8
0
  6
VERDECKT
 62
     1
 10
-98.0000000000004547
 20
-39.9999999999999716
 30
-0.0000000000000213
 11
-100.0000000000004974
 21
-39.9999999999999716
 31
-0.0000000000000218
  0
LINE
  5
E542
  8
0
  6
VERDECKT
 62
     1
 10
-131.0000000000005116
 20
-39.9999999999999574
 30
-0.0000000000000284
 11
-133.0000000000005116
 21
-39.9999999999999574
 31
-0.0000000000000289
  0
ARC
  5
E543
  8
0
  6
VERDECKT
 62
     1
 10
-164.0000000000003979
 20
-38.9999999999999574
 30
-0.0000000000000355
 40
1.0
 50
179.9999999999996021
 51
270.0000000000001137
  0
LINE
  5
E544
  8
0
  6
VERDECKT
 62
     1
 10
-165.0000000000003979
 20
-38.9999999999999503
 30
-0.0000000000000355
 11
-165.0000000000003126
 21
39.0000000000000568
 31
-0.0000000000000355
  0
ARC
  5
E545
  8
0
  6
VERDECKT
 62
     1
 10
-164.0000000000003126
 20
39.0000000000000568
 30
-0.0000000000000355
 40
1.0
 50
90.0
 51
180.0
  0
LINE
  5
E546
  8
0
  6
VERDECKT
 62
     1
 10
-133.0000000000003979
 20
40.0000000000000568
 30
-0.0000000000000284
 11
-131.0000000000003979
 21
40.0000000000000568
 31
-0.000000000000028
  0
LINE
  5
E547
  8
0
  6
VERDECKT
 62
     1
 10
-100.0000000000003979
 20
40.0000000000000426
 30
-0.0000000000000213
 11
-98.0000000000004547
 21
40.0000000000000426
 31
-0.0000000000000209
  0
LINE
  5
E548
  8
0
  6
VERDECKT
 62
     1
 10
-67.0000000000004832
 20
40.0000000000000071
 30
-0.0000000000000142
 11
-65.0000000000004547
 21
40.0000000000000071
 31
-0.0000000000000138
  0
ARC
  5
E549
  8
0
  6
VERDECKT
 62
     1
 10
-0.0000000000102061
 20
6.0000000000083631
 30
0.0
 40
59.9999999999867768
 50
138.9538534148236124
 51
141.4400371614123912
  0
ARC
  5
E54A
  8
0
  6
VERDECKT
 62
     1
 10
0.0000000000058842
 20
5.9999999999918501
 30
0.0
 40
60.0000000000100187
 50
122.2309526355031011
 51
126.066588259787693
  0
ARC
  5
E54B
  8
0
  6
VERDECKT
 62
     1
 10
-0.0000000000000937
 20
6.0000000000017968
 30
0.0
 40
59.9999999999982023
 50
90.4774703556624331
 51
96.6196277952813745
  0
ARC
  5
E54C
  8
0
  6
VERDECKT
 62
     1
 10
0.0000000000000027
 20
6.0000000000007168
 30
0.0
 40
59.9999999999992824
 50
83.3803722047185829
 51
89.5225296443382348
  0
ARC
  5
E54D
  8
0
  6
VERDECKT
 62
     1
 10
-0.0000000000034417
 20
5.9999999999947908
 30
0.0
 40
60.0000000000062599
 50
53.9334117402124278
 51
57.7690473644981992
  0
ARC
  5
E54E
  8
0
  6
VERDECKT
 62
     1
 10
-0.000000000005012
 20
5.9999999999959419
 30
0.0
 40
60.0000000000064801
 50
38.5599628385877367
 51
41.0461465851756984
  0
LINE
  5
E54F
  8
0
  6
VERDECKT
 62
     1
 10
64.9999999999996732
 20
39.9999999999999929
 30
0.0000000000000142
 11
66.9999999999997158
 21
39.9999999999999929
 31
0.0000000000000147
  0
LINE
  5
E550
  8
0
  6
VERDECKT
 62
     1
 10
97.9999999999996589
 20
39.9999999999999716
 30
0.0000000000000213
 11
99.9999999999996874
 21
39.9999999999999716
 31
0.0000000000000218
  0
LINE
  5
E551
  8
0
  6
VERDECKT
 62
     1
 10
130.9999999999996021
 20
39.9999999999999503
 30
0.0000000000000284
 11
132.9999999999996021
 21
39.9999999999999503
 31
0.0000000000000289
  0
ARC
  5
E552
  8
0
  6
VERDECKT
 62
     1
 10
163.9999999999996021
 20
38.9999999999999574
 30
0.0000000000000355
 40
0.9999999999999715
 50
0.0000000000000175
 51
90.0000000000024585
  0
LINE
  5
E553
  8
0
  6
VERDECKT
 62
     1
 10
164.9999999999996021
 20
38.9999999999999503
 30
0.0000000000000355
 11
164.9999999999996021
 21
-39.0000000000000568
 31
0.0000000000000355
  0
ARC
  5
E554
  8
0
  6
VERDECKT
 62
     1
 10
163.9999999999996021
 20
-39.0000000000000711
 30
0.0000000000000355
 40
0.9999999999999857
 50
270.0
 51
0.0000000000006107
  0
LINE
  5
E555
  8
0
  6
VERDECKT
 62
     1
 10
132.9999999999996021
 20
-40.0000000000000568
 30
0.0000000000000284
 11
130.9999999999996021
 21
-40.0000000000000568
 31
0.000000000000028
  0
LINE
  5
E556
  8
0
  6
VERDECKT
 62
     1
 10
99.9999999999997158
 20
-40.0000000000000497
 30
0.0000000000000213
 11
97.9999999999997016
 21
-40.0000000000000497
 31
0.0000000000000209
  0
LINE
  5
E557
  8
0
  6
VERDECKT
 62
     1
 10
66.99999999999973
 20
-40.0000000000000284
 30
0.0000000000000142
 11
64.99999999999973
 21
-40.0000000000000284
 31
0.0000000000000138
  0
LINE
  5
E558
  8
0
  6
VERDECKT
 62
     1
 10
53.0377224247043273
 20
-40.0000000000000213
 30
0.0000000000000142
 11
49.9599839871872291
 21
-40.0000000000000213
 31
0.0000000000000135
  0
LINE
  5
E559
  8
0
  6
VERDECKT
 62
     1
 10
99.9999999999997158
 20
-43.399999999999693
 30
0.0000000000000213
 11
99.9999999999997158
 21
-45.399999999999693
 31
0.0000000000000213
  0
LINE
  5
E55A
  8
0
  6
VERDECKT
 62
     1
 10
97.9999999999997016
 20
-45.399999999999693
 30
0.0000000000000213
 11
97.9999999999997016
 21
-43.399999999999693
 31
0.0000000000000213
  0
LINE
  5
E55B
  8
0
  6
VERDECKT
 62
     1
 10
99.9999999999997158
 20
1.0000000000003011
 30
0.0000000000000213
 11
99.9999999999997158
 21
-0.9999999999996984
 31
0.0000000000000213
  0
LINE
  5
E55C
  8
0
  6
VERDECKT
 62
     1
 10
97.9999999999996732
 20
-0.9999999999997053
 30
0.0000000000000213
 11
97.9999999999996732
 21
1.000000000000294
 31
0.0000000000000213
  0
LINE
  5
E55D
  8
0
  6
VERDECKT
 62
     1
 10
99.9999999999997158
 20
45.400000000000297
 30
0.0000000000000213
 11
99.9999999999997158
 21
43.400000000000297
 31
0.0000000000000213
  0
LINE
  5
E55E
  8
0
  6
VERDECKT
 62
     1
 10
97.9999999999996732
 20
43.400000000000297
 30
0.0000000000000213
 11
97.9999999999996589
 21
45.400000000000297
 31
0.0000000000000213
  0
LINE
  5
E55F
  8
0
  6
VERDECKT
 62
     1
 10
99.9999999999997158
 20
56.5000000000003268
 30
0.0000000000000213
 11
99.9999999999997158
 21
54.5000000000003197
 31
0.0000000000000213
  0
LINE
  5
E560
  8
0
  6
VERDECKT
 62
     1
 10
97.9999999999996589
 20
54.5000000000003197
 30
0.0000000000000213
 11
97.9999999999996589
 21
56.5000000000003197
 31
0.0000000000000213
  0
LINE
  5
E561
  8
0
  6
VERDECKT
 62
     1
 10
99.9999999999996874
 20
12.1000000000002892
 30
0.0000000000000213
 11
99.9999999999996874
 21
10.1000000000002892
 31
0.0000000000000213
  0
LINE
  5
E562
  8
0
  6
VERDECKT
 62
     1
 10
97.9999999999996732
 20
10.1000000000002892
 30
0.0000000000000213
 11
97.9999999999996732
 21
12.1000000000002892
 31
0.0000000000000213
  0
LINE
  5
E563
  8
0
  6
VERDECKT
 62
     1
 10
99.9999999999997158
 20
-32.2999999999996987
 30
0.0000000000000213
 11
99.9999999999997158
 21
-34.2999999999996916
 31
0.0000000000000213
  0
LINE
  5
E564
  8
0
  6
VERDECKT
 62
     1
 10
97.9999999999997158
 20
-34.2999999999996987
 30
0.0000000000000213
 11
97.9999999999997158
 21
-32.2999999999996987
 31
0.0000000000000213
  0
LINE
  5
E565
  8
0
  6
VERDECKT
 62
     1
 10
99.9999999999997158
 20
-54.4999999999997016
 30
0.0000000000000213
 11
99.9999999999997158
 21
-56.4999999999997016
 31
0.0000000000000213
  0
LINE
  5
E566
  8
0
  6
VERDECKT
 62
     1
 10
97.9999999999997016
 20
-56.4999999999997016
 30
0.0000000000000213
 11
97.9999999999997016
 21
-54.4999999999996874
 31
0.0000000000000213
  0
LINE
  5
E567
  8
0
  6
VERDECKT
 62
     1
 10
99.9999999999997158
 20
-10.0999999999996994
 30
0.0000000000000213
 11
99.9999999999997158
 21
-12.0999999999996906
 31
0.0000000000000213
  0
LINE
  5
E568
  8
0
  6
VERDECKT
 62
     1
 10
97.9999999999996732
 20
-12.0999999999996994
 30
0.0000000000000213
 11
97.9999999999996732
 21
-10.0999999999996994
 31
0.0000000000000213
  0
LINE
  5
E569
  8
0
  6
VERDECKT
 62
     1
 10
99.9999999999996874
 20
34.3000000000002814
 30
0.0000000000000213
 11
99.9999999999996874
 21
32.3000000000003098
 31
0.0000000000000213
  0
LINE
  5
E56A
  8
0
  6
VERDECKT
 62
     1
 10
97.9999999999996589
 20
32.3000000000003027
 30
0.0000000000000213
 11
97.9999999999996589
 21
34.3000000000002672
 31
0.0000000000000213
  0
LINE
  5
E56B
  8
0
  6
VERDECKT
 62
     1
 10
99.9999999999997158
 20
67.600000000000307
 30
0.0000000000000213
 11
99.9999999999997158
 21
65.6000000000003212
 31
0.0000000000000213
  0
LINE
  5
E56C
  8
0
  6
VERDECKT
 62
     1
 10
97.9999999999996589
 20
65.600000000000307
 30
0.0000000000000213
 11
97.9999999999996589
 21
67.6000000000002927
 31
0.0000000000000213
  0
LINE
  5
E56D
  8
0
  6
VERDECKT
 62
     1
 10
99.9999999999996874
 20
23.200000000000319
 30
0.0000000000000213
 11
99.9999999999996874
 21
21.200000000000319
 31
0.0000000000000213
  0
LINE
  5
E56E
  8
0
  6
VERDECKT
 62
     1
 10
97.9999999999996732
 20
21.2000000000003084
 30
0.0000000000000213
 11
97.9999999999996732
 21
23.2000000000003084
 31
0.0000000000000213
  0
LINE
  5
E56F
  8
0
  6
VERDECKT
 62
     1
 10
99.9999999999997158
 20
-21.1999999999996902
 30
0.0000000000000213
 11
99.9999999999997158
 21
-23.1999999999996902
 31
0.0000000000000213
  0
LINE
  5
E570
  8
0
  6
VERDECKT
 62
     1
 10
97.9999999999997016
 20
-23.1999999999997009
 30
0.0000000000000213
 11
97.9999999999997016
 21
-21.1999999999996902
 31
0.0000000000000213
  0
LINE
  5
E571
  8
0
  6
VERDECKT
 62
     1
 10
99.9999999999997158
 20
-65.5999999999997101
 30
0.0000000000000213
 11
99.9999999999997158
 21
-67.5999999999997101
 31
0.0000000000000213
  0
LINE
  5
E572
  8
0
  6
VERDECKT
 62
     1
 10
97.9999999999997016
 20
-67.5999999999997101
 30
0.0000000000000213
 11
97.9999999999997016
 21
-65.5999999999997101
 31
0.0000000000000213
  0
LINE
  5
E573
  8
0
  6
VERDECKT
 62
     1
 10
165.9999999999996874
 20
-54.4999999999996874
 30
0.0000000000000355
 11
165.9999999999996874
 21
-56.4999999999997016
 31
0.0000000000000355
  0
LINE
  5
E574
  8
0
  6
VERDECKT
 62
     1
 10
165.9999999999996874
 20
-65.5999999999997101
 30
0.0000000000000355
 11
165.9999999999996874
 21
-67.5999999999997101
 31
0.0000000000000355
  0
LINE
  5
E575
  8
0
  6
VERDECKT
 62
     1
 10
165.9999999999996021
 20
67.6000000000003354
 30
0.0000000000000355
 11
165.9999999999996021
 21
65.6000000000003354
 31
0.0000000000000355
  0
LINE
  5
E576
  8
0
  6
VERDECKT
 62
     1
 10
165.9999999999996021
 20
56.5000000000003268
 30
0.0000000000000355
 11
165.9999999999996021
 21
54.5000000000003197
 31
0.0000000000000355
  0
LINE
  5
E577
  8
0
  6
VERDECKT
 62
     1
 10
165.9999999999996021
 20
45.4000000000002899
 30
0.0000000000000355
 11
165.9999999999996874
 21
43.4000000000002899
 31
0.0000000000000355
  0
LINE
  5
E578
  8
0
  6
VERDECKT
 62
     1
 10
165.9999999999996874
 20
34.3000000000002814
 30
0.0000000000000355
 11
165.9999999999996874
 21
32.3000000000002885
 31
0.0000000000000355
  0
LINE
  5
E579
  8
0
  6
VERDECKT
 62
     1
 10
165.9999999999996874
 20
23.200000000000319
 30
0.0000000000000355
 11
165.9999999999996874
 21
21.2000000000003084
 31
0.0000000000000355
  0
LINE
  5
E57A
  8
0
  6
VERDECKT
 62
     1
 10
165.9999999999996874
 20
12.1000000000002892
 30
0.0000000000000355
 11
165.9999999999996874
 21
10.1000000000002892
 31
0.0000000000000355
  0
LINE
  5
E57B
  8
0
  6
VERDECKT
 62
     1
 10
165.9999999999996874
 20
1.0000000000002891
 30
0.0000000000000355
 11
165.9999999999996874
 21
-0.9999999999997108
 31
0.0000000000000355
  0
LINE
  5
E57C
  8
0
  6
VERDECKT
 62
     1
 10
165.9999999999996874
 20
-10.0999999999996994
 30
0.0000000000000355
 11
165.9999999999996874
 21
-12.0999999999996994
 31
0.0000000000000355
  0
LINE
  5
E57D
  8
0
  6
VERDECKT
 62
     1
 10
165.9999999999996874
 20
-21.1999999999996902
 30
0.0000000000000355
 11
165.9999999999996874
 21
-23.1999999999997009
 31
0.0000000000000355
  0
LINE
  5
E57E
  8
0
  6
VERDECKT
 62
     1
 10
165.9999999999996874
 20
-32.2999999999996916
 30
0.0000000000000355
 11
165.9999999999996874
 21
-34.2999999999996916
 31
0.0000000000000355
  0
LINE
  5
E57F
  8
0
  6
VERDECKT
 62
     1
 10
165.9999999999996874
 20
-43.399999999999693
 30
0.0000000000000355
 11
165.9999999999996874
 21
-45.399999999999693
 31
0.0000000000000355
  0
LINE
  5
E580
  8
0
  6
VERDECKT
 62
     1
 10
163.9999999999996874
 20
-45.399999999999693
 30
0.0000000000000355
 11
163.9999999999996874
 21
-43.399999999999693
 31
0.0000000000000355
  0
LINE
  5
E581
  8
0
  6
VERDECKT
 62
     1
 10
163.9999999999996874
 20
-34.2999999999996916
 30
0.0000000000000355
 11
163.9999999999996874
 21
-32.2999999999996916
 31
0.0000000000000355
  0
LINE
  5
E582
  8
0
  6
VERDECKT
 62
     1
 10
163.9999999999996874
 20
-23.1999999999997009
 30
0.0000000000000355
 11
163.9999999999996874
 21
-21.1999999999996902
 31
0.0000000000000355
  0
LINE
  5
E583
  8
0
  6
VERDECKT
 62
     1
 10
163.9999999999996874
 20
-12.0999999999997101
 30
0.0000000000000355
 11
163.9999999999996874
 21
-10.0999999999996994
 31
0.0000000000000355
  0
LINE
  5
E584
  8
0
  6
VERDECKT
 62
     1
 10
163.9999999999996021
 20
-0.9999999999997174
 30
0.0000000000000355
 11
163.9999999999996021
 21
1.0000000000002891
 31
0.0000000000000355
  0
LINE
  5
E585
  8
0
  6
VERDECKT
 62
     1
 10
163.9999999999996021
 20
10.1000000000002892
 30
0.0000000000000355
 11
163.9999999999996021
 21
12.1000000000002892
 31
0.0000000000000355
  0
LINE
  5
E586
  8
0
  6
VERDECKT
 62
     1
 10
163.9999999999996021
 20
21.2000000000003084
 30
0.0000000000000355
 11
163.9999999999996021
 21
23.200000000000319
 31
0.0000000000000355
  0
LINE
  5
E587
  8
0
  6
VERDECKT
 62
     1
 10
163.9999999999996021
 20
32.3000000000002885
 30
0.0000000000000355
 11
163.9999999999996021
 21
34.3000000000002814
 31
0.0000000000000355
  0
LINE
  5
E588
  8
0
  6
VERDECKT
 62
     1
 10
163.9999999999996021
 20
43.400000000000297
 30
0.0000000000000355
 11
163.9999999999996021
 21
45.400000000000297
 31
0.0000000000000355
  0
LINE
  5
E589
  8
0
  6
VERDECKT
 62
     1
 10
163.9999999999996021
 20
54.5000000000003197
 30
0.0000000000000355
 11
163.9999999999996021
 21
56.5000000000003197
 31
0.0000000000000355
  0
LINE
  5
E58A
  8
0
  6
VERDECKT
 62
     1
 10
163.9999999999996021
 20
65.6000000000003354
 30
0.0000000000000355
 11
163.9999999999996021
 21
67.6000000000003354
 31
0.0000000000000355
  0
LINE
  5
E58B
  8
0
  6
VERDECKT
 62
     1
 10
163.9999999999996874
 20
-67.5999999999997101
 30
0.0000000000000355
 11
163.9999999999996874
 21
-65.5999999999997243
 31
0.0000000000000355
  0
LINE
  5
E58C
  8
0
  6
VERDECKT
 62
     1
 10
163.9999999999996874
 20
-56.4999999999997016
 30
0.0000000000000355
 11
163.9999999999996874
 21
-54.4999999999996874
 31
0.0000000000000355
  0
LINE
  5
E58D
  8
0
  6
VERDECKT
 62
     1
 10
64.9999999999997016
 20
-45.399999999999693
 30
0.0000000000000142
 11
64.9999999999997016
 21
-43.3999999999997002
 31
0.0000000000000142
  0
LINE
  5
E58E
  8
0
  6
VERDECKT
 62
     1
 10
66.9999999999997158
 20
-43.3999999999997002
 30
0.0000000000000142
 11
66.9999999999997158
 21
-45.399999999999693
 31
0.0000000000000142
  0
LINE
  5
E58F
  8
0
  6
VERDECKT
 62
     1
 10
64.9999999999996732
 20
-0.9999999999996922
 30
0.0000000000000142
 11
64.9999999999996732
 21
1.0000000000003
 31
0.0000000000000142
  0
LINE
  5
E590
  8
0
  6
VERDECKT
 62
     1
 10
66.9999999999997016
 20
1.0000000000003
 30
0.0000000000000142
 11
66.9999999999997016
 21
-0.9999999999996926
 31
0.0000000000000142
  0
LINE
  5
E591
  8
0
  6
VERDECKT
 62
     1
 10
64.9999999999997016
 20
43.400000000000297
 30
0.0000000000000142
 11
64.9999999999996732
 21
45.4000000000003112
 31
0.0000000000000142
  0
LINE
  5
E592
  8
0
  6
VERDECKT
 62
     1
 10
66.9999999999997016
 20
45.4000000000003112
 30
0.0000000000000142
 11
66.9999999999997016
 21
43.400000000000297
 31
0.0000000000000142
  0
LINE
  5
E593
  8
0
  6
VERDECKT
 62
     1
 10
64.9999999999996732
 20
54.5000000000003197
 30
0.0000000000000142
 11
64.9999999999996732
 21
56.5000000000003126
 31
0.0000000000000142
  0
LINE
  5
E594
  8
0
  6
VERDECKT
 62
     1
 10
66.9999999999997016
 20
56.5000000000003126
 30
0.0000000000000142
 11
66.9999999999997016
 21
54.5000000000003197
 31
0.0000000000000142
  0
LINE
  5
E595
  8
0
  6
VERDECKT
 62
     1
 10
64.9999999999996732
 20
10.1000000000002892
 30
0.0000000000000142
 11
64.9999999999996732
 21
12.1000000000002892
 31
0.0000000000000142
  0
LINE
  5
E596
  8
0
  6
VERDECKT
 62
     1
 10
66.9999999999997016
 20
12.1000000000002803
 30
0.0000000000000142
 11
66.9999999999997016
 21
10.1000000000002892
 31
0.0000000000000142
  0
LINE
  5
E597
  8
0
  6
VERDECKT
 62
     1
 10
64.9999999999997158
 20
-34.2999999999996987
 30
0.0000000000000142
 11
64.9999999999997158
 21
-32.2999999999996987
 31
0.0000000000000142
  0
LINE
  5
E598
  8
0
  6
VERDECKT
 62
     1
 10
66.99999999999973
 20
-32.2999999999997129
 30
0.0000000000000142
 11
66.99999999999973
 21
-34.2999999999996987
 31
0.0000000000000142
  0
LINE
  5
E599
  8
0
  6
VERDECKT
 62
     1
 10
64.9999999999997158
 20
-56.4999999999997016
 30
0.0000000000000142
 11
64.9999999999997158
 21
-54.4999999999997016
 31
0.0000000000000142
  0
LINE
  5
E59A
  8
0
  6
VERDECKT
 62
     1
 10
66.9999999999997158
 20
-54.4999999999996874
 30
0.0000000000000142
 11
66.9999999999997158
 21
-56.4999999999997016
 31
0.0000000000000142
  0
LINE
  5
E59B
  8
0
  6
VERDECKT
 62
     1
 10
64.9999999999996732
 20
-12.0999999999996906
 30
0.0000000000000142
 11
64.9999999999996732
 21
-10.0999999999996906
 31
0.0000000000000142
  0
LINE
  5
E59C
  8
0
  6
VERDECKT
 62
     1
 10
66.9999999999997016
 20
-10.0999999999996906
 30
0.0000000000000142
 11
66.9999999999997016
 21
-12.0999999999996906
 31
0.0000000000000142
  0
LINE
  5
E59D
  8
0
  6
VERDECKT
 62
     1
 10
64.9999999999996732
 20
32.3000000000003027
 30
0.0000000000000142
 11
64.9999999999996732
 21
34.3000000000002814
 31
0.0000000000000142
  0
LINE
  5
E59E
  8
0
  6
VERDECKT
 62
     1
 10
66.9999999999996874
 20
34.3000000000002814
 30
0.0000000000000142
 11
66.9999999999996874
 21
32.3000000000003098
 31
0.0000000000000142
  0
LINE
  5
E59F
  8
0
  6
VERDECKT
 62
     1
 10
64.9999999999996732
 20
65.600000000000307
 30
0.0000000000000142
 11
64.9999999999996732
 21
67.6000000000002927
 31
0.0000000000000142
  0
LINE
  5
E5A0
  8
0
  6
VERDECKT
 62
     1
 10
66.9999999999997016
 20
67.600000000000307
 30
0.0000000000000142
 11
66.9999999999997016
 21
65.6000000000003212
 31
0.0000000000000142
  0
LINE
  5
E5A1
  8
0
  6
VERDECKT
 62
     1
 10
64.9999999999996732
 20
21.2000000000003084
 30
0.0000000000000142
 11
64.9999999999996732
 21
23.2000000000003084
 31
0.0000000000000142
  0
LINE
  5
E5A2
  8
0
  6
VERDECKT
 62
     1
 10
66.9999999999996874
 20
23.2000000000003013
 30
0.0000000000000142
 11
66.9999999999996874
 21
21.200000000000319
 31
0.0000000000000142
  0
LINE
  5
E5A3
  8
0
  6
VERDECKT
 62
     1
 10
64.9999999999997016
 20
-23.1999999999997009
 30
0.0000000000000142
 11
64.9999999999997016
 21
-21.1999999999997009
 31
0.0000000000000142
  0
LINE
  5
E5A4
  8
0
  6
VERDECKT
 62
     1
 10
66.99999999999973
 20
-21.1999999999996902
 30
0.0000000000000142
 11
66.99999999999973
 21
-23.1999999999996902
 31
0.0000000000000142
  0
LINE
  5
E5A5
  8
0
  6
VERDECKT
 62
     1
 10
64.9999999999997158
 20
-67.5999999999996817
 30
0.0000000000000142
 11
64.9999999999997158
 21
-65.5999999999996817
 31
0.0000000000000142
  0
LINE
  5
E5A6
  8
0
  6
VERDECKT
 62
     1
 10
66.9999999999997158
 20
-65.5999999999997101
 30
0.0000000000000142
 11
66.9999999999997158
 21
-67.5999999999997101
 31
0.0000000000000142
  0
LINE
  5
E5A7
  8
0
  6
VERDECKT
 62
     1
 10
130.9999999999996874
 20
-45.399999999999693
 30
0.0000000000000284
 11
130.9999999999996874
 21
-43.399999999999693
 31
0.0000000000000284
  0
LINE
  5
E5A8
  8
0
  6
VERDECKT
 62
     1
 10
132.9999999999996874
 20
-43.399999999999693
 30
0.0000000000000284
 11
132.9999999999996874
 21
-45.399999999999693
 31
0.0000000000000284
  0
LINE
  5
E5A9
  8
0
  6
VERDECKT
 62
     1
 10
130.9999999999996874
 20
-0.9999999999997042
 30
0.0000000000000284
 11
130.9999999999996874
 21
1.0000000000002951
 31
0.0000000000000284
  0
LINE
  5
E5AA
  8
0
  6
VERDECKT
 62
     1
 10
132.9999999999996021
 20
1.000000000000288
 30
0.0000000000000284
 11
132.9999999999996021
 21
-0.9999999999997047
 31
0.0000000000000284
  0
LINE
  5
E5AB
  8
0
  6
VERDECKT
 62
     1
 10
130.9999999999996021
 20
43.400000000000297
 30
0.0000000000000284
 11
130.9999999999996021
 21
45.400000000000297
 31
0.0000000000000284
  0
LINE
  5
E5AC
  8
0
  6
VERDECKT
 62
     1
 10
132.9999999999996021
 20
45.400000000000297
 30
0.0000000000000284
 11
132.9999999999996021
 21
43.400000000000297
 31
0.0000000000000284
  0
LINE
  5
E5AD
  8
0
  6
VERDECKT
 62
     1
 10
130.9999999999996021
 20
54.5000000000003197
 30
0.0000000000000284
 11
130.9999999999996021
 21
56.5000000000003197
 31
0.0000000000000284
  0
LINE
  5
E5AE
  8
0
  6
VERDECKT
 62
     1
 10
132.9999999999996021
 20
56.5000000000003268
 30
0.0000000000000284
 11
132.9999999999996021
 21
54.5000000000003197
 31
0.0000000000000284
  0
LINE
  5
E5AF
  8
0
  6
VERDECKT
 62
     1
 10
130.9999999999996874
 20
10.1000000000002892
 30
0.0000000000000284
 11
130.9999999999996874
 21
12.1000000000002892
 31
0.0000000000000284
  0
LINE
  5
E5B0
  8
0
  6
VERDECKT
 62
     1
 10
132.9999999999996021
 20
12.1000000000002892
 30
0.0000000000000284
 11
132.9999999999996021
 21
10.1000000000002892
 31
0.0000000000000284
  0
LINE
  5
E5B1
  8
0
  6
VERDECKT
 62
     1
 10
130.9999999999996874
 20
-34.2999999999996987
 30
0.0000000000000284
 11
130.9999999999996874
 21
-32.2999999999996987
 31
0.0000000000000284
  0
LINE
  5
E5B2
  8
0
  6
VERDECKT
 62
     1
 10
132.9999999999996874
 20
-32.2999999999996916
 30
0.0000000000000284
 11
132.9999999999996874
 21
-34.2999999999996916
 31
0.0000000000000284
  0
LINE
  5
E5B3
  8
0
  6
VERDECKT
 62
     1
 10
130.9999999999996874
 20
-56.4999999999997016
 30
0.0000000000000284
 11
130.9999999999996874
 21
-54.4999999999996874
 31
0.0000000000000284
  0
LINE
  5
E5B4
  8
0
  6
VERDECKT
 62
     1
 10
132.9999999999996874
 20
-54.4999999999997016
 30
0.0000000000000284
 11
132.9999999999996874
 21
-56.4999999999997016
 31
0.0000000000000284
  0
LINE
  5
E5B5
  8
0
  6
VERDECKT
 62
     1
 10
130.9999999999996874
 20
-12.0999999999996994
 30
0.0000000000000284
 11
130.9999999999996874
 21
-10.0999999999996994
 31
0.0000000000000284
  0
LINE
  5
E5B6
  8
0
  6
VERDECKT
 62
     1
 10
132.9999999999996874
 20
-10.0999999999996994
 30
0.0000000000000284
 11
132.9999999999996874
 21
-12.0999999999996994
 31
0.0000000000000284
  0
LINE
  5
E5B7
  8
0
  6
VERDECKT
 62
     1
 10
130.9999999999996021
 20
32.3000000000002885
 30
0.0000000000000284
 11
130.9999999999996021
 21
34.3000000000002814
 31
0.0000000000000284
  0
LINE
  5
E5B8
  8
0
  6
VERDECKT
 62
     1
 10
132.9999999999996021
 20
34.3000000000002814
 30
0.0000000000000284
 11
132.9999999999996021
 21
32.3000000000003027
 31
0.0000000000000284
  0
LINE
  5
E5B9
  8
0
  6
VERDECKT
 62
     1
 10
130.9999999999996021
 20
65.600000000000307
 30
0.0000000000000284
 11
130.9999999999996021
 21
67.600000000000307
 31
0.0000000000000284
  0
LINE
  5
E5BA
  8
0
  6
VERDECKT
 62
     1
 10
132.9999999999996021
 20
67.600000000000307
 30
0.0000000000000284
 11
132.9999999999996021
 21
65.600000000000307
 31
0.0000000000000284
  0
LINE
  5
E5BB
  8
0
  6
VERDECKT
 62
     1
 10
130.9999999999996021
 20
21.2000000000003084
 30
0.0000000000000284
 11
130.9999999999996021
 21
23.2000000000003013
 31
0.0000000000000284
  0
LINE
  5
E5BC
  8
0
  6
VERDECKT
 62
     1
 10
132.9999999999996021
 20
23.2000000000003084
 30
0.0000000000000284
 11
132.9999999999996021
 21
21.2000000000003084
 31
0.0000000000000284
  0
LINE
  5
E5BD
  8
0
  6
VERDECKT
 62
     1
 10
130.9999999999996874
 20
-23.1999999999997009
 30
0.0000000000000284
 11
130.9999999999996874
 21
-21.1999999999996902
 31
0.0000000000000284
  0
LINE
  5
E5BE
  8
0
  6
VERDECKT
 62
     1
 10
132.9999999999996874
 20
-21.1999999999996902
 30
0.0000000000000284
 11
132.9999999999996874
 21
-23.1999999999996902
 31
0.0000000000000284
  0
LINE
  5
E5BF
  8
0
  6
VERDECKT
 62
     1
 10
130.9999999999996874
 20
-67.5999999999997101
 30
0.0000000000000284
 11
130.9999999999996874
 21
-65.5999999999997243
 31
0.0000000000000284
  0
LINE
  5
E5C0
  8
0
  6
VERDECKT
 62
     1
 10
132.9999999999996874
 20
-65.5999999999997101
 30
0.0000000000000284
 11
132.9999999999996874
 21
-67.5999999999996959
 31
0.0000000000000284
  0
LINE
  5
E5C1
  8
0
  6
VERDECKT
 62
     1
 10
33.9999999999995808
 20
-65.5999999999996817
 30
0.0000000000000071
 11
33.9999999999995808
 21
-67.5999999999996817
 31
0.0000000000000071
  0
LINE
  5
E5C2
  8
0
  6
VERDECKT
 62
     1
 10
31.9999999999995985
 20
65.6000000000003354
 30
0.0000000000000071
 11
31.9999999999995914
 21
67.600000000000307
 31
0.0000000000000071
  0
LINE
  5
E5C3
  8
0
  6
VERDECKT
 62
     1
 10
31.9999999999996305
 20
54.5000000000003126
 30
0.0000000000000071
 11
31.9999999999996199
 21
56.5000000000002984
 31
0.0000000000000071
  0
LINE
  5
E5C4
  8
0
  6
VERDECKT
 62
     1
 10
31.9999999999995914
 20
-67.5999999999996817
 30
0.0000000000000071
 11
31.9999999999995985
 21
-65.5999999999996959
 31
0.0000000000000071
  0
LINE
  5
E5C5
  8
0
  6
VERDECKT
 62
     1
 10
33.9999999999996234
 20
56.5000000000002984
 30
0.0000000000000071
 11
33.9999999999996305
 21
54.5000000000003126
 31
0.0000000000000071
  0
LINE
  5
E5C6
  8
0
  6
VERDECKT
 62
     1
 10
33.9999999999995879
 20
67.600000000000307
 30
0.0000000000000071
 11
33.9999999999996021
 21
65.6000000000003354
 31
0.0000000000000071
  0
ENDBLK
  5
E5C8
  8
0
  0
BLOCK
  8
0
  2
A$C71625F9A
 70
     0
 10
0.0
 20
0.0
 30
0.0
  3
A$C71625F9A
  1

  0
LINE
  5
E5CC
  8
0
  6
CONTINUOUS
 62
     3
 10
130.0000000000003979
 20
0.0
 30
0.0
 11
150.0000000000003979
 21
0.0
 31
0.0
210
0.0
220
1.0
230
-0.0000000000000002
  0
LINE
  5
E5CD
  8
0
  6
CONTINUOUS
 62
     3
 10
150.0000000000003979
 20
30.0000000000000107
 30
-0.0000000000000067
 11
150.0000000000003979
 21
0.0
 31
0.0
210
0.0
220
1.0
230
-0.0000000000000002
  0
LINE
  5
E5CE
  8
0
  6
CONTINUOUS
 62
     3
 10
130.0000000000003979
 20
30.0000000000000107
 30
-0.0000000000000067
 11
130.0000000000003979
 21
0.0
 31
0.0
210
0.0
220
1.0
230
-0.0000000000000002
  0
LINE
  5
E5CF
  8
0
  6
CONTINUOUS
 62
     3
 10
198.9999999999994884
 20
52.0000000000000924
 30
-0.0000000000000115
 11
199.9999999999996021
 21
52.0000000000000924
 31
-0.0000000000000115
210
0.0
220
1.0
230
-0.0000000000000002
  0
LINE
  5
E5D0
  8
0
  6
CONTINUOUS
 62
     3
 10
199.9999999999994884
 20
52.0000000000000924
 30
-0.0000000000000115
 11
199.9999999999994884
 21
51.0000000000000497
 31
-0.0000000000000113
210
0.0
220
1.0
230
-0.0000000000000002
  0
LINE
  5
E5D1
  8
0
  6
CONTINUOUS
 62
     3
 10
-150.0000000000003979
 20
0.0
 30
0.0
 11
-130.0000000000003979
 21
0.0
 31
0.0
210
0.0
220
1.0
230
-0.0000000000000002
  0
LINE
  5
E5D2
  8
0
  6
CONTINUOUS
 62
     3
 10
-150.0000000000003979
 20
0.0
 30
0.0
 11
-150.0000000000003979
 21
30.0000000000000107
 31
-0.0000000000000067
210
0.0
220
1.0
230
-0.0000000000000002
  0
LINE
  5
E5D3
  8
0
  6
CONTINUOUS
 62
     3
 10
-130.0000000000003979
 20
0.0
 30
0.0
 11
-130.0000000000003979
 21
30.0000000000000107
 31
-0.0000000000000067
210
0.0
220
1.0
230
-0.0000000000000002
  0
LINE
  5
E5D4
  8
0
  6
CONTINUOUS
 62
     3
 10
-199.0000000000003126
 20
52.0000000000000924
 30
-0.0000000000000115
 11
-200.0000000000003126
 21
52.0000000000000924
 31
-0.0000000000000115
210
0.0
220
1.0
230
-0.0000000000000002
  0
LINE
  5
E5D5
  8
0
  6
CONTINUOUS
 62
     3
 10
-200.0000000000003126
 20
52.0000000000000924
 30
-0.0000000000000115
 11
-200.0000000000003126
 21
51.0000000000001492
 31
-0.0000000000000113
210
0.0
220
1.0
230
-0.0000000000000002
  0
ARC
  5
E5D6
  8
0
  6
CONTINUOUS
 62
     3
 10
-198.9999999999994884
 20
51.0000000000000497
 30
0.0
 40
0.9999999999999928
210
0.0
220
-0.0000000000000002
230
-1.0
 50
90.0
 51
180.0000000000003979
  0
LINE
  5
E5D7
  8
0
  6
CONTINUOUS
 62
     3
 10
-199.0000000000003126
 20
52.0000000000001634
 30
-0.0000000000000115
 11
198.9999999999994884
 21
52.0000000000000568
 31
-0.0000000000000115
210
0.0
220
1.0
230
-0.0000000000000002
  0
ARC
  5
E5D8
  8
0
  6
CONTINUOUS
 62
     3
 10
199.0000000000003126
 20
51.0000000000001492
 30
0.0
 40
1.0
210
0.0
220
-0.0000000000000002
230
-1.0
 50
359.9999999999996021
 51
90.0
  0
LINE
  5
E5D9
  8
0
  6
CONTINUOUS
 62
     3
 10
-200.0000000000003126
 20
34.0000000000000497
 30
-0.0000000000000075
 11
-200.0000000000003126
 21
30.0000000000000284
 31
-0.0000000000000067
210
0.0
220
1.0
230
-0.0000000000000002
  0
LINE
  5
E5DA
  8
0
  6
CONTINUOUS
 62
     3
 10
199.9999999999994884
 20
30.0000000000000497
 30
-0.0000000000000067
 11
-200.0000000000003126
 21
30.0000000000000497
 31
-0.0000000000000067
210
0.0
220
1.0
230
-0.0000000000000002
  0
LINE
  5
E5DB
  8
0
  6
CONTINUOUS
 62
     3
 10
199.9999999999996021
 20
30.0000000000000604
 30
-0.0000000000000067
 11
199.9999999999996021
 21
34.0000000000000497
 31
-0.0000000000000075
210
0.0
220
1.0
230
-0.0000000000000002
  0
LINE
  5
E5DC
  8
0
  6
CONTINUOUS
 62
     3
 10
-200.0000000000003126
 20
34.0000000000000497
 30
-0.0000000000000075
 11
-200.0000000000003126
 21
51.0000000000001492
 31
-0.0000000000000113
210
0.0
220
1.0
230
-0.0000000000000002
  0
LINE
  5
E5DD
  8
0
  6
CONTINUOUS
 62
     3
 10
199.9999999999996021
 20
51.0000000000000497
 30
-0.0000000000000113
 11
199.9999999999996021
 21
34.0000000000000497
 31
-0.0000000000000075
210
0.0
220
1.0
230
-0.0000000000000002
  0
LINE
  5
E5DE
  8
0
  6
VERDECKT
 62
     1
 10
136.000000000000199
 20
19.0
 30
-0.0000000000000042
 11
144.0000000000007105
 21
19.0
 31
-0.0000000000000042
210
0.0
220
1.0
230
-0.0000000000000002
  0
LINE
  5
E5DF
  8
0
  6
VERDECKT
 62
     1
 10
135.0000000000003979
 20
20.0000000000001208
 30
-0.0000000000000044
 11
145.0000000000003979
 21
20.0000000000001208
 31
-0.0000000000000044
210
0.0
220
1.0
230
-0.0000000000000002
  0
LINE
  5
E5E0
  8
0
  6
VERDECKT
 62
     1
 10
135.0000000000003979
 20
18.0
 30
-0.000000000000004
 11
145.0000000000003979
 21
18.0
 31
-0.000000000000004
210
0.0
220
1.0
230
-0.0000000000000002
  0
LINE
  5
E5E1
  8
0
  6
VERDECKT
 62
     1
 10
136.000000000000199
 20
17.0
 30
-0.0000000000000038
 11
144.0000000000007105
 21
17.0
 31
-0.0000000000000038
210
0.0
220
1.0
230
-0.0000000000000002
  0
LINE
  5
E5E2
  8
0
  6
VERDECKT
 62
     1
 10
135.0000000000003979
 20
16.0
 30
-0.0000000000000036
 11
145.0000000000003979
 21
16.0
 31
-0.0000000000000036
210
0.0
220
1.0
230
-0.0000000000000002
  0
LINE
  5
E5E3
  8
0
  6
VERDECKT
 62
     1
 10
136.0
 20
15.0
 30
-0.0000000000000033
 11
144.0000000000009095
 21
15.0
 31
-0.0000000000000033
210
0.0
220
1.0
230
-0.0000000000000002
  0
LINE
  5
E5E4
  8
0
  6
VERDECKT
 62
     1
 10
135.000000000000199
 20
14.0
 30
-0.0000000000000031
 11
145.0000000000007105
 21
14.0
 31
-0.0000000000000031
210
0.0
220
1.0
230
-0.0000000000000002
  0
LINE
  5
E5E5
  8
0
  6
VERDECKT
 62
     1
 10
136.0
 20
13.0
 30
-0.0000000000000029
 11
144.0000000000009095
 21
13.0
 31
-0.0000000000000029
210
0.0
220
1.0
230
-0.0000000000000002
  0
LINE
  5
E5E6
  8
0
  6
VERDECKT
 62
     1
 10
135.0000000000003979
 20
12.0
 30
-0.0000000000000027
 11
145.0000000000003979
 21
12.0
 31
-0.0000000000000027
210
0.0
220
1.0
230
-0.0000000000000002
  0
LINE
  5
E5E7
  8
0
  6
VERDECKT
 62
     1
 10
136.0
 20
11.0
 30
-0.0000000000000024
 11
144.0000000000009095
 21
11.0
 31
-0.0000000000000024
210
0.0
220
1.0
230
-0.0000000000000002
  0
LINE
  5
E5E8
  8
0
  6
VERDECKT
 62
     1
 10
135.0000000000003979
 20
10.0
 30
-0.0000000000000022
 11
145.0000000000003979
 21
10.0
 31
-0.0000000000000022
210
0.0
220
1.0
230
-0.0000000000000002
  0
LINE
  5
E5E9
  8
0
  6
VERDECKT
 62
     1
 10
136.0
 20
9.0000000000000018
 30
-0.000000000000002
 11
144.0000000000009095
 21
9.0000000000000018
 31
-0.000000000000002
210
0.0
220
1.0
230
-0.0000000000000002
  0
LINE
  5
E5EA
  8
0
  6
VERDECKT
 62
     1
 10
135.0000000000003979
 20
8.0000000000000018
 30
-0.0000000000000018
 11
145.0000000000003979
 21
8.0000000000000018
 31
-0.0000000000000018
210
0.0
220
1.0
230
-0.0000000000000002
  0
LINE
  5
E5EB
  8
0
  6
VERDECKT
 62
     1
 10
136.0
 20
7.0000000000000009
 30
-0.0000000000000016
 11
144.0000000000009095
 21
7.0000000000000009
 31
-0.0000000000000016
210
0.0
220
1.0
230
-0.0000000000000002
  0
LINE
  5
E5EC
  8
0
  6
VERDECKT
 62
     1
 10
135.0000000000003979
 20
6.0000000000000009
 30
-0.0000000000000013
 11
145.0000000000003979
 21
6.0000000000000009
 31
-0.0000000000000013
210
0.0
220
1.0
230
-0.0000000000000002
  0
LINE
  5
E5ED
  8
0
  6
VERDECKT
 62
     1
 10
136.0
 20
5.0
 30
-0.0000000000000011
 11
144.0000000000009095
 21
5.0
 31
-0.0000000000000011
210
0.0
220
1.0
230
-0.0000000000000002
  0
LINE
  5
E5EE
  8
0
  6
VERDECKT
 62
     1
 10
135.000000000000199
 20
4.0
 30
-0.0000000000000009
 11
145.0000000000007105
 21
4.0
 31
-0.0000000000000009
210
0.0
220
1.0
230
-0.0000000000000002
  0
LINE
  5
E5EF
  8
0
  6
VERDECKT
 62
     1
 10
136.0
 20
3.0
 30
-0.0000000000000007
 11
144.0000000000009095
 21
3.0
 31
-0.0000000000000007
210
0.0
220
1.0
230
-0.0000000000000002
  0
LINE
  5
E5F0
  8
0
  6
VERDECKT
 62
     1
 10
135.0000000000003979
 20
2.0
 30
-0.0000000000000004
 11
145.0000000000003979
 21
2.0
 31
-0.0000000000000004
210
0.0
220
1.0
230
-0.0000000000000002
  0
LINE
  5
E5F1
  8
0
  6
VERDECKT
 62
     1
 10
136.0
 20
1.0
 30
-0.0000000000000002
 11
144.0000000000009095
 21
1.0
 31
-0.0000000000000002
210
0.0
220
1.0
230
-0.0000000000000002
  0
LINE
  5
E5F2
  8
0
  6
VERDECKT
 62
     1
 10
136.000000000000199
 20
29.0000000000000107
 30
-0.0000000000000064
 11
144.0000000000007105
 21
29.0000000000000107
 31
-0.0000000000000064
210
0.0
220
1.0
230
-0.0000000000000002
  0
LINE
  5
E5F3
  8
0
  6
VERDECKT
 62
     1
 10
135.0000000000003979
 20
28.0000000000000107
 30
-0.0000000000000062
 11
145.0000000000003979
 21
28.0000000000000107
 31
-0.0000000000000062
210
0.0
220
1.0
230
-0.0000000000000002
  0
LINE
  5
E5F4
  8
0
  6
VERDECKT
 62
     1
 10
136.000000000000199
 20
27.0000000000000107
 30
-0.000000000000006
 11
144.0000000000007105
 21
27.0000000000000107
 31
-0.000000000000006
210
0.0
220
1.0
230
-0.0000000000000002
  0
LINE
  5
E5F5
  8
0
  6
VERDECKT
 62
     1
 10
135.0000000000003979
 20
26.0000000000000107
 30
-0.0000000000000058
 11
145.0000000000003979
 21
26.0000000000000107
 31
-0.0000000000000058
210
0.0
220
1.0
230
-0.0000000000000002
  0
LINE
  5
E5F6
  8
0
  6
VERDECKT
 62
     1
 10
136.0
 20
25.0000000000000107
 30
-0.0000000000000056
 11
144.0000000000009095
 21
25.0000000000000107
 31
-0.0000000000000056
210
0.0
220
1.0
230
-0.0000000000000002
  0
LINE
  5
E5F7
  8
0
  6
VERDECKT
 62
     1
 10
135.000000000000199
 20
24.0000000000000107
 30
-0.0000000000000053
 11
145.0000000000007105
 21
24.0000000000000107
 31
-0.0000000000000053
210
0.0
220
1.0
230
-0.0000000000000002
  0
LINE
  5
E5F8
  8
0
  6
VERDECKT
 62
     1
 10
136.0
 20
23.0
 30
-0.0000000000000051
 11
144.0000000000009095
 21
23.0
 31
-0.0000000000000051
210
0.0
220
1.0
230
-0.0000000000000002
  0
LINE
  5
E5F9
  8
0
  6
VERDECKT
 62
     1
 10
135.0000000000003979
 20
22.0000000000000107
 30
-0.0000000000000049
 11
145.0000000000003979
 21
22.0000000000000107
 31
-0.0000000000000049
210
0.0
220
1.0
230
-0.0000000000000002
  0
LINE
  5
E5FA
  8
0
  6
VERDECKT
 62
     1
 10
136.0
 20
21.0
 30
-0.0000000000000047
 11
144.0000000000009095
 21
21.0
 31
-0.0000000000000047
210
0.0
220
1.0
230
-0.0000000000000002
  0
LINE
  5
E5FB
  8
0
  6
VERDECKT
 62
     1
 10
136.0000000000003126
 20
19.0000000000000888
 30
-0.0000000000000042
 11
135.0000000000005116
 21
20.000000000000199
 31
-0.0000000000000044
210
0.0
220
1.0
230
-0.0000000000000002
  0
LINE
  5
E5FC
  8
0
  6
VERDECKT
 62
     1
 10
144.0000000000005969
 20
19.0000000000000888
 30
-0.0000000000000042
 11
145.0000000000003126
 21
20.000000000000199
 31
-0.0000000000000044
210
0.0
220
1.0
230
-0.0000000000000002
  0
LINE
  5
E5FD
  8
0
  6
VERDECKT
 62
     1
 10
144.0000000000005969
 20
18.9999999999999503
 30
-0.0000000000000042
 11
145.0000000000003979
 21
17.9999999999999396
 31
-0.000000000000004
210
0.0
220
1.0
230
-0.0000000000000002
  0
LINE
  5
E5FE
  8
0
  6
VERDECKT
 62
     1
 10
136.000000000000199
 20
18.9999999999999503
 30
-0.0000000000000042
 11
135.0000000000005116
 21
17.9999999999999396
 31
-0.000000000000004
210
0.0
220
1.0
230
-0.0000000000000002
  0
LINE
  5
E5FF
  8
0
  6
VERDECKT
 62
     1
 10
136.000000000000199
 20
17.0000000000000604
 30
-0.0000000000000038
 11
135.0000000000005116
 21
18.0000000000000604
 31
-0.000000000000004
210
0.0
220
1.0
230
-0.0000000000000002
  0
LINE
  5
E600
  8
0
  6
VERDECKT
 62
     1
 10
144.0000000000005969
 20
17.0000000000000604
 30
-0.0000000000000038
 11
145.0000000000003979
 21
18.0000000000000604
 31
-0.000000000000004
210
0.0
220
1.0
230
-0.0000000000000002
  0
LINE
  5
E601
  8
0
  6
VERDECKT
 62
     1
 10
144.0000000000005969
 20
16.9999999999999503
 30
-0.0000000000000038
 11
145.0000000000003979
 21
15.9999999999999503
 31
-0.0000000000000036
210
0.0
220
1.0
230
-0.0000000000000002
  0
LINE
  5
E602
  8
0
  6
VERDECKT
 62
     1
 10
136.000000000000199
 20
16.9999999999999503
 30
-0.0000000000000038
 11
135.0000000000005116
 21
15.9999999999999503
 31
-0.0000000000000036
210
0.0
220
1.0
230
-0.0000000000000002
  0
LINE
  5
E603
  8
0
  6
VERDECKT
 62
     1
 10
136.0
 20
15.0
 30
-0.0000000000000033
 11
135.0000000000003979
 21
16.0
 31
-0.0000000000000036
210
0.0
220
1.0
230
-0.0000000000000002
  0
LINE
  5
E604
  8
0
  6
VERDECKT
 62
     1
 10
144.0000000000009095
 20
15.0
 30
-0.0000000000000033
 11
145.0000000000003979
 21
16.0
 31
-0.0000000000000036
210
0.0
220
1.0
230
-0.0000000000000002
  0
LINE
  5
E605
  8
0
  6
VERDECKT
 62
     1
 10
144.0000000000009095
 20
15.0000000000000604
 30
-0.0000000000000033
 11
145.0000000000007105
 21
14.0000000000000604
 31
-0.0000000000000031
210
0.0
220
1.0
230
-0.0000000000000002
  0
LINE
  5
E606
  8
0
  6
VERDECKT
 62
     1
 10
135.9999999999998863
 20
15.0000000000000604
 30
-0.0000000000000033
 11
135.0000000000001137
 21
14.0000000000000604
 31
-0.0000000000000031
210
0.0
220
1.0
230
-0.0000000000000002
  0
LINE
  5
E607
  8
0
  6
VERDECKT
 62
     1
 10
135.9999999999998863
 20
12.9999999999999396
 30
-0.0000000000000029
 11
135.0000000000001137
 21
13.9999999999999503
 31
-0.0000000000000031
210
0.0
220
1.0
230
-0.0000000000000002
  0
LINE
  5
E608
  8
0
  6
VERDECKT
 62
     1
 10
144.0000000000009095
 20
12.9999999999999396
 30
-0.0000000000000029
 11
145.0000000000007105
 21
13.9999999999999503
 31
-0.0000000000000031
210
0.0
220
1.0
230
-0.0000000000000002
  0
LINE
  5
E609
  8
0
  6
VERDECKT
 62
     1
 10
144.0000000000009095
 20
13.0
 30
-0.0000000000000029
 11
145.0000000000003979
 21
12.0
 31
-0.0000000000000027
210
0.0
220
1.0
230
-0.0000000000000002
  0
LINE
  5
E60A
  8
0
  6
VERDECKT
 62
     1
 10
136.0
 20
13.0
 30
-0.0000000000000029
 11
135.0000000000003979
 21
12.0
 31
-0.0000000000000027
210
0.0
220
1.0
230
-0.0000000000000002
  0
LINE
  5
E60B
  8
0
  6
VERDECKT
 62
     1
 10
136.0
 20
11.0
 30
-0.0000000000000024
 11
135.0000000000003979
 21
12.0
 31
-0.0000000000000027
210
0.0
220
1.0
230
-0.0000000000000002
  0
LINE
  5
E60C
  8
0
  6
VERDECKT
 62
     1
 10
144.0000000000009095
 20
11.0
 30
-0.0000000000000024
 11
145.0000000000003979
 21
12.0
 31
-0.0000000000000027
210
0.0
220
1.0
230
-0.0000000000000002
  0
LINE
  5
E60D
  8
0
  6
VERDECKT
 62
     1
 10
144.0000000000009095
 20
11.0
 30
-0.0000000000000024
 11
145.0000000000003979
 21
10.0
 31
-0.0000000000000022
210
0.0
220
1.0
230
-0.0000000000000002
  0
LINE
  5
E60E
  8
0
  6
VERDECKT
 62
     1
 10
136.0
 20
11.0
 30
-0.0000000000000024
 11
135.0000000000003979
 21
10.0
 31
-0.0000000000000022
210
0.0
220
1.0
230
-0.0000000000000002
  0
LINE
  5
E60F
  8
0
  6
VERDECKT
 62
     1
 10
136.0
 20
9.0000000000000018
 30
-0.000000000000002
 11
135.0000000000003979
 21
10.0
 31
-0.0000000000000022
210
0.0
220
1.0
230
-0.0000000000000002
  0
LINE
  5
E610
  8
0
  6
VERDECKT
 62
     1
 10
144.0000000000009095
 20
9.0000000000000018
 30
-0.000000000000002
 11
145.0000000000003979
 21
10.0
 31
-0.0000000000000022
210
0.0
220
1.0
230
-0.0000000000000002
  0
LINE
  5
E611
  8
0
  6
VERDECKT
 62
     1
 10
144.0000000000009095
 20
9.0000000000000018
 30
-0.000000000000002
 11
145.0000000000003979
 21
8.0000000000000018
 31
-0.0000000000000018
210
0.0
220
1.0
230
-0.0000000000000002
  0
LINE
  5
E612
  8
0
  6
VERDECKT
 62
     1
 10
136.0
 20
9.0000000000000018
 30
-0.000000000000002
 11
135.0000000000003979
 21
8.0000000000000018
 31
-0.0000000000000018
210
0.0
220
1.0
230
-0.0000000000000002
  0
LINE
  5
E613
  8
0
  6
VERDECKT
 62
     1
 10
136.0
 20
7.0000000000000009
 30
-0.0000000000000016
 11
135.0000000000003979
 21
8.0000000000000018
 31
-0.0000000000000018
210
0.0
220
1.0
230
-0.0000000000000002
  0
LINE
  5
E614
  8
0
  6
VERDECKT
 62
     1
 10
144.0000000000009095
 20
7.0000000000000009
 30
-0.0000000000000016
 11
145.0000000000003979
 21
8.0000000000000018
 31
-0.0000000000000018
210
0.0
220
1.0
230
-0.0000000000000002
  0
LINE
  5
E615
  8
0
  6
VERDECKT
 62
     1
 10
144.0000000000009095
 20
7.0000000000000009
 30
-0.0000000000000016
 11
145.0000000000003979
 21
6.0000000000000009
 31
-0.0000000000000013
210
0.0
220
1.0
230
-0.0000000000000002
  0
LINE
  5
E616
  8
0
  6
VERDECKT
 62
     1
 10
136.0
 20
7.0000000000000009
 30
-0.0000000000000016
 11
135.0000000000003979
 21
6.0000000000000009
 31
-0.0000000000000013
210
0.0
220
1.0
230
-0.0000000000000002
  0
LINE
  5
E617
  8
0
  6
VERDECKT
 62
     1
 10
136.0
 20
5.0
 30
-0.0000000000000011
 11
135.0000000000003979
 21
6.0000000000000009
 31
-0.0000000000000013
210
0.0
220
1.0
230
-0.0000000000000002
  0
LINE
  5
E618
  8
0
  6
VERDECKT
 62
     1
 10
144.0000000000009095
 20
5.0
 30
-0.0000000000000011
 11
145.0000000000003979
 21
6.0000000000000009
 31
-0.0000000000000013
210
0.0
220
1.0
230
-0.0000000000000002
  0
LINE
  5
E619
  8
0
  6
VERDECKT
 62
     1
 10
144.0000000000009095
 20
5.0000000000000568
 30
-0.0000000000000011
 11
145.0000000000007105
 21
4.0000000000000568
 31
-0.0000000000000009
210
0.0
220
1.0
230
-0.0000000000000002
  0
LINE
  5
E61A
  8
0
  6
VERDECKT
 62
     1
 10
135.9999999999998863
 20
5.0000000000000568
 30
-0.0000000000000011
 11
135.0000000000001137
 21
4.0000000000000568
 31
-0.0000000000000009
210
0.0
220
1.0
230
-0.0000000000000002
  0
LINE
  5
E61B
  8
0
  6
VERDECKT
 62
     1
 10
135.9999999999998863
 20
2.9999999999999432
 30
-0.0000000000000007
 11
135.0000000000001137
 21
3.999999999999944
 31
-0.0000000000000009
210
0.0
220
1.0
230
-0.0000000000000002
  0
LINE
  5
E61C
  8
0
  6
VERDECKT
 62
     1
 10
144.0000000000009095
 20
2.9999999999999432
 30
-0.0000000000000007
 11
145.0000000000007105
 21
3.999999999999944
 31
-0.0000000000000009
210
0.0
220
1.0
230
-0.0000000000000002
  0
LINE
  5
E61D
  8
0
  6
VERDECKT
 62
     1
 10
144.0000000000009095
 20
3.0
 30
-0.0000000000000007
 11
145.0000000000003979
 21
2.0
 31
-0.0000000000000004
210
0.0
220
1.0
230
-0.0000000000000002
  0
LINE
  5
E61E
  8
0
  6
VERDECKT
 62
     1
 10
136.0
 20
3.0
 30
-0.0000000000000007
 11
135.0000000000003979
 21
2.0
 31
-0.0000000000000004
210
0.0
220
1.0
230
-0.0000000000000002
  0
LINE
  5
E61F
  8
0
  6
VERDECKT
 62
     1
 10
136.0
 20
1.0
 30
-0.0000000000000002
 11
135.0000000000003979
 21
2.0
 31
-0.0000000000000004
210
0.0
220
1.0
230
-0.0000000000000002
  0
LINE
  5
E620
  8
0
  6
VERDECKT
 62
     1
 10
144.0000000000009095
 20
1.0
 30
-0.0000000000000002
 11
145.0000000000003979
 21
2.0
 31
-0.0000000000000004
210
0.0
220
1.0
230
-0.0000000000000002
  0
LINE
  5
E621
  8
0
  6
VERDECKT
 62
     1
 10
144.0000000000009095
 20
1.0000000000000571
 30
-0.0000000000000002
 11
145.0000000000007105
 21
0.0000000000000568
 31
0.0
210
0.0
220
1.0
230
-0.0000000000000002
  0
LINE
  5
E622
  8
0
  6
VERDECKT
 62
     1
 10
135.9999999999998863
 20
1.0000000000000571
 30
-0.0000000000000002
 11
135.0000000000001137
 21
0.0000000000000568
 31
0.0
210
0.0
220
1.0
230
-0.0000000000000002
  0
LINE
  5
E623
  8
0
  6
VERDECKT
 62
     1
 10
136.0000000000003126
 20
29.0000000000000888
 30
-0.0000000000000064
 11
135.0000000000005116
 21
30.0000000000002096
 31
-0.0000000000000067
210
0.0
220
1.0
230
-0.0000000000000002
  0
LINE
  5
E624
  8
0
  6
VERDECKT
 62
     1
 10
144.0000000000005969
 20
29.0000000000000888
 30
-0.0000000000000064
 11
145.0000000000003126
 21
30.0000000000002096
 31
-0.0000000000000067
210
0.0
220
1.0
230
-0.0000000000000002
  0
LINE
  5
E625
  8
0
  6
VERDECKT
 62
     1
 10
144.0000000000005969
 20
28.9999999999999503
 30
-0.0000000000000064
 11
145.0000000000003979
 21
27.9999999999999503
 31
-0.0000000000000062
210
0.0
220
1.0
230
-0.0000000000000002
  0
LINE
  5
E626
  8
0
  6
VERDECKT
 62
     1
 10
136.000000000000199
 20
28.9999999999999503
 30
-0.0000000000000064
 11
135.0000000000005116
 21
27.9999999999999503
 31
-0.0000000000000062
210
0.0
220
1.0
230
-0.0000000000000002
  0
LINE
  5
E627
  8
0
  6
VERDECKT
 62
     1
 10
136.000000000000199
 20
27.0000000000000604
 30
-0.000000000000006
 11
135.0000000000005116
 21
28.0000000000000604
 31
-0.0000000000000062
210
0.0
220
1.0
230
-0.0000000000000002
  0
LINE
  5
E628
  8
0
  6
VERDECKT
 62
     1
 10
144.0000000000005969
 20
27.0000000000000604
 30
-0.000000000000006
 11
145.0000000000003979
 21
28.0000000000000604
 31
-0.0000000000000062
210
0.0
220
1.0
230
-0.0000000000000002
  0
LINE
  5
E629
  8
0
  6
VERDECKT
 62
     1
 10
144.0000000000005969
 20
26.9999999999999503
 30
-0.000000000000006
 11
145.0000000000003979
 21
25.9999999999999503
 31
-0.0000000000000058
210
0.0
220
1.0
230
-0.0000000000000002
  0
LINE
  5
E62A
  8
0
  6
VERDECKT
 62
     1
 10
136.000000000000199
 20
26.9999999999999503
 30
-0.000000000000006
 11
135.0000000000005116
 21
25.9999999999999503
 31
-0.0000000000000058
210
0.0
220
1.0
230
-0.0000000000000002
  0
LINE
  5
E62B
  8
0
  6
VERDECKT
 62
     1
 10
136.0
 20
25.0000000000000107
 30
-0.0000000000000056
 11
135.0000000000003979
 21
26.0000000000000107
 31
-0.0000000000000058
210
0.0
220
1.0
230
-0.0000000000000002
  0
LINE
  5
E62C
  8
0
  6
VERDECKT
 62
     1
 10
144.0000000000009095
 20
25.0000000000000107
 30
-0.0000000000000056
 11
145.0000000000003979
 21
26.0000000000000107
 31
-0.0000000000000058
210
0.0
220
1.0
230
-0.0000000000000002
  0
LINE
  5
E62D
  8
0
  6
VERDECKT
 62
     1
 10
144.0000000000009095
 20
25.0000000000000711
 30
-0.0000000000000056
 11
145.0000000000007105
 21
24.0000000000000711
 31
-0.0000000000000053
210
0.0
220
1.0
230
-0.0000000000000002
  0
LINE
  5
E62E
  8
0
  6
VERDECKT
 62
     1
 10
135.9999999999998863
 20
25.0000000000000711
 30
-0.0000000000000056
 11
135.0000000000001137
 21
24.0000000000000711
 31
-0.0000000000000053
210
0.0
220
1.0
230
-0.0000000000000002
  0
LINE
  5
E62F
  8
0
  6
VERDECKT
 62
     1
 10
135.9999999999998863
 20
22.9999999999999503
 30
-0.0000000000000051
 11
135.0000000000001137
 21
23.9999999999999503
 31
-0.0000000000000053
210
0.0
220
1.0
230
-0.0000000000000002
  0
LINE
  5
E630
  8
0
  6
VERDECKT
 62
     1
 10
144.0000000000009095
 20
22.9999999999999503
 30
-0.0000000000000051
 11
145.0000000000007105
 21
23.9999999999999503
 31
-0.0000000000000053
210
0.0
220
1.0
230
-0.0000000000000002
  0
LINE
  5
E631
  8
0
  6
VERDECKT
 62
     1
 10
144.0000000000009095
 20
23.0
 30
-0.0000000000000051
 11
145.0000000000003979
 21
22.0000000000000107
 31
-0.0000000000000049
210
0.0
220
1.0
230
-0.0000000000000002
  0
LINE
  5
E632
  8
0
  6
VERDECKT
 62
     1
 10
136.0
 20
23.0
 30
-0.0000000000000051
 11
135.0000000000003979
 21
22.0000000000000107
 31
-0.0000000000000049
210
0.0
220
1.0
230
-0.0000000000000002
  0
LINE
  5
E633
  8
0
  6
VERDECKT
 62
     1
 10
136.0
 20
21.0
 30
-0.0000000000000047
 11
135.0000000000003979
 21
22.0000000000000107
 31
-0.0000000000000049
210
0.0
220
1.0
230
-0.0000000000000002
  0
LINE
  5
E634
  8
0
  6
VERDECKT
 62
     1
 10
144.0000000000009095
 20
21.0
 30
-0.0000000000000047
 11
145.0000000000003979
 21
22.0000000000000107
 31
-0.0000000000000049
210
0.0
220
1.0
230
-0.0000000000000002
  0
LINE
  5
E635
  8
0
  6
VERDECKT
 62
     1
 10
144.0000000000009095
 20
21.0
 30
-0.0000000000000047
 11
145.0000000000003979
 21
20.0000000000000604
 31
-0.0000000000000044
210
0.0
220
1.0
230
-0.0000000000000002
  0
LINE
  5
E636
  8
0
  6
VERDECKT
 62
     1
 10
136.0
 20
21.0
 30
-0.0000000000000047
 11
135.0000000000005116
 21
20.0000000000000604
 31
-0.0000000000000044
210
0.0
220
1.0
230
-0.0000000000000002
  0
LINE
  5
E637
  8
0
  6
VERDECKT
 62
     1
 10
3.500000000000079
 20
52.0000000000000924
 30
-0.0000000000000115
 11
3.5000000000000782
 21
32.0000000000000924
 31
-0.0000000000000071
210
0.0
220
1.0
230
-0.0000000000000002
  0
LINE
  5
E638
  8
0
  6
VERDECKT
 62
     1
 10
199.9999999999996021
 20
32.0000000000000782
 30
-0.0000000000000071
 11
3.5000000000000848
 21
32.0000000000000924
 31
-0.0000000000000071
210
0.0
220
1.0
230
-0.0000000000000002
  0
LINE
  5
E639
  8
0
  6
VERDECKT
 62
     1
 10
50.697534456815589
 20
52.0000000000000924
 30
-0.0000000000000115
 11
50.697534456815589
 21
42.0000000000000924
 31
-0.0000000000000093
210
0.0
220
1.0
230
-0.0000000000000002
  0
LINE
  5
E63A
  8
0
  6
VERDECKT
 62
     1
 10
62.8012738724303574
 20
52.0000000000000924
 30
-0.0000000000000115
 11
62.8012738724303574
 21
42.0000000000000924
 31
-0.0000000000000093
210
0.0
220
1.0
230
-0.0000000000000002
  0
LINE
  5
E63B
  8
0
  6
VERDECKT
 62
     1
 10
39.0978260265197122
 20
52.0000000000000924
 30
-0.0000000000000115
 11
39.0978260265197122
 21
42.0000000000000924
 31
-0.0000000000000093
210
0.0
220
1.0
230
-0.0000000000000002
  0
LINE
  5
E63C
  8
0
  6
VERDECKT
 62
     1
 10
17.5712833908055117
 20
52.0000000000000924
 30
-0.0000000000000115
 11
17.5712833908055117
 21
42.0000000000000924
 31
-0.0000000000000093
210
0.0
220
1.0
230
-0.0000000000000002
  0
LINE
  5
E63D
  8
0
  6
VERDECKT
 62
     1
 10
20.4166598639444992
 20
42.0000000000000924
 30
-0.0000000000000093
 11
17.5712833908055117
 21
42.0000000000000924
 31
-0.0000000000000093
210
0.0
220
1.0
230
-0.0000000000000002
  0
LINE
  5
E63E
  8
0
  6
VERDECKT
 62
     1
 10
60.9080454455731513
 20
52.0000000000000924
 30
-0.0000000000000115
 11
60.9080454455731513
 21
42.0000000000000924
 31
-0.0000000000000093
210
0.0
220
1.0
230
-0.0000000000000002
  0
LINE
  5
E63F
  8
0
  6
VERDECKT
 62
     1
 10
57.2477947173513684
 20
52.0000000000000924
 30
-0.0000000000000115
 11
57.2477947173513684
 21
42.0000000000000924
 31
-0.0000000000000093
210
0.0
220
1.0
230
-0.0000000000000002
  0
LINE
  5
E640
  8
0
  6
VERDECKT
 62
     1
 10
40.2088298760359635
 20
52.0000000000000924
 30
-0.0000000000000115
 11
40.2088298760359635
 21
42.0000000000000924
 31
-0.0000000000000093
210
0.0
220
1.0
230
-0.0000000000000002
  0
LINE
  5
E641
  8
0
  6
VERDECKT
 62
     1
 10
62.8664457401562089
 20
52.0000000000000924
 30
-0.0000000000000115
 11
62.8664457401562089
 21
42.0000000000000924
 31
-0.0000000000000093
210
0.0
220
1.0
230
-0.0000000000000002
  0
LINE
  5
E642
  8
0
  6
VERDECKT
 62
     1
 10
50.02109554977784
 20
52.0000000000000924
 30
-0.0000000000000115
 11
50.02109554977784
 21
42.0000000000000924
 31
-0.0000000000000093
210
0.0
220
1.0
230
-0.0000000000000002
  0
LINE
  5
E643
  8
0
  6
VERDECKT
 62
     1
 10
17.5712833908055295
 20
42.0000000000000924
 30
-0.0000000000000093
 11
3.5000000000000782
 21
42.0000000000000924
 31
-0.0000000000000093
210
0.0
220
1.0
230
-0.0000000000000002
  0
LINE
  5
E644
  8
0
  6
VERDECKT
 62
     1
 10
56.8256984118981734
 20
52.0000000000000924
 30
-0.0000000000000115
 11
56.8256984118981734
 21
42.0000000000000924
 31
-0.0000000000000093
210
0.0
220
1.0
230
-0.0000000000000002
  0
LINE
  5
E645
  8
0
  6
VERDECKT
 62
     1
 10
61.1388583472083198
 20
52.0000000000000924
 30
-0.0000000000000115
 11
61.1388583472083198
 21
42.0000000000000924
 31
-0.0000000000000093
210
0.0
220
1.0
230
-0.0000000000000002
  0
LINE
  5
E646
  8
0
  6
VERDECKT
 62
     1
 10
20.4166598639444814
 20
52.0000000000000924
 30
-0.0000000000000115
 11
20.4166598639444814
 21
42.0000000000000924
 31
-0.0000000000000093
210
0.0
220
1.0
230
-0.0000000000000002
  0
LINE
  5
E647
  8
0
  6
VERDECKT
 62
     1
 10
197.9999999999996021
 20
42.0000000000000782
 30
-0.0000000000000093
 11
20.4166598639444885
 21
42.0000000000000924
 31
-0.0000000000000093
210
0.0
220
1.0
230
-0.0000000000000002
  0
LINE
  5
E648
  8
0
  6
VERDECKT
 62
     1
 10
-100.0000000000004974
 20
42.0000000000000924
 30
-0.0000000000000093
 11
-98.0000000000004974
 21
42.0000000000000924
 31
-0.0000000000000093
210
0.0
220
1.0
230
-0.0000000000000002
  0
LINE
  5
E649
  8
0
  6
VERDECKT
 62
     1
 10
-98.0000000000004974
 20
32.0000000000000924
 30
-0.0000000000000071
 11
-98.0000000000004974
 21
52.0000000000000924
 31
-0.0000000000000115
210
0.0
220
1.0
230
-0.0000000000000002
  0
LINE
  5
E64A
  8
0
  6
VERDECKT
 62
     1
 10
-100.0000000000004974
 20
32.0000000000000924
 30
-0.0000000000000071
 11
-100.0000000000004974
 21
52.0000000000000924
 31
-0.0000000000000115
210
0.0
220
1.0
230
-0.0000000000000002
  0
LINE
  5
E64B
  8
0
  6
VERDECKT
 62
     1
 10
-166.0000000000005116
 20
32.0000000000000924
 30
-0.0000000000000071
 11
-166.0000000000005116
 21
52.0000000000000924
 31
-0.0000000000000115
210
0.0
220
1.0
230
-0.0000000000000002
  0
LINE
  5
E64C
  8
0
  6
VERDECKT
 62
     1
 10
-164.0000000000005116
 20
32.0000000000000924
 30
-0.0000000000000071
 11
-164.0000000000005116
 21
52.0000000000000924
 31
-0.0000000000000115
210
0.0
220
1.0
230
-0.0000000000000002
  0
LINE
  5
E64D
  8
0
  6
VERDECKT
 62
     1
 10
-166.0000000000005116
 20
42.0000000000000782
 30
-0.0000000000000093
 11
-164.0000000000005116
 21
42.0000000000000782
 31
-0.0000000000000093
210
0.0
220
1.0
230
-0.0000000000000002
  0
LINE
  5
E64E
  8
0
  6
VERDECKT
 62
     1
 10
-67.0000000000004832
 20
42.0000000000000924
 30
-0.0000000000000093
 11
-65.0000000000004832
 21
42.0000000000000924
 31
-0.0000000000000093
210
0.0
220
1.0
230
-0.0000000000000002
  0
LINE
  5
E64F
  8
0
  6
VERDECKT
 62
     1
 10
-65.0000000000004832
 20
32.0000000000000924
 30
-0.0000000000000071
 11
-65.0000000000004832
 21
52.0000000000000924
 31
-0.0000000000000115
210
0.0
220
1.0
230
-0.0000000000000002
  0
LINE
  5
E650
  8
0
  6
VERDECKT
 62
     1
 10
-67.0000000000004832
 20
32.0000000000000924
 30
-0.0000000000000071
 11
-67.0000000000004832
 21
52.0000000000000924
 31
-0.0000000000000115
210
0.0
220
1.0
230
-0.0000000000000002
  0
LINE
  5
E651
  8
0
  6
VERDECKT
 62
     1
 10
-198.0000000000003126
 20
32.0000000000000782
 30
-0.0000000000000071
 11
-198.0000000000003126
 21
52.0000000000000924
 31
-0.0000000000000115
210
0.0
220
1.0
230
-0.0000000000000002
  0
LINE
  5
E652
  8
0
  6
VERDECKT
 62
     1
 10
-133.0000000000005116
 20
42.0000000000000924
 30
-0.0000000000000093
 11
-131.0000000000005116
 21
42.0000000000000924
 31
-0.0000000000000093
210
0.0
220
1.0
230
-0.0000000000000002
  0
LINE
  5
E653
  8
0
  6
VERDECKT
 62
     1
 10
-131.0000000000005116
 20
32.0000000000000924
 30
-0.0000000000000071
 11
-131.0000000000005116
 21
52.0000000000000924
 31
-0.0000000000000115
210
0.0
220
1.0
230
-0.0000000000000002
  0
LINE
  5
E654
  8
0
  6
VERDECKT
 62
     1
 10
-133.0000000000005116
 20
32.0000000000000924
 30
-0.0000000000000071
 11
-133.0000000000005116
 21
52.0000000000000924
 31
-0.0000000000000115
210
0.0
220
1.0
230
-0.0000000000000002
  0
LINE
  5
E655
  8
0
  6
VERDECKT
 62
     1
 10
-0.5000000000008469
 20
32.0000000000000924
 30
-0.0000000000000071
 11
-3.500000000000874
 21
32.0000000000000924
 31
-0.0000000000000071
210
0.0
220
1.0
230
-0.0000000000000002
  0
LINE
  5
E656
  8
0
  6
VERDECKT
 62
     1
 10
-0.5000000000008469
 20
32.0000000000000924
 30
-0.0000000000000071
 11
-0.5000000000008482
 21
52.0000000000000924
 31
-0.0000000000000115
210
0.0
220
1.0
230
-0.0000000000000002
  0
LINE
  5
E657
  8
0
  6
VERDECKT
 62
     1
 10
-3.500000000000874
 20
32.0000000000000924
 30
-0.0000000000000071
 11
-3.5000000000008762
 21
52.0000000000000924
 31
-0.0000000000000115
210
0.0
220
1.0
230
-0.0000000000000002
  0
LINE
  5
E658
  8
0
  6
VERDECKT
 62
     1
 10
-32.0000000000003411
 20
32.0000000000000924
 30
-0.0000000000000071
 11
-32.0000000000003411
 21
52.0000000000000924
 31
-0.0000000000000115
210
0.0
220
1.0
230
-0.0000000000000002
  0
LINE
  5
E659
  8
0
  6
VERDECKT
 62
     1
 10
-34.0000000000003411
 20
32.0000000000000924
 30
-0.0000000000000071
 11
-34.0000000000003411
 21
52.0000000000000924
 31
-0.0000000000000115
210
0.0
220
1.0
230
-0.0000000000000002
  0
LINE
  5
E65A
  8
0
  6
VERDECKT
 62
     1
 10
-34.0000000000003624
 20
42.0000000000000924
 30
-0.0000000000000093
 11
-32.0000000000003695
 21
42.0000000000000924
 31
-0.0000000000000093
210
0.0
220
1.0
230
-0.0000000000000002
  0
LINE
  5
E65B
  8
0
  6
VERDECKT
 62
     1
 10
-60.0000000000008527
 20
52.0000000000000924
 30
-0.0000000000000115
 11
-60.0000000000008527
 21
32.0000000000000924
 31
-0.0000000000000071
210
0.0
220
1.0
230
-0.0000000000000002
  0
LINE
  5
E65C
  8
0
  6
VERDECKT
 62
     1
 10
-63.0000000000008384
 20
52.0000000000000924
 30
-0.0000000000000115
 11
-63.0000000000008384
 21
32.0000000000000924
 31
-0.0000000000000071
210
0.0
220
1.0
230
-0.0000000000000002
  0
LINE
  5
E65D
  8
0
  6
VERDECKT
 62
     1
 10
-136.000000000000199
 20
19.0
 30
-0.0000000000000042
 11
-144.0000000000007105
 21
19.0
 31
-0.0000000000000042
210
0.0
220
1.0
230
-0.0000000000000002
  0
LINE
  5
E65E
  8
0
  6
VERDECKT
 62
     1
 10
-135.0000000000003979
 20
20.0000000000001208
 30
-0.0000000000000044
 11
-145.0000000000003979
 21
20.0000000000001208
 31
-0.0000000000000044
210
0.0
220
1.0
230
-0.0000000000000002
  0
LINE
  5
E65F
  8
0
  6
VERDECKT
 62
     1
 10
-135.0000000000003979
 20
18.0
 30
-0.000000000000004
 11
-145.0000000000003979
 21
18.0
 31
-0.000000000000004
210
0.0
220
1.0
230
-0.0000000000000002
  0
LINE
  5
E660
  8
0
  6
VERDECKT
 62
     1
 10
-136.000000000000199
 20
17.0
 30
-0.0000000000000038
 11
-144.0000000000007105
 21
17.0
 31
-0.0000000000000038
210
0.0
220
1.0
230
-0.0000000000000002
  0
LINE
  5
E661
  8
0
  6
VERDECKT
 62
     1
 10
-135.0000000000003979
 20
16.0
 30
-0.0000000000000036
 11
-145.0000000000003979
 21
16.0
 31
-0.0000000000000036
210
0.0
220
1.0
230
-0.0000000000000002
  0
LINE
  5
E662
  8
0
  6
VERDECKT
 62
     1
 10
-136.0
 20
15.0
 30
-0.0000000000000033
 11
-144.0000000000009095
 21
15.0
 31
-0.0000000000000033
210
0.0
220
1.0
230
-0.0000000000000002
  0
LINE
  5
E663
  8
0
  6
VERDECKT
 62
     1
 10
-135.000000000000199
 20
14.0
 30
-0.0000000000000031
 11
-145.0000000000007105
 21
14.0
 31
-0.0000000000000031
210
0.0
220
1.0
230
-0.0000000000000002
  0
LINE
  5
E664
  8
0
  6
VERDECKT
 62
     1
 10
-136.0
 20
13.0
 30
-0.0000000000000029
 11
-144.0000000000009095
 21
13.0
 31
-0.0000000000000029
210
0.0
220
1.0
230
-0.0000000000000002
  0
LINE
  5
E665
  8
0
  6
VERDECKT
 62
     1
 10
-135.0000000000003979
 20
12.0
 30
-0.0000000000000027
 11
-145.0000000000003979
 21
12.0
 31
-0.0000000000000027
210
0.0
220
1.0
230
-0.0000000000000002
  0
LINE
  5
E666
  8
0
  6
VERDECKT
 62
     1
 10
-136.0
 20
11.0
 30
-0.0000000000000024
 11
-144.0000000000009095
 21
11.0
 31
-0.0000000000000024
210
0.0
220
1.0
230
-0.0000000000000002
  0
LINE
  5
E667
  8
0
  6
VERDECKT
 62
     1
 10
-135.0000000000003979
 20
10.0
 30
-0.0000000000000022
 11
-145.0000000000003979
 21
10.0
 31
-0.0000000000000022
210
0.0
220
1.0
230
-0.0000000000000002
  0
LINE
  5
E668
  8
0
  6
VERDECKT
 62
     1
 10
-136.0
 20
9.0000000000000018
 30
-0.000000000000002
 11
-144.0000000000009095
 21
9.0000000000000018
 31
-0.000000000000002
210
0.0
220
1.0
230
-0.0000000000000002
  0
LINE
  5
E669
  8
0
  6
VERDECKT
 62
     1
 10
-135.0000000000003979
 20
8.0000000000000018
 30
-0.0000000000000018
 11
-145.0000000000003979
 21
8.0000000000000018
 31
-0.0000000000000018
210
0.0
220
1.0
230
-0.0000000000000002
  0
LINE
  5
E66A
  8
0
  6
VERDECKT
 62
     1
 10
-136.0
 20
7.0000000000000009
 30
-0.0000000000000016
 11
-144.0000000000009095
 21
7.0000000000000009
 31
-0.0000000000000016
210
0.0
220
1.0
230
-0.0000000000000002
  0
LINE
  5
E66B
  8
0
  6
VERDECKT
 62
     1
 10
-135.0000000000003979
 20
6.0000000000000009
 30
-0.0000000000000013
 11
-145.0000000000003979
 21
6.0000000000000009
 31
-0.0000000000000013
210
0.0
220
1.0
230
-0.0000000000000002
  0
LINE
  5
E66C
  8
0
  6
VERDECKT
 62
     1
 10
-136.0
 20
5.0
 30
-0.0000000000000011
 11
-144.0000000000009095
 21
5.0
 31
-0.0000000000000011
210
0.0
220
1.0
230
-0.0000000000000002
  0
LINE
  5
E66D
  8
0
  6
VERDECKT
 62
     1
 10
-135.000000000000199
 20
4.0
 30
-0.0000000000000009
 11
-145.0000000000007105
 21
4.0
 31
-0.0000000000000009
210
0.0
220
1.0
230
-0.0000000000000002
  0
LINE
  5
E66E
  8
0
  6
VERDECKT
 62
     1
 10
-136.0
 20
3.0
 30
-0.0000000000000007
 11
-144.0000000000009095
 21
3.0
 31
-0.0000000000000007
210
0.0
220
1.0
230
-0.0000000000000002
  0
LINE
  5
E66F
  8
0
  6
VERDECKT
 62
     1
 10
-135.0000000000003979
 20
2.0
 30
-0.0000000000000004
 11
-145.0000000000003979
 21
2.0
 31
-0.0000000000000004
210
0.0
220
1.0
230
-0.0000000000000002
  0
LINE
  5
E670
  8
0
  6
VERDECKT
 62
     1
 10
-136.0
 20
1.0
 30
-0.0000000000000002
 11
-144.0000000000009095
 21
1.0
 31
-0.0000000000000002
210
0.0
220
1.0
230
-0.0000000000000002
  0
LINE
  5
E671
  8
0
  6
VERDECKT
 62
     1
 10
-136.000000000000199
 20
29.0000000000000107
 30
-0.0000000000000064
 11
-144.0000000000007105
 21
29.0000000000000107
 31
-0.0000000000000064
210
0.0
220
1.0
230
-0.0000000000000002
  0
LINE
  5
E672
  8
0
  6
VERDECKT
 62
     1
 10
-135.0000000000003979
 20
28.0000000000000107
 30
-0.0000000000000062
 11
-145.0000000000003979
 21
28.0000000000000107
 31
-0.0000000000000062
210
0.0
220
1.0
230
-0.0000000000000002
  0
LINE
  5
E673
  8
0
  6
VERDECKT
 62
     1
 10
-136.000000000000199
 20
27.0000000000000107
 30
-0.000000000000006
 11
-144.0000000000007105
 21
27.0000000000000107
 31
-0.000000000000006
210
0.0
220
1.0
230
-0.0000000000000002
  0
LINE
  5
E674
  8
0
  6
VERDECKT
 62
     1
 10
-135.0000000000003979
 20
26.0000000000000107
 30
-0.0000000000000058
 11
-145.0000000000003979
 21
26.0000000000000107
 31
-0.0000000000000058
210
0.0
220
1.0
230
-0.0000000000000002
  0
LINE
  5
E675
  8
0
  6
VERDECKT
 62
     1
 10
-136.0
 20
25.0000000000000107
 30
-0.0000000000000056
 11
-144.0000000000009095
 21
25.0000000000000107
 31
-0.0000000000000056
210
0.0
220
1.0
230
-0.0000000000000002
  0
LINE
  5
E676
  8
0
  6
VERDECKT
 62
     1
 10
-135.000000000000199
 20
24.0000000000000107
 30
-0.0000000000000053
 11
-145.0000000000007105
 21
24.0000000000000107
 31
-0.0000000000000053
210
0.0
220
1.0
230
-0.0000000000000002
  0
LINE
  5
E677
  8
0
  6
VERDECKT
 62
     1
 10
-136.0
 20
23.0
 30
-0.0000000000000051
 11
-144.0000000000009095
 21
23.0
 31
-0.0000000000000051
210
0.0
220
1.0
230
-0.0000000000000002
  0
LINE
  5
E678
  8
0
  6
VERDECKT
 62
     1
 10
-135.0000000000003979
 20
22.0000000000000107
 30
-0.0000000000000049
 11
-145.0000000000003979
 21
22.0000000000000107
 31
-0.0000000000000049
210
0.0
220
1.0
230
-0.0000000000000002
  0
LINE
  5
E679
  8
0
  6
VERDECKT
 62
     1
 10
-136.0
 20
21.0
 30
-0.0000000000000047
 11
-144.0000000000009095
 21
21.0
 31
-0.0000000000000047
210
0.0
220
1.0
230
-0.0000000000000002
  0
LINE
  5
E67A
  8
0
  6
VERDECKT
 62
     1
 10
-144.0000000000005969
 20
19.0000000000000888
 30
-0.0000000000000042
 11
-145.0000000000003126
 21
20.000000000000199
 31
-0.0000000000000044
210
0.0
220
1.0
230
-0.0000000000000002
  0
LINE
  5
E67B
  8
0
  6
VERDECKT
 62
     1
 10
-136.0000000000003126
 20
19.0000000000000888
 30
-0.0000000000000042
 11
-135.0000000000005116
 21
20.000000000000199
 31
-0.0000000000000044
210
0.0
220
1.0
230
-0.0000000000000002
  0
LINE
  5
E67C
  8
0
  6
VERDECKT
 62
     1
 10
-136.000000000000199
 20
18.9999999999999503
 30
-0.0000000000000042
 11
-135.0000000000005116
 21
17.9999999999999396
 31
-0.000000000000004
210
0.0
220
1.0
230
-0.0000000000000002
  0
LINE
  5
E67D
  8
0
  6
VERDECKT
 62
     1
 10
-144.0000000000005969
 20
18.9999999999999503
 30
-0.0000000000000042
 11
-145.0000000000003979
 21
17.9999999999999396
 31
-0.000000000000004
210
0.0
220
1.0
230
-0.0000000000000002
  0
LINE
  5
E67E
  8
0
  6
VERDECKT
 62
     1
 10
-144.0000000000005969
 20
17.0000000000000604
 30
-0.0000000000000038
 11
-145.0000000000003979
 21
18.0000000000000604
 31
-0.000000000000004
210
0.0
220
1.0
230
-0.0000000000000002
  0
LINE
  5
E67F
  8
0
  6
VERDECKT
 62
     1
 10
-136.000000000000199
 20
17.0000000000000604
 30
-0.0000000000000038
 11
-135.0000000000005116
 21
18.0000000000000604
 31
-0.000000000000004
210
0.0
220
1.0
230
-0.0000000000000002
  0
LINE
  5
E680
  8
0
  6
VERDECKT
 62
     1
 10
-136.000000000000199
 20
16.9999999999999503
 30
-0.0000000000000038
 11
-135.0000000000005116
 21
15.9999999999999503
 31
-0.0000000000000036
210
0.0
220
1.0
230
-0.0000000000000002
  0
LINE
  5
E681
  8
0
  6
VERDECKT
 62
     1
 10
-144.0000000000005969
 20
16.9999999999999503
 30
-0.0000000000000038
 11
-145.0000000000003979
 21
15.9999999999999503
 31
-0.0000000000000036
210
0.0
220
1.0
230
-0.0000000000000002
  0
LINE
  5
E682
  8
0
  6
VERDECKT
 62
     1
 10
-144.0000000000009095
 20
15.0
 30
-0.0000000000000033
 11
-145.0000000000003979
 21
16.0
 31
-0.0000000000000036
210
0.0
220
1.0
230
-0.0000000000000002
  0
LINE
  5
E683
  8
0
  6
VERDECKT
 62
     1
 10
-136.0
 20
15.0
 30
-0.0000000000000033
 11
-135.0000000000003979
 21
16.0
 31
-0.0000000000000036
210
0.0
220
1.0
230
-0.0000000000000002
  0
LINE
  5
E684
  8
0
  6
VERDECKT
 62
     1
 10
-135.9999999999998863
 20
15.0000000000000604
 30
-0.0000000000000033
 11
-135.0000000000001137
 21
14.0000000000000604
 31
-0.0000000000000031
210
0.0
220
1.0
230
-0.0000000000000002
  0
LINE
  5
E685
  8
0
  6
VERDECKT
 62
     1
 10
-144.0000000000009095
 20
15.0000000000000604
 30
-0.0000000000000033
 11
-145.0000000000007105
 21
14.0000000000000604
 31
-0.0000000000000031
210
0.0
220
1.0
230
-0.0000000000000002
  0
LINE
  5
E686
  8
0
  6
VERDECKT
 62
     1
 10
-144.0000000000009095
 20
12.9999999999999396
 30
-0.0000000000000029
 11
-145.0000000000007105
 21
13.9999999999999503
 31
-0.0000000000000031
210
0.0
220
1.0
230
-0.0000000000000002
  0
LINE
  5
E687
  8
0
  6
VERDECKT
 62
     1
 10
-135.9999999999998863
 20
12.9999999999999396
 30
-0.0000000000000029
 11
-135.0000000000001137
 21
13.9999999999999503
 31
-0.0000000000000031
210
0.0
220
1.0
230
-0.0000000000000002
  0
LINE
  5
E688
  8
0
  6
VERDECKT
 62
     1
 10
-136.0
 20
13.0
 30
-0.0000000000000029
 11
-135.0000000000003979
 21
12.0
 31
-0.0000000000000027
210
0.0
220
1.0
230
-0.0000000000000002
  0
LINE
  5
E689
  8
0
  6
VERDECKT
 62
     1
 10
-144.0000000000009095
 20
13.0
 30
-0.0000000000000029
 11
-145.0000000000003979
 21
12.0
 31
-0.0000000000000027
210
0.0
220
1.0
230
-0.0000000000000002
  0
LINE
  5
E68A
  8
0
  6
VERDECKT
 62
     1
 10
-144.0000000000009095
 20
11.0
 30
-0.0000000000000024
 11
-145.0000000000003979
 21
12.0
 31
-0.0000000000000027
210
0.0
220
1.0
230
-0.0000000000000002
  0
LINE
  5
E68B
  8
0
  6
VERDECKT
 62
     1
 10
-136.0
 20
11.0
 30
-0.0000000000000024
 11
-135.0000000000003979
 21
12.0
 31
-0.0000000000000027
210
0.0
220
1.0
230
-0.0000000000000002
  0
LINE
  5
E68C
  8
0
  6
VERDECKT
 62
     1
 10
-136.0
 20
11.0
 30
-0.0000000000000024
 11
-135.0000000000003979
 21
10.0
 31
-0.0000000000000022
210
0.0
220
1.0
230
-0.0000000000000002
  0
LINE
  5
E68D
  8
0
  6
VERDECKT
 62
     1
 10
-144.0000000000009095
 20
11.0
 30
-0.0000000000000024
 11
-145.0000000000003979
 21
10.0
 31
-0.0000000000000022
210
0.0
220
1.0
230
-0.0000000000000002
  0
LINE
  5
E68E
  8
0
  6
VERDECKT
 62
     1
 10
-144.0000000000009095
 20
9.0000000000000018
 30
-0.000000000000002
 11
-145.0000000000003979
 21
10.0
 31
-0.0000000000000022
210
0.0
220
1.0
230
-0.0000000000000002
  0
LINE
  5
E68F
  8
0
  6
VERDECKT
 62
     1
 10
-136.0
 20
9.0000000000000018
 30
-0.000000000000002
 11
-135.0000000000003979
 21
10.0
 31
-0.0000000000000022
210
0.0
220
1.0
230
-0.0000000000000002
  0
LINE
  5
E690
  8
0
  6
VERDECKT
 62
     1
 10
-136.0
 20
9.0000000000000018
 30
-0.000000000000002
 11
-135.0000000000003979
 21
8.0000000000000018
 31
-0.0000000000000018
210
0.0
220
1.0
230
-0.0000000000000002
  0
LINE
  5
E691
  8
0
  6
VERDECKT
 62
     1
 10
-144.0000000000009095
 20
9.0000000000000018
 30
-0.000000000000002
 11
-145.0000000000003979
 21
8.0000000000000018
 31
-0.0000000000000018
210
0.0
220
1.0
230
-0.0000000000000002
  0
LINE
  5
E692
  8
0
  6
VERDECKT
 62
     1
 10
-144.0000000000009095
 20
7.0000000000000009
 30
-0.0000000000000016
 11
-145.0000000000003979
 21
8.0000000000000018
 31
-0.0000000000000018
210
0.0
220
1.0
230
-0.0000000000000002
  0
LINE
  5
E693
  8
0
  6
VERDECKT
 62
     1
 10
-136.0
 20
7.0000000000000009
 30
-0.0000000000000016
 11
-135.0000000000003979
 21
8.0000000000000018
 31
-0.0000000000000018
210
0.0
220
1.0
230
-0.0000000000000002
  0
LINE
  5
E694
  8
0
  6
VERDECKT
 62
     1
 10
-136.0
 20
7.0000000000000009
 30
-0.0000000000000016
 11
-135.0000000000003979
 21
6.0000000000000009
 31
-0.0000000000000013
210
0.0
220
1.0
230
-0.0000000000000002
  0
LINE
  5
E695
  8
0
  6
VERDECKT
 62
     1
 10
-144.0000000000009095
 20
7.0000000000000009
 30
-0.0000000000000016
 11
-145.0000000000003979
 21
6.0000000000000009
 31
-0.0000000000000013
210
0.0
220
1.0
230
-0.0000000000000002
  0
LINE
  5
E696
  8
0
  6
VERDECKT
 62
     1
 10
-144.0000000000009095
 20
5.0
 30
-0.0000000000000011
 11
-145.0000000000003979
 21
6.0000000000000009
 31
-0.0000000000000013
210
0.0
220
1.0
230
-0.0000000000000002
  0
LINE
  5
E697
  8
0
  6
VERDECKT
 62
     1
 10
-136.0
 20
5.0
 30
-0.0000000000000011
 11
-135.0000000000003979
 21
6.0000000000000009
 31
-0.0000000000000013
210
0.0
220
1.0
230
-0.0000000000000002
  0
LINE
  5
E698
  8
0
  6
VERDECKT
 62
     1
 10
-135.9999999999998863
 20
5.0000000000000568
 30
-0.0000000000000011
 11
-135.0000000000001137
 21
4.0000000000000568
 31
-0.0000000000000009
210
0.0
220
1.0
230
-0.0000000000000002
  0
LINE
  5
E699
  8
0
  6
VERDECKT
 62
     1
 10
-144.0000000000009095
 20
5.0000000000000568
 30
-0.0000000000000011
 11
-145.0000000000007105
 21
4.0000000000000568
 31
-0.0000000000000009
210
0.0
220
1.0
230
-0.0000000000000002
  0
LINE
  5
E69A
  8
0
  6
VERDECKT
 62
     1
 10
-144.0000000000009095
 20
2.9999999999999432
 30
-0.0000000000000007
 11
-145.0000000000007105
 21
3.999999999999944
 31
-0.0000000000000009
210
0.0
220
1.0
230
-0.0000000000000002
  0
LINE
  5
E69B
  8
0
  6
VERDECKT
 62
     1
 10
-135.9999999999998863
 20
2.9999999999999432
 30
-0.0000000000000007
 11
-135.0000000000001137
 21
3.999999999999944
 31
-0.0000000000000009
210
0.0
220
1.0
230
-0.0000000000000002
  0
LINE
  5
E69C
  8
0
  6
VERDECKT
 62
     1
 10
-136.0
 20
3.0
 30
-0.0000000000000007
 11
-135.0000000000003979
 21
2.0
 31
-0.0000000000000004
210
0.0
220
1.0
230
-0.0000000000000002
  0
LINE
  5
E69D
  8
0
  6
VERDECKT
 62
     1
 10
-144.0000000000009095
 20
3.0
 30
-0.0000000000000007
 11
-145.0000000000003979
 21
2.0
 31
-0.0000000000000004
210
0.0
220
1.0
230
-0.0000000000000002
  0
LINE
  5
E69E
  8
0
  6
VERDECKT
 62
     1
 10
-144.0000000000009095
 20
1.0
 30
-0.0000000000000002
 11
-145.0000000000003979
 21
2.0
 31
-0.0000000000000004
210
0.0
220
1.0
230
-0.0000000000000002
  0
LINE
  5
E69F
  8
0
  6
VERDECKT
 62
     1
 10
-136.0
 20
1.0
 30
-0.0000000000000002
 11
-135.0000000000003979
 21
2.0
 31
-0.0000000000000004
210
0.0
220
1.0
230
-0.0000000000000002
  0
LINE
  5
E6A0
  8
0
  6
VERDECKT
 62
     1
 10
-135.9999999999998863
 20
1.0000000000000571
 30
-0.0000000000000002
 11
-135.0000000000001137
 21
0.0000000000000568
 31
0.0
210
0.0
220
1.0
230
-0.0000000000000002
  0
LINE
  5
E6A1
  8
0
  6
VERDECKT
 62
     1
 10
-144.0000000000009095
 20
1.0000000000000571
 30
-0.0000000000000002
 11
-145.0000000000007105
 21
0.0000000000000568
 31
0.0
210
0.0
220
1.0
230
-0.0000000000000002
  0
LINE
  5
E6A2
  8
0
  6
VERDECKT
 62
     1
 10
-144.0000000000005969
 20
29.0000000000000888
 30
-0.0000000000000064
 11
-145.0000000000003126
 21
30.0000000000002096
 31
-0.0000000000000067
210
0.0
220
1.0
230
-0.0000000000000002
  0
LINE
  5
E6A3
  8
0
  6
VERDECKT
 62
     1
 10
-136.0000000000003126
 20
29.0000000000000888
 30
-0.0000000000000064
 11
-135.0000000000005116
 21
30.0000000000002096
 31
-0.0000000000000067
210
0.0
220
1.0
230
-0.0000000000000002
  0
LINE
  5
E6A4
  8
0
  6
VERDECKT
 62
     1
 10
-136.000000000000199
 20
28.9999999999999503
 30
-0.0000000000000064
 11
-135.0000000000005116
 21
27.9999999999999503
 31
-0.0000000000000062
210
0.0
220
1.0
230
-0.0000000000000002
  0
LINE
  5
E6A5
  8
0
  6
VERDECKT
 62
     1
 10
-144.0000000000005969
 20
28.9999999999999503
 30
-0.0000000000000064
 11
-145.0000000000003979
 21
27.9999999999999503
 31
-0.0000000000000062
210
0.0
220
1.0
230
-0.0000000000000002
  0
LINE
  5
E6A6
  8
0
  6
VERDECKT
 62
     1
 10
-144.0000000000005969
 20
27.0000000000000604
 30
-0.000000000000006
 11
-145.0000000000003979
 21
28.0000000000000604
 31
-0.0000000000000062
210
0.0
220
1.0
230
-0.0000000000000002
  0
LINE
  5
E6A7
  8
0
  6
VERDECKT
 62
     1
 10
-136.000000000000199
 20
27.0000000000000604
 30
-0.000000000000006
 11
-135.0000000000005116
 21
28.0000000000000604
 31
-0.0000000000000062
210
0.0
220
1.0
230
-0.0000000000000002
  0
LINE
  5
E6A8
  8
0
  6
VERDECKT
 62
     1
 10
-136.000000000000199
 20
26.9999999999999503
 30
-0.000000000000006
 11
-135.0000000000005116
 21
25.9999999999999503
 31
-0.0000000000000058
210
0.0
220
1.0
230
-0.0000000000000002
  0
LINE
  5
E6A9
  8
0
  6
VERDECKT
 62
     1
 10
-144.0000000000005969
 20
26.9999999999999503
 30
-0.000000000000006
 11
-145.0000000000003979
 21
25.9999999999999503
 31
-0.0000000000000058
210
0.0
220
1.0
230
-0.0000000000000002
  0
LINE
  5
E6AA
  8
0
  6
VERDECKT
 62
     1
 10
-144.0000000000009095
 20
25.0000000000000107
 30
-0.0000000000000056
 11
-145.0000000000003979
 21
26.0000000000000107
 31
-0.0000000000000058
210
0.0
220
1.0
230
-0.0000000000000002
  0
LINE
  5
E6AB
  8
0
  6
VERDECKT
 62
     1
 10
-136.0
 20
25.0000000000000107
 30
-0.0000000000000056
 11
-135.0000000000003979
 21
26.0000000000000107
 31
-0.0000000000000058
210
0.0
220
1.0
230
-0.0000000000000002
  0
LINE
  5
E6AC
  8
0
  6
VERDECKT
 62
     1
 10
-135.9999999999998863
 20
25.0000000000000711
 30
-0.0000000000000056
 11
-135.0000000000001137
 21
24.0000000000000711
 31
-0.0000000000000053
210
0.0
220
1.0
230
-0.0000000000000002
  0
LINE
  5
E6AD
  8
0
  6
VERDECKT
 62
     1
 10
-144.0000000000009095
 20
25.0000000000000711
 30
-0.0000000000000056
 11
-145.0000000000007105
 21
24.0000000000000711
 31
-0.0000000000000053
210
0.0
220
1.0
230
-0.0000000000000002
  0
LINE
  5
E6AE
  8
0
  6
VERDECKT
 62
     1
 10
-144.0000000000009095
 20
22.9999999999999503
 30
-0.0000000000000051
 11
-145.0000000000007105
 21
23.9999999999999503
 31
-0.0000000000000053
210
0.0
220
1.0
230
-0.0000000000000002
  0
LINE
  5
E6AF
  8
0
  6
VERDECKT
 62
     1
 10
-135.9999999999998863
 20
22.9999999999999503
 30
-0.0000000000000051
 11
-135.0000000000001137
 21
23.9999999999999503
 31
-0.0000000000000053
210
0.0
220
1.0
230
-0.0000000000000002
  0
LINE
  5
E6B0
  8
0
  6
VERDECKT
 62
     1
 10
-136.0
 20
23.0
 30
-0.0000000000000051
 11
-135.0000000000003979
 21
22.0000000000000107
 31
-0.0000000000000049
210
0.0
220
1.0
230
-0.0000000000000002
  0
LINE
  5
E6B1
  8
0
  6
VERDECKT
 62
     1
 10
-144.0000000000009095
 20
23.0
 30
-0.0000000000000051
 11
-145.0000000000003979
 21
22.0000000000000107
 31
-0.0000000000000049
210
0.0
220
1.0
230
-0.0000000000000002
  0
LINE
  5
E6B2
  8
0
  6
VERDECKT
 62
     1
 10
-144.0000000000009095
 20
21.0
 30
-0.0000000000000047
 11
-145.0000000000003979
 21
22.0000000000000107
 31
-0.0000000000000049
210
0.0
220
1.0
230
-0.0000000000000002
  0
LINE
  5
E6B3
  8
0
  6
VERDECKT
 62
     1
 10
-136.0
 20
21.0
 30
-0.0000000000000047
 11
-135.0000000000003979
 21
22.0000000000000107
 31
-0.0000000000000049
210
0.0
220
1.0
230
-0.0000000000000002
  0
LINE
  5
E6B4
  8
0
  6
VERDECKT
 62
     1
 10
-136.0
 20
21.0
 30
-0.0000000000000047
 11
-135.0000000000005116
 21
20.0000000000000604
 31
-0.0000000000000044
210
0.0
220
1.0
230
-0.0000000000000002
  0
LINE
  5
E6B5
  8
0
  6
VERDECKT
 62
     1
 10
-144.0000000000009095
 20
21.0
 30
-0.0000000000000047
 11
-145.0000000000003979
 21
20.0000000000000604
 31
-0.0000000000000044
210
0.0
220
1.0
230
-0.0000000000000002
  0
LINE
  5
E6B6
  8
0
  6
VERDECKT
 62
     1
 10
-200.0000000000003126
 20
32.0000000000000782
 30
-0.0000000000000071
 11
-3.5000000000008811
 21
32.0000000000000924
 31
-0.0000000000000071
210
0.0
220
1.0
230
-0.0000000000000002
  0
LINE
  5
E6B7
  8
0
  6
VERDECKT
 62
     1
 10
-3.5000000000008749
 20
52.0000000000000924
 30
-0.0000000000000115
 11
-3.500000000000874
 21
32.0000000000000924
 31
-0.0000000000000071
210
0.0
220
1.0
230
-0.0000000000000002
  0
LINE
  5
E6B8
  8
0
  6
VERDECKT
 62
     1
 10
-50.6975344568163919
 20
52.0000000000000924
 30
-0.0000000000000115
 11
-50.6975344568163919
 21
42.0000000000000924
 31
-0.0000000000000093
210
0.0
220
1.0
230
-0.0000000000000002
  0
LINE
  5
E6B9
  8
0
  6
VERDECKT
 62
     1
 10
-62.8012738724311603
 20
52.0000000000000924
 30
-0.0000000000000115
 11
-62.8012738724311603
 21
42.0000000000000924
 31
-0.0000000000000093
210
0.0
220
1.0
230
-0.0000000000000002
  0
LINE
  5
E6BA
  8
0
  6
VERDECKT
 62
     1
 10
-39.097826026520508
 20
52.0000000000000924
 30
-0.0000000000000115
 11
-39.097826026520508
 21
42.0000000000000924
 31
-0.0000000000000093
210
0.0
220
1.0
230
-0.0000000000000002
  0
LINE
  5
E6BB
  8
0
  6
VERDECKT
 62
     1
 10
-20.4166598639452985
 20
42.0000000000000924
 30
-0.0000000000000093
 11
-17.5712833908063111
 21
42.0000000000000924
 31
-0.0000000000000093
210
0.0
220
1.0
230
-0.0000000000000002
  0
LINE
  5
E6BC
  8
0
  6
VERDECKT
 62
     1
 10
-17.5712833908063111
 20
52.0000000000000924
 30
-0.0000000000000115
 11
-17.5712833908063111
 21
42.0000000000000924
 31
-0.0000000000000093
210
0.0
220
1.0
230
-0.0000000000000002
  0
LINE
  5
E6BD
  8
0
  6
VERDECKT
 62
     1
 10
-60.9080454455739471
 20
52.0000000000000924
 30
-0.0000000000000115
 11
-60.9080454455739471
 21
42.0000000000000924
 31
-0.0000000000000093
210
0.0
220
1.0
230
-0.0000000000000002
  0
LINE
  5
E6BE
  8
0
  6
VERDECKT
 62
     1
 10
-57.2477947173521713
 20
52.0000000000000924
 30
-0.0000000000000115
 11
-57.2477947173521713
 21
42.0000000000000924
 31
-0.0000000000000093
210
0.0
220
1.0
230
-0.0000000000000002
  0
LINE
  5
E6BF
  8
0
  6
VERDECKT
 62
     1
 10
-40.2088298760367593
 20
52.0000000000000924
 30
-0.0000000000000115
 11
-40.2088298760367593
 21
42.0000000000000924
 31
-0.0000000000000093
210
0.0
220
1.0
230
-0.0000000000000002
  0
LINE
  5
E6C0
  8
0
  6
VERDECKT
 62
     1
 10
-62.8664457401569976
 20
52.0000000000000924
 30
-0.0000000000000115
 11
-62.8664457401569976
 21
42.0000000000000924
 31
-0.0000000000000093
210
0.0
220
1.0
230
-0.0000000000000002
  0
LINE
  5
E6C1
  8
0
  6
VERDECKT
 62
     1
 10
-50.0210955497786287
 20
52.0000000000000924
 30
-0.0000000000000115
 11
-50.0210955497786287
 21
42.0000000000000924
 31
-0.0000000000000093
210
0.0
220
1.0
230
-0.0000000000000002
  0
LINE
  5
E6C2
  8
0
  6
VERDECKT
 62
     1
 10
-17.5712833908063288
 20
42.0000000000000924
 30
-0.0000000000000093
 11
-3.5000000000008731
 21
42.0000000000000924
 31
-0.0000000000000093
210
0.0
220
1.0
230
-0.0000000000000002
  0
LINE
  5
E6C3
  8
0
  6
VERDECKT
 62
     1
 10
-56.8256984118989621
 20
52.0000000000000924
 30
-0.0000000000000115
 11
-56.8256984118989621
 21
42.0000000000000924
 31
-0.0000000000000093
210
0.0
220
1.0
230
-0.0000000000000002
  0
LINE
  5
E6C4
  8
0
  6
VERDECKT
 62
     1
 10
-61.1388583472091227
 20
52.0000000000000924
 30
-0.0000000000000115
 11
-61.1388583472091227
 21
42.0000000000000924
 31
-0.0000000000000093
210
0.0
220
1.0
230
-0.0000000000000002
  0
LINE
  5
E6C5
  8
0
  6
VERDECKT
 62
     1
 10
-20.4166598639452808
 20
52.0000000000000924
 30
-0.0000000000000115
 11
-20.4166598639452808
 21
42.0000000000000924
 31
-0.0000000000000093
210
0.0
220
1.0
230
-0.0000000000000002
  0
LINE
  5
E6C6
  8
0
  6
VERDECKT
 62
     1
 10
-198.0000000000003979
 20
42.0000000000000782
 30
-0.0000000000000093
 11
-20.4166598639452808
 21
42.0000000000000924
 31
-0.0000000000000093
210
0.0
220
1.0
230
-0.0000000000000002
  0
LINE
  5
E6C7
  8
0
  6
VERDECKT
 62
     1
 10
-0.5000000000008447
 20
32.0000000000000568
 30
-0.0000000000000071
 11
0.5000000000000507
 21
32.0000000000000568
 31
-0.0000000000000071
210
0.0
220
1.0
230
-0.0000000000000002
  0
LINE
  5
E6C8
  8
0
  6
VERDECKT
 62
     1
 10
-165.0000000000003979
 20
30.0000000000000497
 30
-0.0000000000000067
 11
-165.0000000000003979
 21
32.0000000000000497
 31
-0.0000000000000071
210
0.0
220
1.0
230
-0.0000000000000002
  0
LINE
  5
E6C9
  8
0
  6
VERDECKT
 62
     1
 10
164.9999999999996021
 20
32.0000000000000497
 30
-0.0000000000000071
 11
164.9999999999996021
 21
30.0000000000000391
 31
-0.0000000000000067
210
0.0
220
1.0
230
-0.0000000000000002
  0
LINE
  5
E6CA
  8
0
  6
VERDECKT
 62
     1
 10
-146.0000000000003979
 20
30.0000000000000497
 30
-0.0000000000000067
 11
-146.0000000000003979
 21
32.0000000000000497
 31
-0.0000000000000071
210
0.0
220
1.0
230
-0.0000000000000002
  0
LINE
  5
E6CB
  8
0
  6
VERDECKT
 62
     1
 10
-134.0000000000003979
 20
30.0000000000000497
 30
-0.0000000000000067
 11
-134.0000000000003979
 21
32.0000000000000497
 31
-0.0000000000000071
210
0.0
220
1.0
230
-0.0000000000000002
  0
LINE
  5
E6CC
  8
0
  6
VERDECKT
 62
     1
 10
133.9999999999996021
 20
30.0000000000000497
 30
-0.0000000000000067
 11
133.9999999999996021
 21
32.0000000000000497
 31
-0.0000000000000071
210
0.0
220
1.0
230
-0.0000000000000002
  0
LINE
  5
E6CD
  8
0
  6
VERDECKT
 62
     1
 10
145.9999999999994884
 20
30.0000000000000497
 30
-0.0000000000000067
 11
145.9999999999994884
 21
32.0000000000000497
 31
-0.0000000000000071
210
0.0
220
1.0
230
-0.0000000000000002
  0
LINE
  5
E6CE
  8
0
  6
VERDECKT
 62
     1
 10
99.9999999999997158
 20
42.0000000000000924
 30
-0.0000000000000093
 11
97.9999999999997016
 21
42.0000000000000924
 31
-0.0000000000000093
210
0.0
220
1.0
230
-0.0000000000000002
  0
LINE
  5
E6CF
  8
0
  6
VERDECKT
 62
     1
 10
97.9999999999997016
 20
32.0000000000000924
 30
-0.0000000000000071
 11
97.9999999999997016
 21
52.0000000000000924
 31
-0.0000000000000115
210
0.0
220
1.0
230
-0.0000000000000002
  0
LINE
  5
E6D0
  8
0
  6
VERDECKT
 62
     1
 10
99.9999999999996874
 20
32.0000000000000924
 30
-0.0000000000000071
 11
99.9999999999996874
 21
52.0000000000000924
 31
-0.0000000000000115
210
0.0
220
1.0
230
-0.0000000000000002
  0
LINE
  5
E6D1
  8
0
  6
VERDECKT
 62
     1
 10
165.9999999999996874
 20
32.0000000000000924
 30
-0.0000000000000071
 11
165.9999999999996874
 21
52.0000000000000924
 31
-0.0000000000000115
210
0.0
220
1.0
230
-0.0000000000000002
  0
LINE
  5
E6D2
  8
0
  6
VERDECKT
 62
     1
 10
163.9999999999996874
 20
32.0000000000000924
 30
-0.0000000000000071
 11
163.9999999999996874
 21
52.0000000000000924
 31
-0.0000000000000115
210
0.0
220
1.0
230
-0.0000000000000002
  0
LINE
  5
E6D3
  8
0
  6
VERDECKT
 62
     1
 10
165.9999999999996874
 20
42.0000000000000782
 30
-0.0000000000000093
 11
163.9999999999996874
 21
42.0000000000000782
 31
-0.0000000000000093
210
0.0
220
1.0
230
-0.0000000000000002
  0
LINE
  5
E6D4
  8
0
  6
VERDECKT
 62
     1
 10
66.9999999999997016
 20
42.0000000000000924
 30
-0.0000000000000093
 11
64.9999999999997016
 21
42.0000000000000924
 31
-0.0000000000000093
210
0.0
220
1.0
230
-0.0000000000000002
  0
LINE
  5
E6D5
  8
0
  6
VERDECKT
 62
     1
 10
64.9999999999997016
 20
32.0000000000000924
 30
-0.0000000000000071
 11
64.9999999999997016
 21
52.0000000000000924
 31
-0.0000000000000115
210
0.0
220
1.0
230
-0.0000000000000002
  0
LINE
  5
E6D6
  8
0
  6
VERDECKT
 62
     1
 10
66.9999999999997016
 20
32.0000000000000924
 30
-0.0000000000000071
 11
66.9999999999997016
 21
52.0000000000000924
 31
-0.0000000000000115
210
0.0
220
1.0
230
-0.0000000000000002
  0
LINE
  5
E6D7
  8
0
  6
VERDECKT
 62
     1
 10
197.9999999999994884
 20
32.0000000000000782
 30
-0.0000000000000071
 11
197.9999999999994884
 21
52.0000000000000924
 31
-0.0000000000000115
210
0.0
220
1.0
230
-0.0000000000000002
  0
LINE
  5
E6D8
  8
0
  6
VERDECKT
 62
     1
 10
132.9999999999996874
 20
42.0000000000000924
 30
-0.0000000000000093
 11
130.9999999999996874
 21
42.0000000000000924
 31
-0.0000000000000093
210
0.0
220
1.0
230
-0.0000000000000002
  0
LINE
  5
E6D9
  8
0
  6
VERDECKT
 62
     1
 10
130.9999999999996874
 20
32.0000000000000924
 30
-0.0000000000000071
 11
130.9999999999996874
 21
52.0000000000000924
 31
-0.0000000000000115
210
0.0
220
1.0
230
-0.0000000000000002
  0
LINE
  5
E6DA
  8
0
  6
VERDECKT
 62
     1
 10
132.9999999999996874
 20
32.0000000000000924
 30
-0.0000000000000071
 11
132.9999999999996874
 21
52.0000000000000924
 31
-0.0000000000000115
210
0.0
220
1.0
230
-0.0000000000000002
  0
LINE
  5
E6DB
  8
0
  6
VERDECKT
 62
     1
 10
0.5000000000000511
 20
32.0000000000000924
 30
-0.0000000000000071
 11
3.5000000000000782
 21
32.0000000000000924
 31
-0.0000000000000071
210
0.0
220
1.0
230
-0.0000000000000002
  0
LINE
  5
E6DC
  8
0
  6
VERDECKT
 62
     1
 10
0.5000000000000511
 20
32.0000000000000924
 30
-0.0000000000000071
 11
0.5000000000000524
 21
52.0000000000000924
 31
-0.0000000000000115
210
0.0
220
1.0
230
-0.0000000000000002
  0
LINE
  5
E6DD
  8
0
  6
VERDECKT
 62
     1
 10
3.500000000000079
 20
32.0000000000000924
 30
-0.0000000000000071
 11
3.5000000000000799
 21
52.0000000000000924
 31
-0.0000000000000115
210
0.0
220
1.0
230
-0.0000000000000002
  0
LINE
  5
E6DE
  8
0
  6
VERDECKT
 62
     1
 10
33.9999999999995381
 20
32.0000000000000924
 30
-0.0000000000000071
 11
33.9999999999995381
 21
52.0000000000000924
 31
-0.0000000000000115
210
0.0
220
1.0
230
-0.0000000000000002
  0
LINE
  5
E6DF
  8
0
  6
VERDECKT
 62
     1
 10
31.9999999999995417
 20
32.0000000000000924
 30
-0.0000000000000071
 11
31.9999999999995417
 21
52.0000000000000924
 31
-0.0000000000000115
210
0.0
220
1.0
230
-0.0000000000000002
  0
LINE
  5
E6E0
  8
0
  6
VERDECKT
 62
     1
 10
33.9999999999995666
 20
42.0000000000000924
 30
-0.0000000000000093
 11
31.9999999999995701
 21
42.0000000000000924
 31
-0.0000000000000093
210
0.0
220
1.0
230
-0.0000000000000002
  0
LINE
  5
E6E1
  8
0
  6
VERDECKT
 62
     1
 10
60.0000000000000497
 20
32.0000000000000924
 30
-0.0000000000000071
 11
60.0000000000000497
 21
52.0000000000000924
 31
-0.0000000000000115
210
0.0
220
1.0
230
-0.0000000000000002
  0
LINE
  5
E6E2
  8
0
  6
VERDECKT
 62
     1
 10
63.0000000000000426
 20
32.0000000000000924
 30
-0.0000000000000071
 11
63.0000000000000426
 21
52.0000000000000924
 31
-0.0000000000000115
210
0.0
220
1.0
230
-0.0000000000000002
  0
ENDBLK
  5
E6E4
  8
0
  0
BLOCK
  8
0
  2
A$CE02CE817
 70
     0
 10
0.0
 20
0.0
 30
0.0
  3
A$CE02CE817
  1

  0
LINE
  5
E6E8
  8
0
  6
CONTINUOUS
 62
     3
 10
73.9999999999999716
 20
32.0000000000000995
 30
-0.0000000000000071
 11
-74.0000000000000568
 21
32.0000000000000711
 31
-0.0000000000000071
210
-0.0000000000000002
220
1.0
230
-0.0000000000000002
  0
LINE
  5
E6E9
  8
0
  6
CONTINUOUS
 62
     3
 10
73.9999999999999716
 20
52.0000000000000995
 30
-0.0000000000000115
 11
-74.0000000000000568
 21
52.0000000000000782
 31
-0.0000000000000115
210
-0.0000000000000002
220
1.0
230
-0.0000000000000002
  0
LINE
  5
E6EA
  8
0
  6
CONTINUOUS
 62
     3
 10
73.9999999999999716
 20
32.0000000000000995
 30
-0.0000000000000071
 11
73.9999999999999716
 21
52.0000000000000995
 31
-0.0000000000000115
210
-0.0000000000000002
220
1.0
230
-0.0000000000000002
  0
LINE
  5
E6EB
  8
0
  6
CONTINUOUS
 62
     3
 10
-74.0000000000000568
 20
32.0000000000000711
 30
-0.0000000000000071
 11
-74.0000000000000568
 21
52.0000000000000782
 31
-0.0000000000000115
210
-0.0000000000000002
220
1.0
230
-0.0000000000000002
  0
LINE
  5
E6EC
  8
0
  6
CONTINUOUS
 62
     3
 10
39.9999999999999716
 20
0.0000000000000034
 30
0.0
 11
49.9999999999998508
 21
0.0000000000000111
 31
0.0
210
-0.0000000000000002
220
1.0
230
-0.0000000000000002
  0
LINE
  5
E6ED
  8
0
  6
CONTINUOUS
 62
     3
 10
49.9999999999998366
 20
0.0000000000000111
 30
0.0
 11
59.9999999999998366
 21
0.0000000000000188
 31
0.0
210
-0.0000000000000002
220
1.0
230
-0.0000000000000002
  0
LINE
  5
E6EE
  8
0
  6
CONTINUOUS
 62
     3
 10
39.9999999999998366
 20
0.0000000000000089
 30
0.0
 11
39.9999999999998224
 21
30.0000000000000213
 31
-0.0000000000000067
210
-0.0000000000000002
220
1.0
230
-0.0000000000000002
  0
LINE
  5
E6EF
  8
0
  6
CONTINUOUS
 62
     3
 10
59.9999999999998366
 20
0.0000000000000133
 30
0.0
 11
59.9999999999998224
 21
30.0000000000000284
 31
-0.0000000000000067
210
-0.0000000000000002
220
1.0
230
-0.0000000000000002
  0
LINE
  5
E6F0
  8
0
  6
CONTINUOUS
 62
     3
 10
75.9999999999997442
 20
52.0000000000000995
 30
-0.0000000000000115
 11
75.9999999999997442
 21
32.0000000000000995
 31
-0.0000000000000071
210
-0.0000000000000002
220
1.0
230
-0.0000000000000002
  0
LINE
  5
E6F1
  8
0
  6
CONTINUOUS
 62
     3
 10
75.9999999999997442
 20
52.0000000000000995
 30
-0.0000000000000115
 11
73.9999999999999716
 21
52.0000000000000995
 31
-0.0000000000000115
210
-0.0000000000000002
220
1.0
230
-0.0000000000000002
  0
LINE
  5
E6F2
  8
0
  6
CONTINUOUS
 62
     3
 10
73.9999999999999716
 20
52.0000000000000995
 30
-0.0000000000000115
 11
73.9999999999999716
 21
32.0000000000000995
 31
-0.0000000000000071
210
-0.0000000000000002
220
1.0
230
-0.0000000000000002
  0
LINE
  5
E6F3
  8
0
  6
CONTINUOUS
 62
     3
 10
73.9999999999999716
 20
32.0000000000000995
 30
-0.0000000000000071
 11
75.9999999999997442
 21
32.0000000000000995
 31
-0.0000000000000071
210
-0.0000000000000002
220
1.0
230
-0.0000000000000002
  0
LINE
  5
E6F4
  8
0
  6
CONTINUOUS
 62
     3
 10
-74.0000000000000568
 20
52.0000000000000782
 30
-0.0000000000000115
 11
-74.0000000000000568
 21
32.0000000000000711
 31
-0.0000000000000071
210
-0.0000000000000002
220
1.0
230
-0.0000000000000002
  0
LINE
  5
E6F5
  8
0
  6
CONTINUOUS
 62
     3
 10
-74.0000000000000568
 20
52.0000000000000782
 30
-0.0000000000000115
 11
-76.0000000000002842
 21
52.0000000000000782
 31
-0.0000000000000115
210
-0.0000000000000002
220
1.0
230
-0.0000000000000002
  0
LINE
  5
E6F6
  8
0
  6
CONTINUOUS
 62
     3
 10
-76.0000000000002842
 20
52.0000000000000782
 30
-0.0000000000000115
 11
-76.0000000000002842
 21
32.0000000000000711
 31
-0.0000000000000071
210
-0.0000000000000002
220
1.0
230
-0.0000000000000002
  0
LINE
  5
E6F7
  8
0
  6
CONTINUOUS
 62
     3
 10
-76.0000000000002842
 20
32.0000000000000711
 30
-0.0000000000000071
 11
-74.0000000000000568
 21
32.0000000000000711
 31
-0.0000000000000071
210
-0.0000000000000002
220
1.0
230
-0.0000000000000002
  0
LINE
  5
E6F8
  8
0
  6
CONTINUOUS
 62
     3
 10
-59.9999999999997371
 20
-0.0000000000000127
 30
0.0
 11
-49.9999999999998579
 21
-0.0000000000000111
 31
0.0
210
-0.0000000000000002
220
1.0
230
-0.0000000000000002
  0
LINE
  5
E6F9
  8
0
  6
CONTINUOUS
 62
     3
 10
-49.9999999999998579
 20
-0.0000000000000111
 30
0.0
 11
-39.9999999999998579
 21
-0.0000000000000095
 31
0.0
210
-0.0000000000000002
220
1.0
230
-0.0000000000000002
  0
LINE
  5
E6FA
  8
0
  6
CONTINUOUS
 62
     3
 10
-39.9999999999998721
 20
30.0000000000000107
 30
-0.0000000000000067
 11
-39.9999999999998579
 21
-0.0000000000000089
 31
0.0
210
-0.0000000000000002
220
1.0
230
-0.0000000000000002
  0
LINE
  5
E6FB
  8
0
  6
CONTINUOUS
 62
     3
 10
-59.9999999999998721
 20
30.0
 30
-0.0000000000000067
 11
-59.9999999999998579
 21
-0.0000000000000133
 31
0.0
210
-0.0000000000000002
220
1.0
230
-0.0000000000000002
  0
LINE
  5
E6FC
  8
0
  6
CONTINUOUS
 62
     3
 10
-74.5000000000001421
 20
32.0000000000000071
 30
-0.0000000000000071
 11
74.5
 21
32.0000000000000782
 31
-0.0000000000000071
210
-0.0000000000000002
220
1.0
230
-0.0000000000000002
  0
LINE
  5
E6FD
  8
0
  6
CONTINUOUS
 62
     3
 10
78.5000000000000284
 20
52.0000000000001705
 30
-0.0000000000000115
 11
76.5000000000000284
 21
52.0000000000001705
 31
-0.0000000000000115
210
-0.0000000000000002
220
1.0
230
-0.0000000000000002
  0
LINE
  5
E6FE
  8
0
  6
CONTINUOUS
 62
     3
 10
76.5000000000000568
 20
51.0000000000001776
 30
-0.0000000000000113
 11
76.4999999999999716
 21
34.0000000000000711
 31
-0.0000000000000075
210
-0.0000000000000002
220
1.0
230
-0.0000000000000002
  0
LINE
  5
E6FF
  8
0
  6
CONTINUOUS
 62
     3
 10
76.5
 20
51.0000000000001705
 30
-0.0000000000000113
 11
76.5
 21
52.0000000000001705
 31
-0.0000000000000115
210
-0.0000000000000002
220
1.0
230
-0.0000000000000002
  0
LINE
  5
E700
  8
0
  6
CONTINUOUS
 62
     3
 10
78.5
 20
52.0000000000001705
 30
-0.0000000000000115
 11
78.5
 21
51.0000000000001705
 31
-0.0000000000000113
210
-0.0000000000000002
220
1.0
230
-0.0000000000000002
  0
ARC
  5
E701
  8
0
  6
CONTINUOUS
 62
     3
 10
74.4999999999999432
 20
34.0000000000000711
 30
-0.0000000000000075
 40
4.0000000000000231
 50
269.9999999999998863
 51
359.9999999999985789
  0
LINE
  5
E702
  8
0
  6
CONTINUOUS
 62
     3
 10
78.4999999999999858
 20
34.0000000000000711
 30
-0.0000000000000075
 11
78.5000000000000142
 21
51.0000000000001705
 31
-0.0000000000000113
210
-0.0000000000000002
220
1.0
230
-0.0000000000000002
  0
ARC
  5
E703
  8
0
  6
CONTINUOUS
 62
     3
 10
-74.4999999999999432
 20
34.0000000000000711
 30
0.0
 40
2.0000000000000249
210
0.0
220
-0.0000000000000002
230
-1.0
 50
180.0
 51
269.9999999999973284
  0
LINE
  5
E704
  8
0
  6
CONTINUOUS
 62
     3
 10
-78.5000000000001705
 20
52.0000000000000995
 30
-0.0000000000000115
 11
-76.5000000000001705
 21
52.0000000000001066
 31
-0.0000000000000115
210
-0.0000000000000002
220
1.0
230
-0.0000000000000002
  0
LINE
  5
E705
  8
0
  6
CONTINUOUS
 62
     3
 10
-76.5000000000001421
 20
51.0000000000001066
 30
-0.0000000000000113
 11
-76.5000000000001421
 21
52.0000000000000995
 31
-0.0000000000000115
210
-0.0000000000000002
220
1.0
230
-0.0000000000000002
  0
LINE
  5
E706
  8
0
  6
CONTINUOUS
 62
     3
 10
-76.5000000000001847
 20
51.0000000000001066
 30
-0.0000000000000113
 11
-76.5000000000001421
 21
34.0
 31
-0.0000000000000075
210
-0.0000000000000002
220
1.0
230
-0.0000000000000002
  0
LINE
  5
E707
  8
0
  6
CONTINUOUS
 62
     3
 10
-78.5000000000001421
 20
52.0000000000000995
 30
-0.0000000000000115
 11
-78.5000000000001421
 21
51.0000000000000995
 31
-0.0000000000000113
210
-0.0000000000000002
220
1.0
230
-0.0000000000000002
  0
ARC
  5
E708
  8
0
  6
CONTINUOUS
 62
     3
 10
74.5000000000000853
 20
34.0000000000000071
 30
0.0
 40
4.0000000000000231
210
0.0
220
-0.0000000000000002
230
-1.0
 50
270.0000000000011937
 51
359.9999999999998863
  0
LINE
  5
E709
  8
0
  6
CONTINUOUS
 62
     3
 10
-78.5000000000001421
 20
34.0000000000000071
 30
-0.0000000000000075
 11
-78.5000000000001705
 21
51.0000000000001066
 31
-0.0000000000000113
210
-0.0000000000000002
220
1.0
230
-0.0000000000000002
  0
ARC
  5
E70A
  8
0
  6
CONTINUOUS
 62
     3
 10
-74.5000000000000568
 20
34.0000000000000284
 30
-0.0000000000000075
 40
2.0000000000000568
 50
180.0000000000005969
 51
269.9999999999968168
  0
LINE
  5
E70B
  8
0
  6
CONTINUOUS
 62
     3
 10
74.5
 20
30.0000000000000817
 30
-0.0000000000000067
 11
-74.5000000000001421
 21
30.0000000000000107
 31
-0.0000000000000067
210
-0.0000000000000002
220
1.0
230
-0.0000000000000002
  0
LINE
  5
E70C
  8
0
  6
VERDECKT
 62
     1
 10
-53.9979166304967606
 20
32.0000000000000924
 30
-0.0000000000000071
 11
-53.9979166304967606
 21
52.0000000000000924
 31
-0.0000000000000115
210
-0.0000000000000002
220
1.0
230
-0.0000000000000002
  0
LINE
  5
E70D
  8
0
  6
VERDECKT
 62
     1
 10
65.9979166304961211
 20
32.0000000000001208
 30
-0.0000000000000071
 11
65.9979166304961211
 21
52.0000000000001208
 31
-0.0000000000000115
210
-0.0000000000000002
220
1.0
230
-0.0000000000000002
  0
LINE
  5
E70E
  8
0
  6
VERDECKT
 62
     1
 10
68.9027026446396746
 20
32.0000000000001208
 30
-0.0000000000000071
 11
68.9027026446396746
 21
52.0000000000001208
 31
-0.0000000000000115
210
-0.0000000000000002
220
1.0
230
-0.0000000000000002
  0
LINE
  5
E70F
  8
0
  6
VERDECKT
 62
     1
 10
-56.9027026446403212
 20
32.0000000000000924
 30
-0.0000000000000071
 11
-56.9027026446403283
 21
52.0000000000000924
 31
-0.0000000000000115
210
-0.0000000000000002
220
1.0
230
-0.0000000000000002
  0
LINE
  5
E710
  8
0
  6
VERDECKT
 62
     1
 10
60.2678542048604768
 20
32.0000000000001208
 30
-0.0000000000000071
 11
60.2678542048604768
 21
52.0000000000001208
 31
-0.0000000000000115
210
-0.0000000000000002
220
1.0
230
-0.0000000000000002
  0
LINE
  5
E711
  8
0
  6
VERDECKT
 62
     1
 10
-48.2678542048611021
 20
32.0000000000000924
 30
-0.0000000000000071
 11
-48.2678542048611021
 21
52.0000000000000924
 31
-0.0000000000000115
210
-0.0000000000000002
220
1.0
230
-0.0000000000000002
  0
LINE
  5
E712
  8
0
  6
VERDECKT
 62
     1
 10
54.0000000000000497
 20
19.0000000000000213
 30
-0.0000000000000042
 11
45.9999999999995879
 21
19.0000000000000107
 31
-0.0000000000000042
210
-0.0000000000000002
220
1.0
230
-0.0000000000000002
  0
LINE
  5
E713
  8
0
  6
VERDECKT
 62
     1
 10
54.9999999999998295
 20
20.0000000000001386
 30
-0.0000000000000044
 11
44.9999999999998224
 21
20.0000000000001315
 31
-0.0000000000000044
210
-0.0000000000000002
220
1.0
230
-0.0000000000000002
  0
LINE
  5
E714
  8
0
  6
VERDECKT
 62
     1
 10
54.9999999999998295
 20
18.0000000000000213
 30
-0.000000000000004
 11
44.9999999999998224
 21
18.0000000000000107
 31
-0.000000000000004
210
-0.0000000000000002
220
1.0
230
-0.0000000000000002
  0
LINE
  5
E715
  8
0
  6
VERDECKT
 62
     1
 10
54.0000000000000497
 20
17.0000000000000213
 30
-0.0000000000000038
 11
45.9999999999995879
 21
17.0000000000000107
 31
-0.0000000000000038
210
-0.0000000000000002
220
1.0
230
-0.0000000000000002
  0
LINE
  5
E716
  8
0
  6
VERDECKT
 62
     1
 10
54.9999999999998295
 20
16.0000000000000213
 30
-0.0000000000000036
 11
44.9999999999998295
 21
16.0000000000000107
 31
-0.0000000000000036
210
-0.0000000000000002
220
1.0
230
-0.0000000000000002
  0
LINE
  5
E717
  8
0
  6
VERDECKT
 62
     1
 10
54.0000000000002913
 20
15.0000000000000195
 30
-0.0000000000000033
 11
45.9999999999993676
 21
15.0000000000000107
 31
-0.0000000000000033
210
-0.0000000000000002
220
1.0
230
-0.0000000000000002
  0
LINE
  5
E718
  8
0
  6
VERDECKT
 62
     1
 10
55.0000000000000711
 20
14.0000000000000195
 30
-0.0000000000000031
 11
44.9999999999996021
 21
14.0000000000000107
 31
-0.0000000000000031
210
-0.0000000000000002
220
1.0
230
-0.0000000000000002
  0
LINE
  5
E719
  8
0
  6
VERDECKT
 62
     1
 10
54.0000000000002984
 20
13.0000000000000195
 30
-0.0000000000000029
 11
45.9999999999993818
 21
13.0000000000000107
 31
-0.0000000000000029
210
-0.0000000000000002
220
1.0
230
-0.0000000000000002
  0
LINE
  5
E71A
  8
0
  6
VERDECKT
 62
     1
 10
54.9999999999998366
 20
12.0000000000000195
 30
-0.0000000000000027
 11
44.9999999999998366
 21
12.0000000000000107
 31
-0.0000000000000027
210
-0.0000000000000002
220
1.0
230
-0.0000000000000002
  0
LINE
  5
E71B
  8
0
  6
VERDECKT
 62
     1
 10
54.0000000000002984
 20
11.0000000000000195
 30
-0.0000000000000024
 11
45.9999999999993818
 21
11.0000000000000107
 31
-0.0000000000000024
210
-0.0000000000000002
220
1.0
230
-0.0000000000000002
  0
LINE
  5
E71C
  8
0
  6
VERDECKT
 62
     1
 10
54.9999999999998366
 20
10.0000000000000195
 30
-0.0000000000000022
 11
44.9999999999998366
 21
10.0000000000000107
 31
-0.0000000000000022
210
-0.0000000000000002
220
1.0
230
-0.0000000000000002
  0
LINE
  5
E71D
  8
0
  6
VERDECKT
 62
     1
 10
54.0000000000002984
 20
9.0000000000000178
 30
-0.000000000000002
 11
45.9999999999993818
 21
9.0000000000000124
 31
-0.000000000000002
210
-0.0000000000000002
220
1.0
230
-0.0000000000000002
  0
LINE
  5
E71E
  8
0
  6
VERDECKT
 62
     1
 10
54.9999999999998366
 20
8.0000000000000195
 30
-0.0000000000000018
 11
44.9999999999998366
 21
8.0000000000000107
 31
-0.0000000000000018
210
-0.0000000000000002
220
1.0
230
-0.0000000000000002
  0
LINE
  5
E71F
  8
0
  6
VERDECKT
 62
     1
 10
54.0000000000002984
 20
7.0000000000000169
 30
-0.0000000000000016
 11
45.9999999999993818
 21
7.0000000000000098
 31
-0.0000000000000016
210
-0.0000000000000002
220
1.0
230
-0.0000000000000002
  0
LINE
  5
E720
  8
0
  6
VERDECKT
 62
     1
 10
54.9999999999998366
 20
6.0000000000000169
 30
-0.0000000000000013
 11
44.9999999999998366
 21
6.0000000000000089
 31
-0.0000000000000013
210
-0.0000000000000002
220
1.0
230
-0.0000000000000002
  0
LINE
  5
E721
  8
0
  6
VERDECKT
 62
     1
 10
54.0000000000002984
 20
5.000000000000016
 30
-0.0000000000000011
 11
45.9999999999993818
 21
5.0000000000000089
 31
-0.0000000000000011
210
-0.0000000000000002
220
1.0
230
-0.0000000000000002
  0
LINE
  5
E722
  8
0
  6
VERDECKT
 62
     1
 10
55.0000000000000711
 20
4.000000000000016
 30
-0.0000000000000009
 11
44.9999999999996021
 21
4.000000000000008
 31
-0.0000000000000009
210
-0.0000000000000002
220
1.0
230
-0.0000000000000002
  0
LINE
  5
E723
  8
0
  6
VERDECKT
 62
     1
 10
54.0000000000002984
 20
3.0000000000000151
 30
-0.0000000000000007
 11
45.9999999999993818
 21
3.0000000000000089
 31
-0.0000000000000007
210
-0.0000000000000002
220
1.0
230
-0.0000000000000002
  0
LINE
  5
E724
  8
0
  6
VERDECKT
 62
     1
 10
54.9999999999998366
 20
2.0000000000000151
 30
-0.0000000000000004
 11
44.9999999999998366
 21
2.0000000000000071
 31
-0.0000000000000004
210
-0.0000000000000002
220
1.0
230
-0.0000000000000002
  0
LINE
  5
E725
  8
0
  6
VERDECKT
 62
     1
 10
54.0000000000002984
 20
1.000000000000014
 30
-0.0000000000000002
 11
45.9999999999993818
 21
1.000000000000008
 31
-0.0000000000000002
210
-0.0000000000000002
220
1.0
230
-0.0000000000000002
  0
LINE
  5
E726
  8
0
  6
VERDECKT
 62
     1
 10
54.0000000000000497
 20
29.0000000000000284
 30
-0.0000000000000064
 11
45.9999999999995879
 21
29.0000000000000213
 31
-0.0000000000000064
210
-0.0000000000000002
220
1.0
230
-0.0000000000000002
  0
LINE
  5
E727
  8
0
  6
VERDECKT
 62
     1
 10
54.9999999999998295
 20
28.0000000000000284
 30
-0.0000000000000062
 11
44.9999999999998224
 21
28.0000000000000213
 31
-0.0000000000000062
210
-0.0000000000000002
220
1.0
230
-0.0000000000000002
  0
LINE
  5
E728
  8
0
  6
VERDECKT
 62
     1
 10
54.0000000000000497
 20
27.0000000000000284
 30
-0.000000000000006
 11
45.9999999999995879
 21
27.0000000000000213
 31
-0.000000000000006
210
-0.0000000000000002
220
1.0
230
-0.0000000000000002
  0
LINE
  5
E729
  8
0
  6
VERDECKT
 62
     1
 10
54.9999999999998366
 20
26.0000000000000284
 30
-0.0000000000000058
 11
44.9999999999998295
 21
26.0000000000000213
 31
-0.0000000000000058
210
-0.0000000000000002
220
1.0
230
-0.0000000000000002
  0
LINE
  5
E72A
  8
0
  6
VERDECKT
 62
     1
 10
54.0000000000002913
 20
25.0000000000000284
 30
-0.0000000000000056
 11
45.9999999999993676
 21
25.0000000000000213
 31
-0.0000000000000056
210
-0.0000000000000002
220
1.0
230
-0.0000000000000002
  0
LINE
  5
E72B
  8
0
  6
VERDECKT
 62
     1
 10
55.0000000000000711
 20
24.0000000000000284
 30
-0.0000000000000053
 11
44.9999999999996021
 21
24.0000000000000213
 31
-0.0000000000000053
210
-0.0000000000000002
220
1.0
230
-0.0000000000000002
  0
LINE
  5
E72C
  8
0
  6
VERDECKT
 62
     1
 10
54.0000000000002913
 20
23.0000000000000213
 30
-0.0000000000000051
 11
45.9999999999993676
 21
23.0000000000000213
 31
-0.0000000000000051
210
-0.0000000000000002
220
1.0
230
-0.0000000000000002
  0
LINE
  5
E72D
  8
0
  6
VERDECKT
 62
     1
 10
54.9999999999998366
 20
22.0000000000000213
 30
-0.0000000000000049
 11
44.9999999999998295
 21
22.0000000000000213
 31
-0.0000000000000049
210
-0.0000000000000002
220
1.0
230
-0.0000000000000002
  0
LINE
  5
E72E
  8
0
  6
VERDECKT
 62
     1
 10
54.0000000000002913
 20
21.0000000000000284
 30
-0.0000000000000047
 11
45.9999999999993676
 21
21.0000000000000213
 31
-0.0000000000000047
210
-0.0000000000000002
220
1.0
230
-0.0000000000000002
  0
LINE
  5
E72F
  8
0
  6
VERDECKT
 62
     1
 10
45.9999999999996803
 20
19.0000000000000995
 30
-0.0000000000000042
 11
44.9999999999999076
 21
20.0000000000002203
 31
-0.0000000000000044
210
-0.0000000000000002
220
1.0
230
-0.0000000000000002
  0
LINE
  5
E730
  8
0
  6
VERDECKT
 62
     1
 10
53.9999999999999716
 20
19.0000000000001101
 30
-0.0000000000000042
 11
54.9999999999997513
 21
20.0000000000002309
 31
-0.0000000000000044
210
-0.0000000000000002
220
1.0
230
-0.0000000000000002
  0
LINE
  5
E731
  8
0
  6
VERDECKT
 62
     1
 10
54.0
 20
18.9999999999999609
 30
-0.0000000000000042
 11
54.9999999999997726
 21
17.9999999999999609
 31
-0.000000000000004
210
-0.0000000000000002
220
1.0
230
-0.0000000000000002
  0
LINE
  5
E732
  8
0
  6
VERDECKT
 62
     1
 10
45.9999999999996518
 20
18.9999999999999609
 30
-0.0000000000000042
 11
44.9999999999998792
 21
17.9999999999999609
 31
-0.000000000000004
210
-0.0000000000000002
220
1.0
230
-0.0000000000000002
  0
LINE
  5
E733
  8
0
  6
VERDECKT
 62
     1
 10
45.9999999999996518
 20
17.0000000000000711
 30
-0.0000000000000038
 11
44.9999999999998792
 21
18.0000000000000711
 31
-0.000000000000004
210
-0.0000000000000002
220
1.0
230
-0.0000000000000002
  0
LINE
  5
E734
  8
0
  6
VERDECKT
 62
     1
 10
54.0
 20
17.0000000000000817
 30
-0.0000000000000038
 11
54.9999999999997726
 21
18.0000000000000711
 31
-0.000000000000004
210
-0.0000000000000002
220
1.0
230
-0.0000000000000002
  0
LINE
  5
E735
  8
0
  6
VERDECKT
 62
     1
 10
54.0
 20
16.9999999999999609
 30
-0.0000000000000038
 11
54.9999999999997797
 21
15.9999999999999591
 31
-0.0000000000000036
210
-0.0000000000000002
220
1.0
230
-0.0000000000000002
  0
LINE
  5
E736
  8
0
  6
VERDECKT
 62
     1
 10
45.9999999999996518
 20
16.9999999999999503
 30
-0.0000000000000038
 11
44.9999999999998792
 21
15.9999999999999591
 31
-0.0000000000000036
210
-0.0000000000000002
220
1.0
230
-0.0000000000000002
  0
LINE
  5
E737
  8
0
  6
VERDECKT
 62
     1
 10
45.9999999999993676
 20
15.0000000000000107
 30
-0.0000000000000033
 11
44.9999999999998295
 21
16.0000000000000107
 31
-0.0000000000000036
210
-0.0000000000000002
220
1.0
230
-0.0000000000000002
  0
LINE
  5
E738
  8
0
  6
VERDECKT
 62
     1
 10
54.0000000000002913
 20
15.0000000000000195
 30
-0.0000000000000033
 11
54.9999999999998295
 21
16.0000000000000213
 31
-0.0000000000000036
210
-0.0000000000000002
220
1.0
230
-0.0000000000000002
  0
LINE
  5
E739
  8
0
  6
VERDECKT
 62
     1
 10
54.0000000000003411
 20
15.0000000000000799
 30
-0.0000000000000033
 11
55.0000000000001208
 21
14.0000000000000799
 31
-0.0000000000000031
210
-0.0000000000000002
220
1.0
230
-0.0000000000000002
  0
LINE
  5
E73A
  8
0
  6
VERDECKT
 62
     1
 10
45.9999999999993179
 20
15.0000000000000693
 30
-0.0000000000000033
 11
44.9999999999995381
 21
14.0000000000000693
 31
-0.0000000000000031
210
-0.0000000000000002
220
1.0
230
-0.0000000000000002
  0
LINE
  5
E73B
  8
0
  6
VERDECKT
 62
     1
 10
45.9999999999993321
 20
12.9999999999999591
 30
-0.0000000000000029
 11
44.9999999999995524
 21
13.9999999999999591
 31
-0.0000000000000031
210
-0.0000000000000002
220
1.0
230
-0.0000000000000002
  0
LINE
  5
E73C
  8
0
  6
VERDECKT
 62
     1
 10
54.0000000000003482
 20
12.9999999999999591
 30
-0.0000000000000029
 11
55.0000000000001279
 21
13.9999999999999591
 31
-0.0000000000000031
210
-0.0000000000000002
220
1.0
230
-0.0000000000000002
  0
LINE
  5
E73D
  8
0
  6
VERDECKT
 62
     1
 10
54.0000000000002984
 20
13.0000000000000195
 30
-0.0000000000000029
 11
54.9999999999998366
 21
12.0000000000000195
 31
-0.0000000000000027
210
-0.0000000000000002
220
1.0
230
-0.0000000000000002
  0
LINE
  5
E73E
  8
0
  6
VERDECKT
 62
     1
 10
45.9999999999993818
 20
13.0000000000000107
 30
-0.0000000000000029
 11
44.9999999999998366
 21
12.0000000000000107
 31
-0.0000000000000027
210
-0.0000000000000002
220
1.0
230
-0.0000000000000002
  0
LINE
  5
E73F
  8
0
  6
VERDECKT
 62
     1
 10
45.9999999999993818
 20
11.0000000000000107
 30
-0.0000000000000024
 11
44.9999999999998366
 21
12.0000000000000107
 31
-0.0000000000000027
210
-0.0000000000000002
220
1.0
230
-0.0000000000000002
  0
LINE
  5
E740
  8
0
  6
VERDECKT
 62
     1
 10
54.0000000000002984
 20
11.0000000000000195
 30
-0.0000000000000024
 11
54.9999999999998366
 21
12.0000000000000195
 31
-0.0000000000000027
210
-0.0000000000000002
220
1.0
230
-0.0000000000000002
  0
LINE
  5
E741
  8
0
  6
VERDECKT
 62
     1
 10
54.0000000000002984
 20
11.0000000000000195
 30
-0.0000000000000024
 11
54.9999999999998366
 21
10.0000000000000195
 31
-0.0000000000000022
210
-0.0000000000000002
220
1.0
230
-0.0000000000000002
  0
LINE
  5
E742
  8
0
  6
VERDECKT
 62
     1
 10
45.9999999999993818
 20
11.0000000000000107
 30
-0.0000000000000024
 11
44.9999999999998366
 21
10.0000000000000107
 31
-0.0000000000000022
210
-0.0000000000000002
220
1.0
230
-0.0000000000000002
  0
LINE
  5
E743
  8
0
  6
VERDECKT
 62
     1
 10
45.9999999999993818
 20
9.0000000000000124
 30
-0.000000000000002
 11
44.9999999999998366
 21
10.0000000000000107
 31
-0.0000000000000022
210
-0.0000000000000002
220
1.0
230
-0.0000000000000002
  0
LINE
  5
E744
  8
0
  6
VERDECKT
 62
     1
 10
54.0000000000002984
 20
9.0000000000000178
 30
-0.000000000000002
 11
54.9999999999998366
 21
10.0000000000000195
 31
-0.0000000000000022
210
-0.0000000000000002
220
1.0
230
-0.0000000000000002
  0
LINE
  5
E745
  8
0
  6
VERDECKT
 62
     1
 10
54.0000000000002984
 20
9.0000000000000178
 30
-0.000000000000002
 11
54.9999999999998366
 21
8.0000000000000195
 31
-0.0000000000000018
210
-0.0000000000000002
220
1.0
230
-0.0000000000000002
  0
LINE
  5
E746
  8
0
  6
VERDECKT
 62
     1
 10
45.9999999999993818
 20
9.0000000000000124
 30
-0.000000000000002
 11
44.9999999999998366
 21
8.0000000000000107
 31
-0.0000000000000018
210
-0.0000000000000002
220
1.0
230
-0.0000000000000002
  0
LINE
  5
E747
  8
0
  6
VERDECKT
 62
     1
 10
45.9999999999993818
 20
7.0000000000000098
 30
-0.0000000000000016
 11
44.9999999999998366
 21
8.0000000000000107
 31
-0.0000000000000018
210
-0.0000000000000002
220
1.0
230
-0.0000000000000002
  0
LINE
  5
E748
  8
0
  6
VERDECKT
 62
     1
 10
54.0000000000002984
 20
7.0000000000000169
 30
-0.0000000000000016
 11
54.9999999999998366
 21
8.0000000000000195
 31
-0.0000000000000018
210
-0.0000000000000002
220
1.0
230
-0.0000000000000002
  0
LINE
  5
E749
  8
0
  6
VERDECKT
 62
     1
 10
54.0000000000002984
 20
7.0000000000000169
 30
-0.0000000000000016
 11
54.9999999999998366
 21
6.0000000000000169
 31
-0.0000000000000013
210
-0.0000000000000002
220
1.0
230
-0.0000000000000002
  0
LINE
  5
E74A
  8
0
  6
VERDECKT
 62
     1
 10
45.9999999999993818
 20
7.0000000000000098
 30
-0.0000000000000016
 11
44.9999999999998366
 21
6.0000000000000089
 31
-0.0000000000000013
210
-0.0000000000000002
220
1.0
230
-0.0000000000000002
  0
LINE
  5
E74B
  8
0
  6
VERDECKT
 62
     1
 10
45.9999999999993818
 20
5.0000000000000089
 30
-0.0000000000000011
 11
44.9999999999998366
 21
6.0000000000000089
 31
-0.0000000000000013
210
-0.0000000000000002
220
1.0
230
-0.0000000000000002
  0
LINE
  5
E74C
  8
0
  6
VERDECKT
 62
     1
 10
54.0000000000002984
 20
5.000000000000016
 30
-0.0000000000000011
 11
54.9999999999998366
 21
6.0000000000000169
 31
-0.0000000000000013
210
-0.0000000000000002
220
1.0
230
-0.0000000000000002
  0
LINE
  5
E74D
  8
0
  6
VERDECKT
 62
     1
 10
54.0000000000003482
 20
5.0000000000000728
 30
-0.0000000000000011
 11
55.0000000000001279
 21
4.0000000000000728
 31
-0.0000000000000009
210
-0.0000000000000002
220
1.0
230
-0.0000000000000002
  0
LINE
  5
E74E
  8
0
  6
VERDECKT
 62
     1
 10
45.9999999999993321
 20
5.0000000000000666
 30
-0.0000000000000011
 11
44.9999999999995524
 21
4.0000000000000648
 31
-0.0000000000000009
210
-0.0000000000000002
220
1.0
230
-0.0000000000000002
  0
LINE
  5
E74F
  8
0
  6
VERDECKT
 62
     1
 10
45.9999999999993321
 20
2.999999999999952
 30
-0.0000000000000007
 11
44.9999999999995524
 21
3.999999999999952
 31
-0.0000000000000009
210
-0.0000000000000002
220
1.0
230
-0.0000000000000002
  0
LINE
  5
E750
  8
0
  6
VERDECKT
 62
     1
 10
54.0000000000003482
 20
2.9999999999999578
 30
-0.0000000000000007
 11
55.0000000000001279
 21
3.99999999999996
 31
-0.0000000000000009
210
-0.0000000000000002
220
1.0
230
-0.0000000000000002
  0
LINE
  5
E751
  8
0
  6
VERDECKT
 62
     1
 10
54.0000000000002984
 20
3.0000000000000151
 30
-0.0000000000000007
 11
54.9999999999998366
 21
2.0000000000000151
 31
-0.0000000000000004
210
-0.0000000000000002
220
1.0
230
-0.0000000000000002
  0
LINE
  5
E752
  8
0
  6
VERDECKT
 62
     1
 10
45.9999999999993818
 20
3.0000000000000089
 30
-0.0000000000000007
 11
44.9999999999998366
 21
2.0000000000000071
 31
-0.0000000000000004
210
-0.0000000000000002
220
1.0
230
-0.0000000000000002
  0
LINE
  5
E753
  8
0
  6
VERDECKT
 62
     1
 10
45.9999999999993818
 20
1.000000000000008
 30
-0.0000000000000002
 11
44.9999999999998366
 21
2.0000000000000071
 31
-0.0000000000000004
210
-0.0000000000000002
220
1.0
230
-0.0000000000000002
  0
LINE
  5
E754
  8
0
  6
VERDECKT
 62
     1
 10
54.0000000000002984
 20
1.000000000000014
 30
-0.0000000000000002
 11
54.9999999999998366
 21
2.0000000000000151
 31
-0.0000000000000004
210
-0.0000000000000002
220
1.0
230
-0.0000000000000002
  0
LINE
  5
E755
  8
0
  6
VERDECKT
 62
     1
 10
54.0000000000003482
 20
1.0000000000000751
 30
-0.0000000000000002
 11
55.0000000000001421
 21
0.0000000000000719
 31
0.0
210
-0.0000000000000002
220
1.0
230
-0.0000000000000002
  0
LINE
  5
E756
  8
0
  6
VERDECKT
 62
     1
 10
45.9999999999993321
 20
1.0000000000000611
 30
-0.0000000000000002
 11
44.9999999999995595
 21
0.0000000000000639
 31
0.0
210
-0.0000000000000002
220
1.0
230
-0.0000000000000002
  0
LINE
  5
E757
  8
0
  6
VERDECKT
 62
     1
 10
45.9999999999996803
 20
29.0000000000001101
 30
-0.0000000000000064
 11
44.9999999999999076
 21
30.0000000000002203
 31
-0.0000000000000067
210
-0.0000000000000002
220
1.0
230
-0.0000000000000002
  0
LINE
  5
E758
  8
0
  6
VERDECKT
 62
     1
 10
53.9999999999999716
 20
29.0000000000001101
 30
-0.0000000000000064
 11
54.9999999999997513
 21
30.0000000000002309
 31
-0.0000000000000067
210
-0.0000000000000002
220
1.0
230
-0.0000000000000002
  0
LINE
  5
E759
  8
0
  6
VERDECKT
 62
     1
 10
54.0
 20
28.9999999999999716
 30
-0.0000000000000064
 11
54.9999999999997726
 21
27.9999999999999716
 31
-0.0000000000000062
210
-0.0000000000000002
220
1.0
230
-0.0000000000000002
  0
LINE
  5
E75A
  8
0
  6
VERDECKT
 62
     1
 10
45.9999999999996518
 20
28.9999999999999716
 30
-0.0000000000000064
 11
44.9999999999998792
 21
27.9999999999999609
 31
-0.0000000000000062
210
-0.0000000000000002
220
1.0
230
-0.0000000000000002
  0
LINE
  5
E75B
  8
0
  6
VERDECKT
 62
     1
 10
45.9999999999996518
 20
27.0000000000000817
 30
-0.000000000000006
 11
44.9999999999998792
 21
28.0000000000000817
 31
-0.0000000000000062
210
-0.0000000000000002
220
1.0
230
-0.0000000000000002
  0
LINE
  5
E75C
  8
0
  6
VERDECKT
 62
     1
 10
54.0
 20
27.0000000000000817
 30
-0.000000000000006
 11
54.9999999999997726
 21
28.0000000000000888
 31
-0.0000000000000062
210
-0.0000000000000002
220
1.0
230
-0.0000000000000002
  0
LINE
  5
E75D
  8
0
  6
VERDECKT
 62
     1
 10
54.0
 20
26.9999999999999716
 30
-0.000000000000006
 11
54.9999999999997797
 21
25.9999999999999716
 31
-0.0000000000000058
210
-0.0000000000000002
220
1.0
230
-0.0000000000000002
  0
LINE
  5
E75E
  8
0
  6
VERDECKT
 62
     1
 10
45.9999999999996518
 20
26.9999999999999609
 30
-0.000000000000006
 11
44.9999999999998792
 21
25.9999999999999609
 31
-0.0000000000000058
210
-0.0000000000000002
220
1.0
230
-0.0000000000000002
  0
LINE
  5
E75F
  8
0
  6
VERDECKT
 62
     1
 10
45.9999999999993676
 20
25.0000000000000213
 30
-0.0000000000000056
 11
44.9999999999998295
 21
26.0000000000000213
 31
-0.0000000000000058
210
-0.0000000000000002
220
1.0
230
-0.0000000000000002
  0
LINE
  5
E760
  8
0
  6
VERDECKT
 62
     1
 10
54.0000000000002913
 20
25.0000000000000284
 30
-0.0000000000000056
 11
54.9999999999998366
 21
26.0000000000000284
 31
-0.0000000000000058
210
-0.0000000000000002
220
1.0
230
-0.0000000000000002
  0
LINE
  5
E761
  8
0
  6
VERDECKT
 62
     1
 10
54.0000000000003411
 20
25.0000000000000817
 30
-0.0000000000000056
 11
55.0000000000001208
 21
24.0000000000000817
 31
-0.0000000000000053
210
-0.0000000000000002
220
1.0
230
-0.0000000000000002
  0
LINE
  5
E762
  8
0
  6
VERDECKT
 62
     1
 10
45.9999999999993179
 20
25.0000000000000711
 30
-0.0000000000000056
 11
44.9999999999995381
 21
24.0000000000000711
 31
-0.0000000000000053
210
-0.0000000000000002
220
1.0
230
-0.0000000000000002
  0
LINE
  5
E763
  8
0
  6
VERDECKT
 62
     1
 10
45.9999999999993179
 20
22.9999999999999609
 30
-0.0000000000000051
 11
44.9999999999995381
 21
23.9999999999999609
 31
-0.0000000000000053
210
-0.0000000000000002
220
1.0
230
-0.0000000000000002
  0
LINE
  5
E764
  8
0
  6
VERDECKT
 62
     1
 10
54.0000000000003411
 20
22.9999999999999716
 30
-0.0000000000000051
 11
55.0000000000001208
 21
23.9999999999999716
 31
-0.0000000000000053
210
-0.0000000000000002
220
1.0
230
-0.0000000000000002
  0
LINE
  5
E765
  8
0
  6
VERDECKT
 62
     1
 10
54.0000000000002913
 20
23.0000000000000213
 30
-0.0000000000000051
 11
54.9999999999998366
 21
22.0000000000000213
 31
-0.0000000000000049
210
-0.0000000000000002
220
1.0
230
-0.0000000000000002
  0
LINE
  5
E766
  8
0
  6
VERDECKT
 62
     1
 10
45.9999999999993676
 20
23.0000000000000213
 30
-0.0000000000000051
 11
44.9999999999998295
 21
22.0000000000000213
 31
-0.0000000000000049
210
-0.0000000000000002
220
1.0
230
-0.0000000000000002
  0
LINE
  5
E767
  8
0
  6
VERDECKT
 62
     1
 10
45.9999999999993676
 20
21.0000000000000213
 30
-0.0000000000000047
 11
44.9999999999998295
 21
22.0000000000000213
 31
-0.0000000000000049
210
-0.0000000000000002
220
1.0
230
-0.0000000000000002
  0
LINE
  5
E768
  8
0
  6
VERDECKT
 62
     1
 10
54.0000000000002913
 20
21.0000000000000284
 30
-0.0000000000000047
 11
54.9999999999998366
 21
22.0000000000000213
 31
-0.0000000000000049
210
-0.0000000000000002
220
1.0
230
-0.0000000000000002
  0
LINE
  5
E769
  8
0
  6
VERDECKT
 62
     1
 10
54.0000000000002913
 20
21.0000000000000284
 30
-0.0000000000000047
 11
54.9999999999997797
 21
20.0000000000000817
 31
-0.0000000000000044
210
-0.0000000000000002
220
1.0
230
-0.0000000000000002
  0
LINE
  5
E76A
  8
0
  6
VERDECKT
 62
     1
 10
45.9999999999993676
 20
21.0000000000000213
 30
-0.0000000000000047
 11
44.9999999999998792
 21
20.0000000000000711
 31
-0.0000000000000044
210
-0.0000000000000002
220
1.0
230
-0.0000000000000002
  0
LINE
  5
E76B
  8
0
  6
VERDECKT
 62
     1
 10
43.399999999999693
 20
52.0000000000000924
 30
-0.0000000000000115
 11
43.3999999999997002
 21
42.0000000000000924
 31
-0.0000000000000093
210
-0.0000000000000002
220
1.0
230
-0.0000000000000002
  0
LINE
  5
E76C
  8
0
  6
VERDECKT
 62
     1
 10
45.399999999999693
 20
52.0000000000000924
 30
-0.0000000000000115
 11
45.3999999999997002
 21
42.0000000000000924
 31
-0.0000000000000093
210
-0.0000000000000002
220
1.0
230
-0.0000000000000002
  0
LINE
  5
E76D
  8
0
  6
VERDECKT
 62
     1
 10
43.3999999999997002
 20
42.0000000000000924
 30
-0.0000000000000093
 11
45.3999999999997002
 21
42.0000000000000924
 31
-0.0000000000000093
210
-0.0000000000000002
220
1.0
230
-0.0000000000000002
  0
LINE
  5
E76E
  8
0
  6
VERDECKT
 62
     1
 10
0.9999999999997097
 20
52.0000000000000924
 30
-0.0000000000000115
 11
0.999999999999712
 21
42.0000000000000924
 31
-0.0000000000000093
210
-0.0000000000000002
220
1.0
230
-0.0000000000000002
  0
LINE
  5
E76F
  8
0
  6
VERDECKT
 62
     1
 10
-1.00000000000029
 20
52.0000000000000924
 30
-0.0000000000000115
 11
-1.000000000000288
 21
42.0000000000000924
 31
-0.0000000000000093
210
-0.0000000000000002
220
1.0
230
-0.0000000000000002
  0
LINE
  5
E770
  8
0
  6
VERDECKT
 62
     1
 10
-1.000000000000288
 20
42.0000000000000924
 30
-0.0000000000000093
 11
0.999999999999712
 21
42.0000000000000924
 31
-0.0000000000000093
210
-0.0000000000000002
220
1.0
230
-0.0000000000000002
  0
LINE
  5
E771
  8
0
  6
VERDECKT
 62
     1
 10
-43.400000000000297
 20
52.0000000000000924
 30
-0.0000000000000115
 11
-43.400000000000297
 21
42.0000000000000924
 31
-0.0000000000000093
210
-0.0000000000000002
220
1.0
230
-0.0000000000000002
  0
LINE
  5
E772
  8
0
  6
VERDECKT
 62
     1
 10
-45.4000000000003112
 20
52.0000000000000924
 30
-0.0000000000000115
 11
-45.400000000000297
 21
42.0000000000000924
 31
-0.0000000000000093
210
-0.0000000000000002
220
1.0
230
-0.0000000000000002
  0
LINE
  5
E773
  8
0
  6
VERDECKT
 62
     1
 10
-45.400000000000297
 20
42.0000000000000924
 30
-0.0000000000000093
 11
-43.400000000000297
 21
42.0000000000000924
 31
-0.0000000000000093
210
-0.0000000000000002
220
1.0
230
-0.0000000000000002
  0
LINE
  5
E774
  8
0
  6
VERDECKT
 62
     1
 10
-54.5000000000003411
 20
52.0000000000000782
 30
-0.0000000000000115
 11
-54.5000000000003268
 21
42.0000000000000782
 31
-0.0000000000000093
210
-0.0000000000000002
220
1.0
230
-0.0000000000000002
  0
LINE
  5
E775
  8
0
  6
VERDECKT
 62
     1
 10
-56.5000000000003411
 20
52.0000000000000782
 30
-0.0000000000000115
 11
-56.5000000000003411
 21
42.0000000000000782
 31
-0.0000000000000093
210
-0.0000000000000002
220
1.0
230
-0.0000000000000002
  0
LINE
  5
E776
  8
0
  6
VERDECKT
 62
     1
 10
-56.5000000000003411
 20
42.0000000000000782
 30
-0.0000000000000093
 11
-54.5000000000003268
 21
42.0000000000000782
 31
-0.0000000000000093
210
-0.0000000000000002
220
1.0
230
-0.0000000000000002
  0
LINE
  5
E777
  8
0
  6
VERDECKT
 62
     1
 10
-12.1000000000003105
 20
52.0000000000000924
 30
-0.0000000000000115
 11
-12.1000000000003105
 21
42.0000000000000924
 31
-0.0000000000000093
210
-0.0000000000000002
220
1.0
230
-0.0000000000000002
  0
LINE
  5
E778
  8
0
  6
VERDECKT
 62
     1
 10
-12.1000000000003105
 20
42.0000000000000924
 30
-0.0000000000000093
 11
-10.1000000000003105
 21
42.0000000000000924
 31
-0.0000000000000093
210
-0.0000000000000002
220
1.0
230
-0.0000000000000002
  0
LINE
  5
E779
  8
0
  6
VERDECKT
 62
     1
 10
-10.1000000000003105
 20
52.0000000000000924
 30
-0.0000000000000115
 11
-10.1000000000003105
 21
42.0000000000000924
 31
-0.0000000000000093
210
-0.0000000000000002
220
1.0
230
-0.0000000000000002
  0
LINE
  5
E77A
  8
0
  6
VERDECKT
 62
     1
 10
32.2999999999996774
 20
52.0000000000000924
 30
-0.0000000000000115
 11
32.2999999999996916
 21
42.0000000000000924
 31
-0.0000000000000093
210
-0.0000000000000002
220
1.0
230
-0.0000000000000002
  0
LINE
  5
E77B
  8
0
  6
VERDECKT
 62
     1
 10
34.2999999999996916
 20
52.0000000000000924
 30
-0.0000000000000115
 11
34.2999999999996916
 21
42.0000000000000924
 31
-0.0000000000000093
210
-0.0000000000000002
220
1.0
230
-0.0000000000000002
  0
LINE
  5
E77C
  8
0
  6
VERDECKT
 62
     1
 10
32.2999999999996916
 20
42.0000000000000924
 30
-0.0000000000000093
 11
34.2999999999996916
 21
42.0000000000000924
 31
-0.0000000000000093
210
-0.0000000000000002
220
1.0
230
-0.0000000000000002
  0
LINE
  5
E77D
  8
0
  6
VERDECKT
 62
     1
 10
56.4999999999997087
 20
52.0000000000000995
 30
-0.0000000000000115
 11
56.4999999999997087
 21
42.0000000000000995
 31
-0.0000000000000093
210
-0.0000000000000002
220
1.0
230
-0.0000000000000002
  0
LINE
  5
E77E
  8
0
  6
VERDECKT
 62
     1
 10
54.4999999999997016
 20
52.0000000000000995
 30
-0.0000000000000115
 11
54.4999999999997016
 21
42.0000000000000995
 31
-0.0000000000000093
210
-0.0000000000000002
220
1.0
230
-0.0000000000000002
  0
LINE
  5
E77F
  8
0
  6
VERDECKT
 62
     1
 10
54.4999999999997087
 20
42.0000000000000995
 30
-0.0000000000000093
 11
56.4999999999997087
 21
42.0000000000000995
 31
-0.0000000000000093
210
-0.0000000000000002
220
1.0
230
-0.0000000000000002
  0
LINE
  5
E780
  8
0
  6
VERDECKT
 62
     1
 10
12.0999999999996906
 20
52.0000000000000924
 30
-0.0000000000000115
 11
12.0999999999996994
 21
42.0000000000000924
 31
-0.0000000000000093
210
-0.0000000000000002
220
1.0
230
-0.0000000000000002
  0
LINE
  5
E781
  8
0
  6
VERDECKT
 62
     1
 10
10.0999999999996906
 20
52.0000000000000924
 30
-0.0000000000000115
 11
10.0999999999996994
 21
42.0000000000000924
 31
-0.0000000000000093
210
-0.0000000000000002
220
1.0
230
-0.0000000000000002
  0
LINE
  5
E782
  8
0
  6
VERDECKT
 62
     1
 10
10.0999999999996994
 20
42.0000000000000924
 30
-0.0000000000000093
 11
12.0999999999996994
 21
42.0000000000000924
 31
-0.0000000000000093
210
-0.0000000000000002
220
1.0
230
-0.0000000000000002
  0
LINE
  5
E783
  8
0
  6
VERDECKT
 62
     1
 10
-32.3000000000003098
 20
52.0000000000000924
 30
-0.0000000000000115
 11
-32.3000000000003027
 21
42.0000000000000924
 31
-0.0000000000000093
210
-0.0000000000000002
220
1.0
230
-0.0000000000000002
  0
LINE
  5
E784
  8
0
  6
VERDECKT
 62
     1
 10
-34.3000000000003027
 20
52.0000000000000924
 30
-0.0000000000000115
 11
-34.3000000000003027
 21
42.0000000000000924
 31
-0.0000000000000093
210
-0.0000000000000002
220
1.0
230
-0.0000000000000002
  0
LINE
  5
E785
  8
0
  6
VERDECKT
 62
     1
 10
-34.3000000000003027
 20
42.0000000000000924
 30
-0.0000000000000093
 11
-32.3000000000003027
 21
42.0000000000000924
 31
-0.0000000000000093
210
-0.0000000000000002
220
1.0
230
-0.0000000000000002
  0
LINE
  5
E786
  8
0
  6
VERDECKT
 62
     1
 10
-65.6000000000003354
 20
52.0000000000000782
 30
-0.0000000000000115
 11
-65.6000000000003354
 21
42.0000000000000782
 31
-0.0000000000000093
210
-0.0000000000000002
220
1.0
230
-0.0000000000000002
  0
LINE
  5
E787
  8
0
  6
VERDECKT
 62
     1
 10
-67.6000000000003354
 20
52.0000000000000782
 30
-0.0000000000000115
 11
-67.6000000000003354
 21
42.0000000000000782
 31
-0.0000000000000093
210
-0.0000000000000002
220
1.0
230
-0.0000000000000002
  0
LINE
  5
E788
  8
0
  6
VERDECKT
 62
     1
 10
-67.6000000000003354
 20
42.0000000000000782
 30
-0.0000000000000093
 11
-65.6000000000003354
 21
42.0000000000000782
 31
-0.0000000000000093
210
-0.0000000000000002
220
1.0
230
-0.0000000000000002
  0
LINE
  5
E789
  8
0
  6
VERDECKT
 62
     1
 10
-23.2000000000003297
 20
52.0000000000000924
 30
-0.0000000000000115
 11
-23.2000000000003297
 21
42.0000000000000924
 31
-0.0000000000000093
210
-0.0000000000000002
220
1.0
230
-0.0000000000000002
  0
LINE
  5
E78A
  8
0
  6
VERDECKT
 62
     1
 10
-23.2000000000003297
 20
42.0000000000000924
 30
-0.0000000000000093
 11
-21.200000000000319
 21
42.0000000000000924
 31
-0.0000000000000093
210
-0.0000000000000002
220
1.0
230
-0.0000000000000002
  0
LINE
  5
E78B
  8
0
  6
VERDECKT
 62
     1
 10
-21.200000000000319
 20
52.0000000000000924
 30
-0.0000000000000115
 11
-21.200000000000319
 21
42.0000000000000924
 31
-0.0000000000000093
210
-0.0000000000000002
220
1.0
230
-0.0000000000000002
  0
LINE
  5
E78C
  8
0
  6
VERDECKT
 62
     1
 10
23.1999999999996795
 20
52.0000000000000924
 30
-0.0000000000000115
 11
23.1999999999996795
 21
42.0000000000000924
 31
-0.0000000000000093
210
-0.0000000000000002
220
1.0
230
-0.0000000000000002
  0
LINE
  5
E78D
  8
0
  6
VERDECKT
 62
     1
 10
21.1999999999996795
 20
52.0000000000000924
 30
-0.0000000000000115
 11
21.1999999999996795
 21
42.0000000000000924
 31
-0.0000000000000093
210
-0.0000000000000002
220
1.0
230
-0.0000000000000002
  0
LINE
  5
E78E
  8
0
  6
VERDECKT
 62
     1
 10
21.1999999999996902
 20
42.0000000000000924
 30
-0.0000000000000093
 11
23.1999999999996795
 21
42.0000000000000924
 31
-0.0000000000000093
210
-0.0000000000000002
220
1.0
230
-0.0000000000000002
  0
LINE
  5
E78F
  8
0
  6
VERDECKT
 62
     1
 10
67.5999999999997101
 20
52.0000000000000995
 30
-0.0000000000000115
 11
67.5999999999997101
 21
42.0000000000000995
 31
-0.0000000000000093
210
-0.0000000000000002
220
1.0
230
-0.0000000000000002
  0
LINE
  5
E790
  8
0
  6
VERDECKT
 62
     1
 10
65.5999999999997101
 20
52.0000000000000995
 30
-0.0000000000000115
 11
65.5999999999997101
 21
42.0000000000000995
 31
-0.0000000000000093
210
-0.0000000000000002
220
1.0
230
-0.0000000000000002
  0
LINE
  5
E791
  8
0
  6
VERDECKT
 62
     1
 10
65.5999999999997101
 20
42.0000000000000995
 30
-0.0000000000000093
 11
67.5999999999997101
 21
42.0000000000000995
 31
-0.0000000000000093
210
-0.0000000000000002
220
1.0
230
-0.0000000000000002
  0
LINE
  5
E792
  8
0
  6
VERDECKT
 62
     1
 10
-54.0000000000000995
 20
19.0
 30
-0.0000000000000042
 11
-45.9999999999996376
 21
19.0
 31
-0.0000000000000042
210
-0.0000000000000002
220
1.0
230
-0.0000000000000002
  0
LINE
  5
E793
  8
0
  6
VERDECKT
 62
     1
 10
-54.9999999999998721
 20
20.0000000000001101
 30
-0.0000000000000044
 11
-44.9999999999998579
 21
20.0000000000001101
 31
-0.0000000000000044
210
-0.0000000000000002
220
1.0
230
-0.0000000000000002
  0
LINE
  5
E794
  8
0
  6
VERDECKT
 62
     1
 10
-54.9999999999998721
 20
18.0
 30
-0.000000000000004
 11
-44.9999999999998579
 21
18.0
 31
-0.000000000000004
210
-0.0000000000000002
220
1.0
230
-0.0000000000000002
  0
LINE
  5
E795
  8
0
  6
VERDECKT
 62
     1
 10
-54.0000000000000995
 20
17.0
 30
-0.0000000000000038
 11
-45.9999999999996376
 21
17.0
 31
-0.0000000000000038
210
-0.0000000000000002
220
1.0
230
-0.0000000000000002
  0
LINE
  5
E796
  8
0
  6
VERDECKT
 62
     1
 10
-54.9999999999998721
 20
15.9999999999999893
 30
-0.0000000000000036
 11
-44.9999999999998579
 21
15.9999999999999893
 31
-0.0000000000000036
210
-0.0000000000000002
220
1.0
230
-0.0000000000000002
  0
LINE
  5
E797
  8
0
  6
VERDECKT
 62
     1
 10
-54.0000000000003197
 20
14.9999999999999893
 30
-0.0000000000000033
 11
-45.9999999999994031
 21
15.0
 31
-0.0000000000000033
210
-0.0000000000000002
220
1.0
230
-0.0000000000000002
  0
LINE
  5
E798
  8
0
  6
VERDECKT
 62
     1
 10
-55.0000000000000924
 20
13.9999999999999893
 30
-0.0000000000000031
 11
-44.9999999999996305
 21
13.9999999999999893
 31
-0.0000000000000031
210
-0.0000000000000002
220
1.0
230
-0.0000000000000002
  0
LINE
  5
E799
  8
0
  6
VERDECKT
 62
     1
 10
-54.0000000000003197
 20
12.9999999999999893
 30
-0.0000000000000029
 11
-45.9999999999994031
 21
12.9999999999999893
 31
-0.0000000000000029
210
-0.0000000000000002
220
1.0
230
-0.0000000000000002
  0
LINE
  5
E79A
  8
0
  6
VERDECKT
 62
     1
 10
-54.9999999999998579
 20
11.9999999999999893
 30
-0.0000000000000027
 11
-44.9999999999998508
 21
11.9999999999999893
 31
-0.0000000000000027
210
-0.0000000000000002
220
1.0
230
-0.0000000000000002
  0
LINE
  5
E79B
  8
0
  6
VERDECKT
 62
     1
 10
-54.0000000000003197
 20
10.9999999999999893
 30
-0.0000000000000024
 11
-45.9999999999994031
 21
10.9999999999999893
 31
-0.0000000000000024
210
-0.0000000000000002
220
1.0
230
-0.0000000000000002
  0
LINE
  5
E79C
  8
0
  6
VERDECKT
 62
     1
 10
-54.9999999999998579
 20
9.9999999999999911
 30
-0.0000000000000022
 11
-44.9999999999998508
 21
9.9999999999999911
 31
-0.0000000000000022
210
-0.0000000000000002
220
1.0
230
-0.0000000000000002
  0
LINE
  5
E79D
  8
0
  6
VERDECKT
 62
     1
 10
-54.0000000000003197
 20
8.9999999999999911
 30
-0.000000000000002
 11
-45.9999999999994031
 21
8.9999999999999911
 31
-0.000000000000002
210
-0.0000000000000002
220
1.0
230
-0.0000000000000002
  0
LINE
  5
E79E
  8
0
  6
VERDECKT
 62
     1
 10
-54.9999999999998579
 20
7.9999999999999911
 30
-0.0000000000000018
 11
-44.9999999999998508
 21
7.9999999999999929
 31
-0.0000000000000018
210
-0.0000000000000002
220
1.0
230
-0.0000000000000002
  0
LINE
  5
E79F
  8
0
  6
VERDECKT
 62
     1
 10
-54.0000000000003197
 20
6.9999999999999911
 30
-0.0000000000000016
 11
-45.9999999999994031
 21
6.9999999999999929
 31
-0.0000000000000016
210
-0.0000000000000002
220
1.0
230
-0.0000000000000002
  0
LINE
  5
E7A0
  8
0
  6
VERDECKT
 62
     1
 10
-54.9999999999998579
 20
5.9999999999999902
 30
-0.0000000000000013
 11
-44.9999999999998508
 21
5.999999999999992
 31
-0.0000000000000013
210
-0.0000000000000002
220
1.0
230
-0.0000000000000002
  0
LINE
  5
E7A1
  8
0
  6
VERDECKT
 62
     1
 10
-54.0000000000003197
 20
4.9999999999999893
 30
-0.0000000000000011
 11
-45.9999999999994031
 21
4.999999999999992
 31
-0.0000000000000011
210
-0.0000000000000002
220
1.0
230
-0.0000000000000002
  0
LINE
  5
E7A2
  8
0
  6
VERDECKT
 62
     1
 10
-55.0000000000000924
 20
3.9999999999999889
 30
-0.0000000000000009
 11
-44.9999999999996305
 21
3.9999999999999911
 31
-0.0000000000000009
210
-0.0000000000000002
220
1.0
230
-0.0000000000000002
  0
LINE
  5
E7A3
  8
0
  6
VERDECKT
 62
     1
 10
-54.0000000000003197
 20
2.9999999999999889
 30
-0.0000000000000007
 11
-45.9999999999994031
 21
2.9999999999999898
 31
-0.0000000000000007
210
-0.0000000000000002
220
1.0
230
-0.0000000000000002
  0
LINE
  5
E7A4
  8
0
  6
VERDECKT
 62
     1
 10
-54.9999999999998579
 20
1.9999999999999889
 30
-0.0000000000000004
 11
-44.9999999999998508
 21
1.99999999999999
 31
-0.0000000000000004
210
-0.0000000000000002
220
1.0
230
-0.0000000000000002
  0
LINE
  5
E7A5
  8
0
  6
VERDECKT
 62
     1
 10
-54.0000000000003197
 20
0.9999999999999886
 30
-0.0000000000000002
 11
-45.9999999999994031
 21
0.99999999999999
 31
-0.0000000000000002
210
-0.0000000000000002
220
1.0
230
-0.0000000000000002
  0
LINE
  5
E7A6
  8
0
  6
VERDECKT
 62
     1
 10
-54.0000000000001066
 20
29.0
 30
-0.0000000000000064
 11
-45.9999999999996518
 21
29.0
 31
-0.0000000000000064
210
-0.0000000000000002
220
1.0
230
-0.0000000000000002
  0
LINE
  5
E7A7
  8
0
  6
VERDECKT
 62
     1
 10
-54.9999999999998792
 20
28.0000000000000107
 30
-0.0000000000000062
 11
-44.9999999999998721
 21
28.0000000000000107
 31
-0.0000000000000062
210
-0.0000000000000002
220
1.0
230
-0.0000000000000002
  0
LINE
  5
E7A8
  8
0
  6
VERDECKT
 62
     1
 10
-54.0000000000001066
 20
27.0
 30
-0.000000000000006
 11
-45.9999999999996518
 21
27.0
 31
-0.000000000000006
210
-0.0000000000000002
220
1.0
230
-0.0000000000000002
  0
LINE
  5
E7A9
  8
0
  6
VERDECKT
 62
     1
 10
-54.9999999999998792
 20
26.0
 30
-0.0000000000000058
 11
-44.9999999999998721
 21
26.0
 31
-0.0000000000000058
210
-0.0000000000000002
220
1.0
230
-0.0000000000000002
  0
LINE
  5
E7AA
  8
0
  6
VERDECKT
 62
     1
 10
-54.0000000000003411
 20
25.0
 30
-0.0000000000000056
 11
-45.9999999999994102
 21
25.0
 31
-0.0000000000000056
210
-0.0000000000000002
220
1.0
230
-0.0000000000000002
  0
LINE
  5
E7AB
  8
0
  6
VERDECKT
 62
     1
 10
-55.0000000000000995
 20
24.0
 30
-0.0000000000000053
 11
-44.9999999999996376
 21
24.0
 31
-0.0000000000000053
210
-0.0000000000000002
220
1.0
230
-0.0000000000000002
  0
LINE
  5
E7AC
  8
0
  6
VERDECKT
 62
     1
 10
-54.0000000000003411
 20
23.0
 30
-0.0000000000000051
 11
-45.9999999999994102
 21
23.0
 31
-0.0000000000000051
210
-0.0000000000000002
220
1.0
230
-0.0000000000000002
  0
LINE
  5
E7AD
  8
0
  6
VERDECKT
 62
     1
 10
-54.9999999999998792
 20
22.0
 30
-0.0000000000000049
 11
-44.9999999999998721
 21
22.0
 31
-0.0000000000000049
210
-0.0000000000000002
220
1.0
230
-0.0000000000000002
  0
LINE
  5
E7AE
  8
0
  6
VERDECKT
 62
     1
 10
-54.0000000000003411
 20
21.0
 30
-0.0000000000000047
 11
-45.9999999999994102
 21
21.0
 31
-0.0000000000000047
210
-0.0000000000000002
220
1.0
230
-0.0000000000000002
  0
LINE
  5
E7AF
  8
0
  6
VERDECKT
 62
     1
 10
-54.0000000000000213
 20
19.0000000000000817
 30
-0.0000000000000042
 11
-54.9999999999997797
 21
20.000000000000199
 31
-0.0000000000000044
210
-0.0000000000000002
220
1.0
230
-0.0000000000000002
  0
LINE
  5
E7B0
  8
0
  6
VERDECKT
 62
     1
 10
-45.9999999999997229
 20
19.0000000000000817
 30
-0.0000000000000042
 11
-44.9999999999999503
 21
20.000000000000199
 31
-0.0000000000000044
210
-0.0000000000000002
220
1.0
230
-0.0000000000000002
  0
LINE
  5
E7B1
  8
0
  6
VERDECKT
 62
     1
 10
-45.9999999999996874
 20
18.9999999999999396
 30
-0.0000000000000042
 11
-44.9999999999999218
 21
17.9999999999999396
 31
-0.000000000000004
210
-0.0000000000000002
220
1.0
230
-0.0000000000000002
  0
LINE
  5
E7B2
  8
0
  6
VERDECKT
 62
     1
 10
-54.0000000000000426
 20
18.9999999999999396
 30
-0.0000000000000042
 11
-54.9999999999998224
 21
17.9999999999999396
 31
-0.000000000000004
210
-0.0000000000000002
220
1.0
230
-0.0000000000000002
  0
LINE
  5
E7B3
  8
0
  6
VERDECKT
 62
     1
 10
-54.0000000000000426
 20
17.0000000000000497
 30
-0.0000000000000038
 11
-54.9999999999998224
 21
18.0000000000000497
 31
-0.000000000000004
210
-0.0000000000000002
220
1.0
230
-0.0000000000000002
  0
LINE
  5
E7B4
  8
0
  6
VERDECKT
 62
     1
 10
-45.9999999999996874
 20
17.0000000000000497
 30
-0.0000000000000038
 11
-44.9999999999999218
 21
18.0000000000000497
 31
-0.000000000000004
210
-0.0000000000000002
220
1.0
230
-0.0000000000000002
  0
LINE
  5
E7B5
  8
0
  6
VERDECKT
 62
     1
 10
-45.9999999999996874
 20
16.9999999999999396
 30
-0.0000000000000038
 11
-44.9999999999999218
 21
15.9999999999999396
 31
-0.0000000000000036
210
-0.0000000000000002
220
1.0
230
-0.0000000000000002
  0
LINE
  5
E7B6
  8
0
  6
VERDECKT
 62
     1
 10
-54.0000000000000426
 20
16.9999999999999396
 30
-0.0000000000000038
 11
-54.9999999999998082
 21
15.9999999999999396
 31
-0.0000000000000036
210
-0.0000000000000002
220
1.0
230
-0.0000000000000002
  0
LINE
  5
E7B7
  8
0
  6
VERDECKT
 62
     1
 10
-54.0000000000003197
 20
14.9999999999999893
 30
-0.0000000000000033
 11
-54.9999999999998721
 21
15.9999999999999893
 31
-0.0000000000000036
210
-0.0000000000000002
220
1.0
230
-0.0000000000000002
  0
LINE
  5
E7B8
  8
0
  6
VERDECKT
 62
     1
 10
-45.9999999999994031
 20
15.0
 30
-0.0000000000000033
 11
-44.9999999999998579
 21
15.9999999999999893
 31
-0.0000000000000036
210
-0.0000000000000002
220
1.0
230
-0.0000000000000002
  0
LINE
  5
E7B9
  8
0
  6
VERDECKT
 62
     1
 10
-45.9999999999993392
 20
15.0000000000000497
 30
-0.0000000000000033
 11
-44.9999999999995666
 21
14.0000000000000497
 31
-0.0000000000000031
210
-0.0000000000000002
220
1.0
230
-0.0000000000000002
  0
LINE
  5
E7BA
  8
0
  6
VERDECKT
 62
     1
 10
-54.0000000000003695
 20
15.0000000000000497
 30
-0.0000000000000033
 11
-55.0000000000001492
 21
14.0000000000000497
 31
-0.0000000000000031
210
-0.0000000000000002
220
1.0
230
-0.0000000000000002
  0
LINE
  5
E7BB
  8
0
  6
VERDECKT
 62
     1
 10
-54.0000000000003695
 20
12.9999999999999307
 30
-0.0000000000000029
 11
-55.0000000000001492
 21
13.9999999999999307
 31
-0.0000000000000031
210
-0.0000000000000002
220
1.0
230
-0.0000000000000002
  0
LINE
  5
E7BC
  8
0
  6
VERDECKT
 62
     1
 10
-45.9999999999993392
 20
12.9999999999999396
 30
-0.0000000000000029
 11
-44.9999999999995666
 21
13.9999999999999396
 31
-0.0000000000000031
210
-0.0000000000000002
220
1.0
230
-0.0000000000000002
  0
LINE
  5
E7BD
  8
0
  6
VERDECKT
 62
     1
 10
-45.9999999999994031
 20
12.9999999999999893
 30
-0.0000000000000029
 11
-44.9999999999998508
 21
11.9999999999999893
 31
-0.0000000000000027
210
-0.0000000000000002
220
1.0
230
-0.0000000000000002
  0
LINE
  5
E7BE
  8
0
  6
VERDECKT
 62
     1
 10
-54.0000000000003197
 20
12.9999999999999893
 30
-0.0000000000000029
 11
-54.9999999999998579
 21
11.9999999999999893
 31
-0.0000000000000027
210
-0.0000000000000002
220
1.0
230
-0.0000000000000002
  0
LINE
  5
E7BF
  8
0
  6
VERDECKT
 62
     1
 10
-54.0000000000003197
 20
10.9999999999999893
 30
-0.0000000000000024
 11
-54.9999999999998579
 21
11.9999999999999893
 31
-0.0000000000000027
210
-0.0000000000000002
220
1.0
230
-0.0000000000000002
  0
LINE
  5
E7C0
  8
0
  6
VERDECKT
 62
     1
 10
-45.9999999999994031
 20
10.9999999999999893
 30
-0.0000000000000024
 11
-44.9999999999998508
 21
11.9999999999999893
 31
-0.0000000000000027
210
-0.0000000000000002
220
1.0
230
-0.0000000000000002
  0
LINE
  5
E7C1
  8
0
  6
VERDECKT
 62
     1
 10
-45.9999999999994031
 20
10.9999999999999893
 30
-0.0000000000000024
 11
-44.9999999999998508
 21
9.9999999999999911
 31
-0.0000000000000022
210
-0.0000000000000002
220
1.0
230
-0.0000000000000002
  0
LINE
  5
E7C2
  8
0
  6
VERDECKT
 62
     1
 10
-54.0000000000003197
 20
10.9999999999999893
 30
-0.0000000000000024
 11
-54.9999999999998579
 21
9.9999999999999911
 31
-0.0000000000000022
210
-0.0000000000000002
220
1.0
230
-0.0000000000000002
  0
LINE
  5
E7C3
  8
0
  6
VERDECKT
 62
     1
 10
-54.0000000000003197
 20
8.9999999999999911
 30
-0.000000000000002
 11
-54.9999999999998579
 21
9.9999999999999911
 31
-0.0000000000000022
210
-0.0000000000000002
220
1.0
230
-0.0000000000000002
  0
LINE
  5
E7C4
  8
0
  6
VERDECKT
 62
     1
 10
-45.9999999999994031
 20
8.9999999999999911
 30
-0.000000000000002
 11
-44.9999999999998508
 21
9.9999999999999911
 31
-0.0000000000000022
210
-0.0000000000000002
220
1.0
230
-0.0000000000000002
  0
LINE
  5
E7C5
  8
0
  6
VERDECKT
 62
     1
 10
-45.9999999999994031
 20
8.9999999999999911
 30
-0.000000000000002
 11
-44.9999999999998508
 21
7.9999999999999929
 31
-0.0000000000000018
210
-0.0000000000000002
220
1.0
230
-0.0000000000000002
  0
LINE
  5
E7C6
  8
0
  6
VERDECKT
 62
     1
 10
-54.0000000000003197
 20
8.9999999999999911
 30
-0.000000000000002
 11
-54.9999999999998579
 21
7.9999999999999911
 31
-0.0000000000000018
210
-0.0000000000000002
220
1.0
230
-0.0000000000000002
  0
LINE
  5
E7C7
  8
0
  6
VERDECKT
 62
     1
 10
-54.0000000000003197
 20
6.9999999999999911
 30
-0.0000000000000016
 11
-54.9999999999998579
 21
7.9999999999999911
 31
-0.0000000000000018
210
-0.0000000000000002
220
1.0
230
-0.0000000000000002
  0
LINE
  5
E7C8
  8
0
  6
VERDECKT
 62
     1
 10
-45.9999999999994031
 20
6.9999999999999929
 30
-0.0000000000000016
 11
-44.9999999999998508
 21
7.9999999999999929
 31
-0.0000000000000018
210
-0.0000000000000002
220
1.0
230
-0.0000000000000002
  0
LINE
  5
E7C9
  8
0
  6
VERDECKT
 62
     1
 10
-45.9999999999994031
 20
6.9999999999999929
 30
-0.0000000000000016
 11
-44.9999999999998508
 21
5.999999999999992
 31
-0.0000000000000013
210
-0.0000000000000002
220
1.0
230
-0.0000000000000002
  0
LINE
  5
E7CA
  8
0
  6
VERDECKT
 62
     1
 10
-54.0000000000003197
 20
6.9999999999999911
 30
-0.0000000000000016
 11
-54.9999999999998579
 21
5.9999999999999902
 31
-0.0000000000000013
210
-0.0000000000000002
220
1.0
230
-0.0000000000000002
  0
LINE
  5
E7CB
  8
0
  6
VERDECKT
 62
     1
 10
-54.0000000000003197
 20
4.9999999999999893
 30
-0.0000000000000011
 11
-54.9999999999998579
 21
5.9999999999999902
 31
-0.0000000000000013
210
-0.0000000000000002
220
1.0
230
-0.0000000000000002
  0
LINE
  5
E7CC
  8
0
  6
VERDECKT
 62
     1
 10
-45.9999999999994031
 20
4.999999999999992
 30
-0.0000000000000011
 11
-44.9999999999998508
 21
5.999999999999992
 31
-0.0000000000000013
210
-0.0000000000000002
220
1.0
230
-0.0000000000000002
  0
LINE
  5
E7CD
  8
0
  6
VERDECKT
 62
     1
 10
-45.9999999999993392
 20
5.0000000000000488
 30
-0.0000000000000011
 11
-44.9999999999995666
 21
4.000000000000048
 31
-0.0000000000000009
210
-0.0000000000000002
220
1.0
230
-0.0000000000000002
  0
LINE
  5
E7CE
  8
0
  6
VERDECKT
 62
     1
 10
-54.0000000000003695
 20
5.0000000000000471
 30
-0.0000000000000011
 11
-55.0000000000001492
 21
4.0000000000000462
 31
-0.0000000000000009
210
-0.0000000000000002
220
1.0
230
-0.0000000000000002
  0
LINE
  5
E7CF
  8
0
  6
VERDECKT
 62
     1
 10
-54.0000000000003695
 20
2.9999999999999321
 30
-0.0000000000000007
 11
-55.0000000000001492
 21
3.9999999999999321
 31
-0.0000000000000009
210
-0.0000000000000002
220
1.0
230
-0.0000000000000002
  0
LINE
  5
E7D0
  8
0
  6
VERDECKT
 62
     1
 10
-45.9999999999993392
 20
2.9999999999999329
 30
-0.0000000000000007
 11
-44.9999999999995666
 21
3.9999999999999338
 31
-0.0000000000000009
210
-0.0000000000000002
220
1.0
230
-0.0000000000000002
  0
LINE
  5
E7D1
  8
0
  6
VERDECKT
 62
     1
 10
-45.9999999999994031
 20
2.9999999999999898
 30
-0.0000000000000007
 11
-44.9999999999998508
 21
1.99999999999999
 31
-0.0000000000000004
210
-0.0000000000000002
220
1.0
230
-0.0000000000000002
  0
LINE
  5
E7D2
  8
0
  6
VERDECKT
 62
     1
 10
-54.0000000000003197
 20
2.9999999999999889
 30
-0.0000000000000007
 11
-54.9999999999998579
 21
1.9999999999999889
 31
-0.0000000000000004
210
-0.0000000000000002
220
1.0
230
-0.0000000000000002
  0
LINE
  5
E7D3
  8
0
  6
VERDECKT
 62
     1
 10
-54.0000000000003197
 20
0.9999999999999885
 30
-0.0000000000000002
 11
-54.9999999999998579
 21
1.9999999999999889
 31
-0.0000000000000004
210
-0.0000000000000002
220
1.0
230
-0.0000000000000002
  0
LINE
  5
E7D4
  8
0
  6
VERDECKT
 62
     1
 10
-45.9999999999994031
 20
0.9999999999999896
 30
-0.0000000000000002
 11
-44.9999999999998508
 21
1.99999999999999
 31
-0.0000000000000004
210
-0.0000000000000002
220
1.0
230
-0.0000000000000002
  0
LINE
  5
E7D5
  8
0
  6
VERDECKT
 62
     1
 10
-45.9999999999993392
 20
1.000000000000046
 30
-0.0000000000000002
 11
-44.9999999999995666
 21
0.0000000000000466
 31
0.0
210
-0.0000000000000002
220
1.0
230
-0.0000000000000002
  0
LINE
  5
E7D6
  8
0
  6
VERDECKT
 62
     1
 10
-54.0000000000003695
 20
1.0000000000000451
 30
-0.0000000000000002
 11
-55.0000000000001492
 21
0.0000000000000449
 31
0.0
210
-0.0000000000000002
220
1.0
230
-0.0000000000000002
  0
LINE
  5
E7D7
  8
0
  6
VERDECKT
 62
     1
 10
-54.0000000000000213
 20
29.0000000000000888
 30
-0.0000000000000064
 11
-54.9999999999997868
 21
30.000000000000199
 31
-0.0000000000000067
210
-0.0000000000000002
220
1.0
230
-0.0000000000000002
  0
LINE
  5
E7D8
  8
0
  6
VERDECKT
 62
     1
 10
-45.9999999999997229
 20
29.0000000000000888
 30
-0.0000000000000064
 11
-44.9999999999999503
 21
30.000000000000199
 31
-0.0000000000000067
210
-0.0000000000000002
220
1.0
230
-0.0000000000000002
  0
LINE
  5
E7D9
  8
0
  6
VERDECKT
 62
     1
 10
-45.9999999999997016
 20
28.9999999999999503
 30
-0.0000000000000064
 11
-44.9999999999999218
 21
27.9999999999999396
 31
-0.0000000000000062
210
-0.0000000000000002
220
1.0
230
-0.0000000000000002
  0
LINE
  5
E7DA
  8
0
  6
VERDECKT
 62
     1
 10
-54.0000000000000497
 20
28.9999999999999503
 30
-0.0000000000000064
 11
-54.9999999999998224
 21
27.9999999999999396
 31
-0.0000000000000062
210
-0.0000000000000002
220
1.0
230
-0.0000000000000002
  0
LINE
  5
E7DB
  8
0
  6
VERDECKT
 62
     1
 10
-54.0000000000000497
 20
27.0000000000000604
 30
-0.000000000000006
 11
-54.9999999999998224
 21
28.0000000000000604
 31
-0.0000000000000062
210
-0.0000000000000002
220
1.0
230
-0.0000000000000002
  0
LINE
  5
E7DC
  8
0
  6
VERDECKT
 62
     1
 10
-45.9999999999997016
 20
27.0000000000000604
 30
-0.000000000000006
 11
-44.9999999999999218
 21
28.0000000000000604
 31
-0.0000000000000062
210
-0.0000000000000002
220
1.0
230
-0.0000000000000002
  0
LINE
  5
E7DD
  8
0
  6
VERDECKT
 62
     1
 10
-45.9999999999997016
 20
26.9999999999999396
 30
-0.000000000000006
 11
-44.9999999999999218
 21
25.9999999999999396
 31
-0.0000000000000058
210
-0.0000000000000002
220
1.0
230
-0.0000000000000002
  0
LINE
  5
E7DE
  8
0
  6
VERDECKT
 62
     1
 10
-54.0000000000000497
 20
26.9999999999999396
 30
-0.000000000000006
 11
-54.9999999999998224
 21
25.9999999999999396
 31
-0.0000000000000058
210
-0.0000000000000002
220
1.0
230
-0.0000000000000002
  0
LINE
  5
E7DF
  8
0
  6
VERDECKT
 62
     1
 10
-54.0000000000003411
 20
25.0
 30
-0.0000000000000056
 11
-54.9999999999998792
 21
26.0
 31
-0.0000000000000058
210
-0.0000000000000002
220
1.0
230
-0.0000000000000002
  0
LINE
  5
E7E0
  8
0
  6
VERDECKT
 62
     1
 10
-45.9999999999994102
 20
25.0
 30
-0.0000000000000056
 11
-44.9999999999998721
 21
26.0
 31
-0.0000000000000058
210
-0.0000000000000002
220
1.0
230
-0.0000000000000002
  0
LINE
  5
E7E1
  8
0
  6
VERDECKT
 62
     1
 10
-45.9999999999993605
 20
25.0000000000000604
 30
-0.0000000000000056
 11
-44.9999999999995879
 21
24.0000000000000604
 31
-0.0000000000000053
210
-0.0000000000000002
220
1.0
230
-0.0000000000000002
  0
LINE
  5
E7E2
  8
0
  6
VERDECKT
 62
     1
 10
-54.0000000000003908
 20
25.0000000000000604
 30
-0.0000000000000056
 11
-55.0000000000001634
 21
24.0000000000000604
 31
-0.0000000000000053
210
-0.0000000000000002
220
1.0
230
-0.0000000000000002
  0
LINE
  5
E7E3
  8
0
  6
VERDECKT
 62
     1
 10
-54.0000000000003908
 20
22.9999999999999396
 30
-0.0000000000000051
 11
-55.0000000000001634
 21
23.9999999999999503
 31
-0.0000000000000053
210
-0.0000000000000002
220
1.0
230
-0.0000000000000002
  0
LINE
  5
E7E4
  8
0
  6
VERDECKT
 62
     1
 10
-45.9999999999993605
 20
22.9999999999999396
 30
-0.0000000000000051
 11
-44.9999999999995879
 21
23.9999999999999503
 31
-0.0000000000000053
210
-0.0000000000000002
220
1.0
230
-0.0000000000000002
  0
LINE
  5
E7E5
  8
0
  6
VERDECKT
 62
     1
 10
-45.9999999999994102
 20
23.0
 30
-0.0000000000000051
 11
-44.9999999999998721
 21
22.0
 31
-0.0000000000000049
210
-0.0000000000000002
220
1.0
230
-0.0000000000000002
  0
LINE
  5
E7E6
  8
0
  6
VERDECKT
 62
     1
 10
-54.0000000000003411
 20
23.0
 30
-0.0000000000000051
 11
-54.9999999999998792
 21
22.0
 31
-0.0000000000000049
210
-0.0000000000000002
220
1.0
230
-0.0000000000000002
  0
LINE
  5
E7E7
  8
0
  6
VERDECKT
 62
     1
 10
-54.0000000000003411
 20
21.0
 30
-0.0000000000000047
 11
-54.9999999999998792
 21
22.0
 31
-0.0000000000000049
210
-0.0000000000000002
220
1.0
230
-0.0000000000000002
  0
LINE
  5
E7E8
  8
0
  6
VERDECKT
 62
     1
 10
-45.9999999999994102
 20
21.0
 30
-0.0000000000000047
 11
-44.9999999999998721
 21
22.0
 31
-0.0000000000000049
210
-0.0000000000000002
220
1.0
230
-0.0000000000000002
  0
LINE
  5
E7E9
  8
0
  6
VERDECKT
 62
     1
 10
-45.9999999999994102
 20
21.0
 30
-0.0000000000000047
 11
-44.9999999999999218
 21
20.0000000000000497
 31
-0.0000000000000044
210
-0.0000000000000002
220
1.0
230
-0.0000000000000002
  0
LINE
  5
E7EA
  8
0
  6
VERDECKT
 62
     1
 10
-54.0000000000003411
 20
21.0
 30
-0.0000000000000047
 11
-54.9999999999998224
 21
20.0000000000000604
 31
-0.0000000000000044
210
-0.0000000000000002
220
1.0
230
-0.0000000000000002
  0
LINE
  5
E7EB
  8
0
  6
VERDECKT
 62
     1
 10
-40.0000000000000568
 20
30.0000000000000284
 30
-0.0000000000000067
 11
-40.0000000000000568
 21
32.0000000000000284
 31
-0.0000000000000071
210
-0.0000000000000002
220
1.0
230
-0.0000000000000002
  0
LINE
  5
E7EC
  8
0
  6
VERDECKT
 62
     1
 10
39.9999999999999503
 20
32.0000000000000568
 30
-0.0000000000000071
 11
39.9999999999999503
 21
30.0000000000000711
 31
-0.0000000000000067
210
-0.0000000000000002
220
1.0
230
-0.0000000000000002
  0
LINE
  5
E7ED
  8
0
  6
VERDECKT
 62
     1
 10
66.0000000000000142
 20
30.0000000000000888
 30
-0.0000000000000067
 11
66.0
 21
32.0000000000000924
 31
-0.0000000000000071
210
-0.0000000000000002
220
1.0
230
-0.0000000000000002
  0
LINE
  5
E7EE
  8
0
  6
VERDECKT
 62
     1
 10
-66.0000000000000142
 20
30.0000000000000284
 30
-0.0000000000000067
 11
-66.0000000000000284
 21
32.0000000000000284
 31
-0.0000000000000071
210
-0.0000000000000002
220
1.0
230
-0.0000000000000002
  0
LINE
  5
E7EF
  8
0
  6
VERDECKT
 62
     1
 10
43.9999999999999432
 20
30.0000000000000711
 30
-0.0000000000000067
 11
43.9999999999999432
 21
32.0000000000000568
 31
-0.0000000000000071
210
-0.0000000000000002
220
1.0
230
-0.0000000000000002
  0
LINE
  5
E7F0
  8
0
  6
VERDECKT
 62
     1
 10
55.9999999999999503
 20
30.0000000000000711
 30
-0.0000000000000067
 11
55.9999999999999503
 21
32.0000000000000711
 31
-0.0000000000000071
210
-0.0000000000000002
220
1.0
230
-0.0000000000000002
  0
LINE
  5
E7F1
  8
0
  6
VERDECKT
 62
     1
 10
-56.0000000000000711
 20
30.0000000000000213
 30
-0.0000000000000067
 11
-56.0000000000000711
 21
32.0000000000000071
 31
-0.0000000000000071
210
-0.0000000000000002
220
1.0
230
-0.0000000000000002
  0
LINE
  5
E7F2
  8
0
  6
VERDECKT
 62
     1
 10
-44.0000000000000426
 20
30.0000000000000213
 30
-0.0000000000000067
 11
-44.0000000000000426
 21
32.0000000000000213
 31
-0.0000000000000071
210
-0.0000000000000002
220
1.0
230
-0.0000000000000002
  0
ENDBLK
  5
E7F4
  8
0
  0
ENDSEC
  0
SECTION
  2
ENTITIES
  0
INSERT
  5
573
  8
ADSK_ASSOC_ENTITY_BACKUPS
  2
*S0
 10
0.0
 20
0.0
 30
0.0
  0
INSERT
  5
E5C9
  8
STEMPEL
  2
A$C4BC7C91C
 10
0.0
 20
0.0
 30
0.0
  0
INSERT
  5
E6E5
  8
STEMPEL
  2
A$C71625F9A
 10
0.0000000000000568
 20
128.5000000000001137
 30
-0.0000000000000318
  0
INSERT
  5
E7F5
  8
STEMPEL
  2
A$CE02CE817
 10
328.4999999999997726
 20
128.5000000000001137
 30
-0.0000000000000318
  0
VIEWPORT
  5
45D
 67
     1
  8
0
 10
205.7207203039920103
 20
145.4792355446332124
 30
0.0
 40
556.9215620827770863
 41
298.5140186915887739
 68
     1
 69
     1
1001
ACAD
1000
MVIEW
1002
{
1070
    16
1010
0.0
1020
0.0
1030
0.0
1010
0.0
1020
0.0
1030
1.0
1040
0.0
1040
298.5140186915887739
1040
205.7207203039920103
1040
145.4792355446332124
1040
50.0
1040
0.0
1040
0.0
1070
     0
1070
  1500
1070
     1
1070
     1
1070
     0
1070
     0
1070
     0
1070
     0
1040
0.0
1040
0.0
1040
0.0
1040
10.0
1040
10.0
1040
10.0
1040
10.0
1070
     0
1002
{
1002
}
1002
}
  0
ENDSEC
  0
EOF
