  0
SECTION
  2
HEADER
  9
$ACADVER
  1
AC1009
  9
$INSBASE
 10
0.0
 20
0.0
 30
0.0
  9
$EXTMIN
 10
-66.5148456690541252
 20
-183.0268082901916102
 30
-0.0054927449738216
  9
$EXTMAX
 10
66.5124976694496581
 20
180.0486384460803038
 30
0.0082399556508221
  9
$LIMMIN
 10
0.0
 20
0.0
  9
$LIMMAX
 10
419.9999999999998863
 20
594.0000000000002274
  9
$ORTHOMODE
 70
     1
  9
$REGENMODE
 70
     1
  9
$FILLMODE
 70
     1
  9
$QTEXTMODE
 70
     0
  9
$MIRRTEXT
 70
     1
  9
$DRAGMODE
 70
     2
  9
$LTSCALE
 40
20.0
  9
$OSMODE
 70
  2559
  9
$ATTMODE
 70
     1
  9
$TEXTSIZE
 40
3.5
  9
$TRACEWID
 40
0.5
  9
$TEXTSTYLE
  7
STANDARD
  9
$CLAYER
  8
ROHR
  9
$CELTYPE
  6
BYLAYER
  9
$CECOLOR
 62
   256
  9
$DIMSCALE
 40
2.0
  9
$DIMASZ
 40
3.5
  9
$DIMEXO
 40
1.0
  9
$DIMDLI
 40
7.0
  9
$DIMRND
 40
0.0
  9
$DIMDLE
 40
0.0
  9
$DIMEXE
 40
1.0
  9
$DIMTP
 40
0.15
  9
$DIMTM
 40
0.15
  9
$DIMTXT
 40
3.5
  9
$DIMCEN
 40
1.5
  9
$DIMTSZ
 40
0.0
  9
$DIMTOL
 70
     0
  9
$DIMLIM
 70
     0
  9
$DIMTIH
 70
     0
  9
$DIMTOH
 70
     0
  9
$DIMSE1
 70
     0
  9
$DIMSE2
 70
     0
  9
$DIMTAD
 70
     1
  9
$DIMZIN
 70
     8
  9
$DIMBLK
  1

  9
$DIMASO
 70
     1
  9
$DIMSHO
 70
     0
  9
$DIMPOST
  1

  9
$DIMAPOST
  1

  9
$DIMALT
 70
     0
  9
$DIMALTD
 70
     2
  9
$DIMALTF
 40
25.3999999999999986
  9
$DIMLFAC
 40
1.0
  9
$DIMTOFL
 70
     1
  9
$DIMTVP
 40
0.0
  9
$DIMTIX
 70
     0
  9
$DIMSOXD
 70
     0
  9
$DIMSAH
 70
     0
  9
$DIMBLK1
  1

  9
$DIMBLK2
  1

  9
$DIMSTYLE
  2
STANDARD
  9
$DIMCLRD
 70
     0
  9
$DIMCLRE
 70
     0
  9
$DIMCLRT
 70
     1
  9
$DIMTFAC
 40
0.5142857142857143
  9
$DIMGAP
 40
1.5
  9
$LUNITS
 70
     2
  9
$LUPREC
 70
     2
  9
$SKETCHINC
 40
1.0
  9
$FILLETRAD
 40
0.0
  9
$AUNITS
 70
     0
  9
$AUPREC
 70
     0
  9
$MENU
  1
ACAD
  9
$ELEVATION
 40
0.0
  9
$PELEVATION
 40
0.0
  9
$THICKNESS
 40
0.0
  9
$LIMCHECK
 70
     0
  9
$BLIPMODE
 70
     0
  9
$CHAMFERA
 40
0.0
  9
$CHAMFERB
 40
0.0
  9
$SKPOLY
 70
     0
  9
$TDCREATE
 40
2455573.0656134258024395
  9
$TDUPDATE
 40
2458388.6099652778357267
  9
$TDINDWG
 40
0.2760658565
  9
$TDUSRTIMER
 40
0.2760658565
  9
$USRTIMER
 70
     1
  9
$ANGBASE
 50
0.0
  9
$ANGDIR
 70
     0
  9
$PDMODE
 70
     0
  9
$PDSIZE
 40
0.0
  9
$PLINEWID
 40
0.0
  9
$COORDS
 70
     1
  9
$SPLFRAME
 70
     0
  9
$SPLINETYPE
 70
     6
  9
$SPLINESEGS
 70
     8
  9
$ATTDIA
 70
     1
  9
$ATTREQ
 70
     1
  9
$HANDLING
 70
     1
  9
$HANDSEED
  5
31BF
  9
$SURFTAB1
 70
     6
  9
$SURFTAB2
 70
     6
  9
$SURFTYPE
 70
     6
  9
$SURFU
 70
     6
  9
$SURFV
 70
     6
  9
$UCSNAME
  2

  9
$UCSORG
 10
0.0
 20
0.0
 30
0.0
  9
$UCSXDIR
 10
1.0
 20
0.0
 30
0.0
  9
$UCSYDIR
 10
0.0
 20
1.0
 30
0.0
  9
$PUCSNAME
  2

  9
$PUCSORG
 10
0.0
 20
0.0
 30
0.0
  9
$PUCSXDIR
 10
1.0
 20
0.0
 30
0.0
  9
$PUCSYDIR
 10
0.0
 20
1.0
 30
0.0
  9
$USERI1
 70
     0
  9
$USERI2
 70
     0
  9
$USERI3
 70
     0
  9
$USERI4
 70
     0
  9
$USERI5
 70
     0
  9
$USERR1
 40
0.0
  9
$USERR2
 40
0.0
  9
$USERR3
 40
0.0
  9
$USERR4
 40
0.0
  9
$USERR5
 40
0.0
  9
$WORLDVIEW
 70
     1
  9
$SHADEDGE
 70
     3
  9
$SHADEDIF
 70
    70
  9
$TILEMODE
 70
     1
  9
$MAXACTVP
 70
    16
  9
$PLIMCHECK
 70
     0
  9
$PEXTMIN
 10
-0.2124908616391572
 20
-0.3979871256706886
 30
-0.0000000000112498
  9
$PEXTMAX
 10
11.56778971702016
 20
16.4133043105209104
 30
0.0000000000002956
  9
$PLIMMIN
 10
-0.2500002402958907
 20
-0.2499999962453767
  9
$PLIMMAX
 10
10.7499995194082203
 20
8.2499997634587334
  9
$UNITMODE
 70
     0
  9
$VISRETAIN
 70
     0
  9
$PLINEGEN
 70
     0
  9
$PSLTSCALE
 70
     0
  0
ENDSEC
  0
SECTION
  2
TABLES
  0
TABLE
  2
VPORT
 70
     1
  0
VPORT
  2
*ACTIVE
 70
     0
 10
0.0
 20
0.0
 11
1.0
 21
1.0
 12
-0.0011739998022335
 22
-58.2414042579931674
 13
0.0
 23
0.0
 14
1.0
 24
1.0
 15
10.0
 25
10.0
 16
-0.0000000000001599
 26
0.0
 36
720.2989719225683984
 17
0.0
 27
56.7523193359375
 37
-0.00000000000002
 40
364.9262986312742214
 41
1.868197278911564
 42
50.0
 43
0.0
 44
0.0
 50
0.0
 51
0.0
 71
     0
 72
  1500
 73
     1
 74
     0
 75
     0
 76
     0
 77
     0
 78
     0
  0
ENDTAB
  0
TABLE
  2
LTYPE
 70
     5
  0
LTYPE
  2
CONTINUOUS
 70
     0
  3
Solid line
 72
    65
 73
     0
 40
0.0
  0
LTYPE
  2
VERDECKT
 70
     0
  3
_ _ _ _ _ _ _ _ _ _ _ _ _ _ _ _ _ _ _ _ _ _ _
 72
    65
 73
     2
 40
0.375
 49
0.25
 49
-0.125
  0
ENDTAB
  0
TABLE
  2
LAYER
 70
    13
  0
LAYER
  2
0
 70
     0
 62
     7
  6
CONTINUOUS
  0
LAYER
  2
VOLL
 70
     0
 62
     1
  6
CONTINUOUS
  0
LAYER
  2
BEM
 70
     0
 62
     7
  6
CONTINUOUS
  0
LAYER
  2
DEFPOINTS
 70
     0
 62
     7
  6
CONTINUOUS
  0
LAYER
  2
TEXT
 70
     0
 62
     7
  6
CONTINUOUS
  0
LAYER
  2
ROHR
 70
     0
 62
   254
  6
CONTINUOUS
  0
ENDTAB
  0
TABLE
  2
STYLE
 70
     2
  0
STYLE
  2
STANDARD
 70
     0
 40
0.0
 41
0.8
 50
0.0
 71
     0
 42
3.5
  3
simplex.shx
  4

  0
STYLE
  2
GREEKS
 70
     0
 40
0.0
 41
0.8
 50
0.0
 71
     0
 42
2.5
  3
SIMPLEX.shx
  4

  0
ENDTAB
  0
TABLE
  2
VIEW
 70
     1
  0
ENDTAB
  0
TABLE
  2
UCS
 70
     0
  0
ENDTAB
  0
TABLE
  2
APPID
 70
    10
  0
APPID
  2
ACAD
 70
     0
  0
APPID
  2
ACAD_NAV_VCDISPLAY
 70
     0
  0
APPID
  2
ACAECLAYERSTANDARD
 70
     0
  0
APPID
  2
ACAD_PSEXT
 70
     0
  0
APPID
  2
ACAD_STEPID
 70
     0
  0
APPID
  2
ACAD_EXEMPT_FROM_CAD_STANDARDS
 70
     0
  0
APPID
  2
ACCMTRANSPARENCY
 70
     0
  0
APPID
  2
ACAD_ASSOCPERSSUBENTMANAGER
 70
     0
  0
APPID
  2
ACAD_MLEADERVER
 70
     0
  0
APPID
  2
ACAD_OBJECT_CHANGE_GUID
 70
     0
  0
ENDTAB
  0
TABLE
  2
DIMSTYLE
 70
     2
  0
DIMSTYLE
  2
STANDARD
 70
     0
  3

  4

  5

  6

  7

 40
1.0
 41
0.18
 42
0.0625
 43
0.38
 44
0.18
 45
0.0
 46
0.0
 47
0.0
 48
0.0
140
0.18
141
0.09
142
0.0
143
25.3999999999999986
144
1.0
145
0.0
146
1.0
147
0.09
 71
     0
 72
     0
 73
     1
 74
     1
 75
     0
 76
     0
 77
     0
 78
     0
170
     0
171
     2
172
     0
173
     0
174
     0
175
     0
176
     0
177
     0
178
     0
  0
ENDTAB
  0
ENDSEC
  0
SECTION
  2
BLOCKS
  0
BLOCK
  8
0
  2
$MODEL_SPACE
 70
     0
 10
0.0
 20
0.0
 30
0.0
  3
$MODEL_SPACE
  1

  0
ENDBLK
  5
41
  8
0
  0
BLOCK
 67
     1
  8
0
  2
$PAPER_SPACE
 70
     0
 10
0.0
 20
0.0
 30
0.0
  3
$PAPER_SPACE
  1

  0
ENDBLK
  5
3F
 67
     1
  8
0
  0
BLOCK
  8
0
  2
A$C00590D14
 70
     0
 10
0.0
 20
0.0
 30
0.0
  3
A$C00590D14
  1

  0
CIRCLE
  5
30EF
  8
0
  6
CONTINUOUS
 62
     3
 10
-0.0000000000000284
 20
0.0000000000000166
 30
0.0
 40
47.9796660256210004
  0
CIRCLE
  5
30F0
  8
0
  6
CONTINUOUS
 62
     3
 10
-0.0000000000000284
 20
0.0000000000000348
 30
0.0
 40
49.0
  0
CIRCLE
  5
30F1
  8
0
  6
CONTINUOUS
 62
     3
 10
-0.0000000000000284
 20
0.0000000000000413
 30
0.0
 40
57.0
  0
CIRCLE
  5
30F2
  8
0
  6
CONTINUOUS
 62
     3
 10
-0.0000000000000284
 20
0.0000000000000495
 30
0.0
 40
57.8051397932874522
  0
CIRCLE
  5
30F3
  8
0
  6
CONTINUOUS
 62
     3
 10
-0.0000000000000284
 20
0.0000000000000496
 30
0.0
 40
59.7211355350035475
  0
CIRCLE
  5
30F4
  8
0
  6
CONTINUOUS
 62
     3
 10
0.0
 20
0.0000000000000588
 30
0.0
 40
64.0000000000001137
  0
CIRCLE
  5
30F5
  8
0
  6
CONTINUOUS
 62
     3
 10
0.0
 20
0.0000000000000588
 30
0.0
 40
66.5000000000001137
  0
CIRCLE
  5
30F6
  8
0
  6
CONTINUOUS
 62
     3
 10
0.0
 20
0.0000000000000881
 30
0.0
 40
59.7211355350038886
  0
CIRCLE
  5
30F7
  8
0
  6
CONTINUOUS
 62
     3
 10
0.0
 20
0.0000000000000881
 30
0.0
 40
64.0
  0
CIRCLE
  5
30F8
  8
0
  6
VERDECKT
 62
     1
 10
-0.0000000000000284
 20
0.0000000000000348
 30
0.0
 40
51.0
  0
CIRCLE
  5
30F9
  8
0
  6
VERDECKT
 62
     1
 10
-0.0000000000000284
 20
0.0000000000000166
 30
0.0
 40
49.9501360376888783
  0
CIRCLE
  5
30FA
  8
0
  6
VERDECKT
 62
     1
 10
-0.0000000000000284
 20
0.0000000000000413
 30
0.0
 40
59.0
  0
CIRCLE
  5
30FB
  8
0
  6
VERDECKT
 62
     1
 10
-0.0000000000000284
 20
0.0000000000000478
 30
0.0
 40
62.0014044429266278
  0
CIRCLE
  5
30FC
  8
0
  6
VERDECKT
 62
     1
 10
-0.0000000000000284
 20
0.0000000000000477
 30
0.0
 40
60.0000000002286384
  0
CIRCLE
  5
30FD
  8
0
  6
VERDECKT
 62
     1
 10
0.0
 20
0.0000000000000448
 30
0.0
 40
56.0
  0
CIRCLE
  5
30FE
  8
0
  6
VERDECKT
 62
     1
 10
0.0
 20
0.0000000000000438
 30
0.0
 40
60.6188021535171799
  0
CIRCLE
  5
30FF
  8
0
  6
VERDECKT
 62
     1
 10
0.0
 20
0.0000000000000462
 30
0.0
 40
62.4999999999999432
  0
CIRCLE
  5
3100
  8
0
  6
VERDECKT
 62
     1
 10
0.0
 20
0.0000000000000874
 30
0.0
 40
62.0
  0
CIRCLE
  5
3101
  8
0
  6
VERDECKT
 62
     1
 10
0.0
 20
0.0000000000000818
 30
0.0
 40
62.5
  0
CIRCLE
  5
3102
  8
0
  6
VERDECKT
 62
     1
 10
0.0
 20
0.0000000000000831
 30
0.0
 40
51.0
  0
CIRCLE
  5
3103
  8
0
  6
VERDECKT
 62
     1
 10
0.0
 20
0.0000000000000853
 30
0.0
 40
59.0
  0
CIRCLE
  5
3104
  8
0
  6
VERDECKT
 62
     1
 10
0.0
 20
0.0000000000000862
 30
0.0
 40
61.9999093106996497
  0
ENDBLK
  5
3106
  8
0
  0
BLOCK
  8
0
  2
A$C0B826531
 70
     0
 10
0.0
 20
0.0
 30
0.0
  3
A$C0B826531
  1

  0
LINE
  5
310A
  8
0
  6
CONTINUOUS
 62
     3
 10
-49.950136037688921
 20
0.0000000000000284
 30
0.0
 11
49.9501360376888499
 21
0.0000000000000284
 31
0.0
210
0.0
220
1.0
230
-0.0000000000000002
  0
ARC
  5
310B
  8
0
  6
CONTINUOUS
 62
     3
 10
38.9999999999998508
 20
7.07646087365534
 30
0.0
 40
12.0000000000001492
210
0.0
220
-0.0000000000000002
230
-1.0
 50
350.1419712024937212
 51
359.9999999999998863
  0
ARC
  5
310C
  8
0
  6
CONTINUOUS
 62
     3
 10
-38.9999999999997726
 20
7.07646087365534
 30
0.0
 40
12.0000000000001705
210
0.0
220
-0.0000000000000002
230
-1.0
 50
180.0
 51
189.8580287975061935
  0
LINE
  5
310D
  8
0
  6
CONTINUOUS
 62
     3
 10
50.9999999999999432
 20
57.9999999999999005
 30
-0.0000000000000129
 11
50.9999999999999432
 21
7.0764608736553232
 31
-0.0000000000000016
210
0.0
220
1.0
230
-0.0000000000000002
  0
LINE
  5
310E
  8
0
  6
CONTINUOUS
 62
     3
 10
-51.0
 20
57.9999999999999005
 30
-0.0000000000000129
 11
-51.0
 21
7.0764608736553232
 31
-0.0000000000000016
210
0.0
220
1.0
230
-0.0000000000000002
  0
LINE
  5
310F
  8
0
  6
CONTINUOUS
 62
     3
 10
-49.9501360376889068
 20
0.0000000000000289
 30
0.0
 11
-50.8228200724073034
 21
5.021971755776347
 31
-0.0000000000000011
210
0.0
220
1.0
230
-0.0000000000000002
  0
LINE
  5
3110
  8
0
  6
CONTINUOUS
 62
     3
 10
49.9501360376888499
 20
0.0000000000000289
 30
0.0
 11
50.8228200724072394
 21
5.021971755776347
 31
-0.0000000000000011
210
0.0
220
1.0
230
-0.0000000000000002
  0
LINE
  5
3111
  8
0
  6
CONTINUOUS
 62
     3
 10
66.5000000000001137
 20
59.9999999999999005
 30
-0.0000000000000133
 11
-66.5000000000001137
 21
59.9999999999999005
 31
-0.0000000000000133
210
0.0
220
1.0
230
-0.0000000000000002
  0
LINE
  5
3112
  8
0
  6
CONTINUOUS
 62
     3
 10
66.5000000000001137
 20
179.9999999999998863
 30
-0.00000000000004
 11
-66.5000000000001137
 21
179.9999999999998863
 31
-0.00000000000004
210
0.0
220
1.0
230
-0.0000000000000002
  0
LINE
  5
3113
  8
0
  6
CONTINUOUS
 62
     3
 10
-66.5000000000001137
 20
59.9999999999999005
 30
-0.0000000000000133
 11
-66.5000000000001137
 21
179.9999999999998863
 31
-0.00000000000004
210
0.0
220
1.0
230
-0.0000000000000002
  0
LINE
  5
3114
  8
0
  6
CONTINUOUS
 62
     3
 10
66.5000000000001137
 20
59.9999999999999005
 30
-0.0000000000000133
 11
66.5000000000001137
 21
179.9999999999998863
 31
-0.00000000000004
210
0.0
220
1.0
230
-0.0000000000000002
  0
LINE
  5
3115
  8
0
  6
CONTINUOUS
 62
     3
 10
66.5000000000001137
 20
57.9999999999999005
 30
-0.0000000000000129
 11
-66.5000000000001137
 21
57.9999999999999005
 31
-0.0000000000000129
210
0.0
220
1.0
230
-0.0000000000000002
  0
LINE
  5
3116
  8
0
  6
CONTINUOUS
 62
     3
 10
66.4999999999998863
 20
59.9999999999999005
 30
-0.0000000000000133
 11
-66.4999999999998863
 21
59.9999999999999005
 31
-0.0000000000000133
210
0.0
220
1.0
230
-0.0000000000000002
  0
LINE
  5
3117
  8
0
  6
CONTINUOUS
 62
     3
 10
-66.5
 20
57.9999999999999005
 30
-0.0000000000000129
 11
-66.5
 21
59.9999999999999005
 31
-0.0000000000000133
210
0.0
220
1.0
230
-0.0000000000000002
  0
LINE
  5
3118
  8
0
  6
CONTINUOUS
 62
     3
 10
66.5
 20
57.9999999999999005
 30
-0.0000000000000129
 11
66.5
 21
59.9999999999999005
 31
-0.0000000000000133
210
0.0
220
1.0
230
-0.0000000000000002
  0
LINE
  5
3119
  8
0
  6
VERDECKT
 62
     1
 10
-47.9796660256210288
 20
0.3424148529798572
 30
-0.0000000000000001
 11
47.9796660256209719
 21
0.3424148529798572
 31
-0.0000000000000001
210
0.0
220
1.0
230
-0.0000000000000002
  0
LINE
  5
311A
  8
0
  6
VERDECKT
 62
     1
 10
-57.8051397932874806
 20
179.3770879305695019
 30
-0.0000000000000398
 11
57.8051397932874167
 21
179.3770879305695019
 31
-0.0000000000000398
210
0.0
220
1.0
230
-0.0000000000000002
  0
LINE
  5
311B
  8
0
  6
VERDECKT
 62
     1
 10
50.9999999999999432
 20
99.4918931027849283
 30
-0.0000000000000221
 11
50.9999999999999432
 21
57.9999999999999005
 31
-0.0000000000000129
210
0.0
220
1.0
230
-0.0000000000000002
  0
LINE
  5
311C
  8
0
  6
VERDECKT
 62
     1
 10
-51.0
 20
99.4918931027849283
 30
-0.0000000000000221
 11
-51.0
 21
57.9999999999999005
 31
-0.0000000000000129
210
0.0
220
1.0
230
-0.0000000000000002
  0
ARC
  5
311D
  8
0
  6
VERDECKT
 62
     1
 10
39.0000000000006182
 20
7.0764608736551251
 30
0.0
 40
9.9999999999993747
210
0.0
220
-0.0000000000000002
230
-1.0
 50
350.1419712024929822
 51
0.000000000000229
  0
ARC
  5
311E
  8
0
  6
VERDECKT
 62
     1
 10
-39.0000000000005684
 20
7.0764608736551269
 30
0.0
 40
9.9999999999993747
210
0.0
220
-0.0000000000000002
230
-1.0
 50
179.999999999999801
 51
189.8580287975069893
  0
LINE
  5
311F
  8
0
  6
VERDECKT
 62
     1
 10
-47.9796660256210288
 20
0.3424148529798572
 30
-0.0000000000000001
 11
-48.8523500603394112
 21
5.3643866087559777
 31
-0.0000000000000012
210
0.0
220
1.0
230
-0.0000000000000002
  0
LINE
  5
3120
  8
0
  6
VERDECKT
 62
     1
 10
47.9796660256209719
 20
0.3424148529798572
 30
-0.0000000000000001
 11
48.8523500603393401
 21
5.3643866087559777
 31
-0.0000000000000012
210
0.0
220
1.0
230
-0.0000000000000002
  0
LINE
  5
3121
  8
0
  6
VERDECKT
 62
     1
 10
48.9999999999999503
 20
99.4918931027849283
 30
-0.0000000000000221
 11
48.9999999999999503
 21
7.076460873655166
 31
-0.0000000000000016
210
0.0
220
1.0
230
-0.0000000000000002
  0
LINE
  5
3122
  8
0
  6
VERDECKT
 62
     1
 10
-49.0
 20
99.4918931027849283
 30
-0.0000000000000221
 11
-49.0
 21
7.076460873655166
 31
-0.0000000000000016
210
0.0
220
1.0
230
-0.0000000000000002
  0
ARC
  5
3123
  8
0
  6
VERDECKT
 62
     1
 10
38.2468920642700567
 20
169.8299787120149063
 30
0.0
 40
23.7545123786565995
210
0.0
220
-0.0000000000000002
230
-1.0
 50
359.376955943194389
 51
24.03067415593517
  0
ARC
  5
3124
  8
0
  6
VERDECKT
 62
     1
 10
-38.2468920642699999
 20
169.8299787120149063
 30
0.0
 40
23.7545123786565995
210
0.0
220
-0.0000000000000002
230
-1.0
 50
155.969325844064798
 51
180.6230440568054973
  0
LINE
  5
3125
  8
0
  6
VERDECKT
 62
     1
 10
-61.9999093106996781
 20
149.2329999999998904
 30
-0.0000000000000331
 11
-62.0000000000000213
 21
169.5716731926929128
 31
-0.0000000000000377
210
0.0
220
1.0
230
-0.0000000000000002
  0
LINE
  5
3126
  8
0
  6
VERDECKT
 62
     1
 10
61.9999093106996213
 20
149.2329999999998904
 30
-0.0000000000000331
 11
61.9999999999999716
 21
169.5716731926929128
 31
-0.0000000000000377
210
0.0
220
1.0
230
-0.0000000000000002
  0
ARC
  5
3127
  8
0
  6
VERDECKT
 62
     1
 10
36.9994576793746788
 20
149.2331114759770117
 30
0.0
 40
25.0004516315735295
210
0.0
220
-0.0000000000000002
230
-1.0
 50
336.7691261419025182
 51
359.9997445204951987
  0
ARC
  5
3128
  8
0
  6
VERDECKT
 62
     1
 10
-36.9994576793746219
 20
149.2331114759770117
 30
0.0
 40
25.0004516315735295
210
0.0
220
-0.0000000000000002
230
-1.0
 50
180.0002554795048013
 51
203.2308738580975103
  0
ARC
  5
3129
  8
0
  6
VERDECKT
 62
     1
 10
71.0002603148472957
 20
134.6386568888925126
 30
0.0
 40
12.0002603149665692
210
0.0
220
-0.0000000000000002
230
-1.0
 50
156.7691261419022908
 51
179.9997445204919018
  0
ARC
  5
312A
  8
0
  6
VERDECKT
 62
     1
 10
-71.0002603148472531
 20
134.6386568888925126
 30
0.0
 40
12.0002603149665799
210
0.0
220
-0.0000000000000002
230
-1.0
 50
0.0002554795080222
 51
23.2308738580976488
  0
LINE
  5
312B
  8
0
  6
VERDECKT
 62
     1
 10
58.9999999999999716
 20
134.6387103975561956
 30
-0.0000000000000299
 11
58.9999999999999716
 21
116.9274888769475069
 31
-0.000000000000026
210
0.0
220
1.0
230
-0.0000000000000002
  0
LINE
  5
312C
  8
0
  6
VERDECKT
 62
     1
 10
-59.0000000000000284
 20
134.6387103975561956
 30
-0.0000000000000299
 11
-59.0000000000000284
 21
116.9274888769475069
 31
-0.000000000000026
210
0.0
220
1.0
230
-0.0000000000000002
  0
ARC
  5
312D
  8
0
  6
VERDECKT
 62
     1
 10
44.0000000000000426
 20
116.9274888769475069
 30
0.0
 40
14.9999999999999893
210
0.0
220
-0.0000000000000002
230
-1.0
 50
310.7057068310410841
 51
0.0000000000000064
  0
ARC
  5
312E
  8
0
  6
VERDECKT
 62
     1
 10
-43.9999999999999787
 20
116.9274888769475069
 30
0.0
 40
14.9999999999999805
210
0.0
220
-0.0000000000000002
230
-1.0
 50
180.0
 51
229.2942931689588022
  0
ARC
  5
312F
  8
0
  6
VERDECKT
 62
     1
 10
58.9999999999998721
 20
99.491893102784914
 30
0.0
 40
7.9999999999998579
210
0.0
220
-0.0000000000000002
230
-1.0
 50
130.7057068310411125
 51
179.9999999999998863
  0
ARC
  5
3130
  8
0
  6
VERDECKT
 62
     1
 10
-58.9999999999998224
 20
99.491893102784914
 30
0.0
 40
7.9999999999998499
210
0.0
220
-0.0000000000000002
230
-1.0
 50
0.0000000000001018
 51
49.2942931689588377
  0
LINE
  5
3131
  8
0
  6
VERDECKT
 62
     1
 10
47.9796660256209719
 20
0.3424148529798699
 30
-0.0000000000000001
 11
49.9501360376888499
 21
0.000000000000041
 31
0.0
210
0.0
220
1.0
230
-0.0000000000000002
  0
LINE
  5
3132
  8
0
  6
VERDECKT
 62
     1
 10
-47.9796660256210288
 20
0.3424148529798699
 30
-0.0000000000000001
 11
-49.9501360376889068
 21
0.000000000000041
 31
0.0
210
0.0
220
1.0
230
-0.0000000000000002
  0
ARC
  5
3133
  8
0
  6
VERDECKT
 62
     1
 10
59.0000000000001634
 20
99.491893102784843
 30
0.0
 40
10.0000000000001297
210
0.0
220
-0.0000000000000002
230
-1.0
 50
130.7057068310431021
 51
179.9999999999994884
  0
ARC
  5
3134
  8
0
  6
VERDECKT
 62
     1
 10
-59.0000000000000568
 20
99.4918931027848714
 30
0.0
 40
10.0000000000000906
210
0.0
220
-0.0000000000000002
230
-1.0
 50
0.0000000000003308
 51
49.2942931689568766
  0
ARC
  5
3135
  8
0
  6
VERDECKT
 62
     1
 10
43.9999999999986784
 20
116.9274888769482033
 30
0.0
 40
13.00000000000135
210
0.0
220
-0.0000000000000002
230
-1.0
 50
310.7057068310429031
 51
359.9999999999968736
  0
ARC
  5
3136
  8
0
  6
VERDECKT
 62
     1
 10
-43.9999999999986571
 20
116.9274888769482033
 30
0.0
 40
13.0000000000013092
210
0.0
220
-0.0000000000000002
230
-1.0
 50
180.000000000002899
 51
229.2942931689570969
  0
LINE
  5
3137
  8
0
  6
VERDECKT
 62
     1
 10
56.9999999999999716
 20
134.6387103975561956
 30
-0.0000000000000299
 11
56.9999999999999716
 21
116.9274888769475069
 31
-0.000000000000026
210
0.0
220
1.0
230
-0.0000000000000002
  0
LINE
  5
3138
  8
0
  6
VERDECKT
 62
     1
 10
-57.0000000000000213
 20
134.6387103975561956
 30
-0.0000000000000299
 11
-57.0000000000000213
 21
116.9274888769475069
 31
-0.000000000000026
210
0.0
220
1.0
230
-0.0000000000000002
  0
ARC
  5
3139
  8
0
  6
VERDECKT
 62
     1
 10
71.0000000000004263
 20
134.6387103975561956
 30
0.0
 40
14.0000000000003908
210
0.0
220
-0.0000000000000002
230
-1.0
 50
156.7688706623953863
 51
179.9999999999996874
  0
ARC
  5
313A
  8
0
  6
VERDECKT
 62
     1
 10
-71.0000000000003553
 20
134.6387103975561956
 30
0.0
 40
14.0000000000003997
210
0.0
220
-0.0000000000000002
230
-1.0
 50
0.0000000000002417
 51
23.2311293376046208
  0
ARC
  5
313B
  8
0
  6
VERDECKT
 62
     1
 10
37.0000000000050875
 20
149.2329999999990093
 30
0.0
 40
22.9999093106946013
210
0.0
220
-0.0000000000000002
230
-1.0
 50
336.7688706623949884
 51
0.0000000000022773
  0
ARC
  5
313C
  8
0
  6
VERDECKT
 62
     1
 10
-37.0000000000052722
 20
149.2329999999990093
 30
0.0
 40
22.9999093106943491
210
0.0
220
-0.0000000000000002
230
-1.0
 50
179.9999999999974989
 51
203.2311293376050969
  0
LINE
  5
313D
  8
0
  6
VERDECKT
 62
     1
 10
-59.9999093106996781
 20
149.2329999999998904
 30
-0.0000000000000331
 11
-60.0000000000000284
 21
169.5716731926929128
 31
-0.0000000000000377
210
0.0
220
1.0
230
-0.0000000000000002
  0
LINE
  5
313E
  8
0
  6
VERDECKT
 62
     1
 10
59.9999093106996213
 20
149.2329999999998904
 30
-0.0000000000000331
 11
59.9999999999999716
 21
169.5716731926929128
 31
-0.0000000000000377
210
0.0
220
1.0
230
-0.0000000000000002
  0
ARC
  5
313F
  8
0
  6
VERDECKT
 62
     1
 10
37.0004581542513407
 20
169.5717757466962041
 30
0.0
 40
22.9995418459773404
210
0.0
220
-0.0000000000000002
230
-1.0
 50
359.9997445204954261
 51
25.2346499720572908
  0
ARC
  5
3140
  8
0
  6
VERDECKT
 62
     1
 10
-37.0004581542510067
 20
169.5717757466960904
 30
0.0
 40
22.9995418459775998
210
0.0
220
-0.0000000000000002
230
-1.0
 50
154.7653500279427874
 51
180.0002554795044034
  0
LINE
  5
3141
  8
0
  6
VERDECKT
 62
     1
 10
-57.8051397932874806
 20
179.3770879305695019
 30
-0.0000000000000398
 11
-59.7211355350035902
 21
179.9999999999998863
 31
-0.00000000000004
210
0.0
220
1.0
230
-0.0000000000000002
  0
LINE
  5
3142
  8
0
  6
VERDECKT
 62
     1
 10
57.8051397932874309
 20
179.3770879305695019
 30
-0.0000000000000398
 11
59.7211355350035333
 21
179.9999999999998863
 31
-0.00000000000004
210
0.0
220
1.0
230
-0.0000000000000002
  0
LINE
  5
3143
  8
0
  6
VERDECKT
 62
     1
 10
59.7211355350035333
 20
180.0
 30
-0.00000000000004
 11
59.9425432305457591
 21
179.503425813179291
 31
-0.0000000000000399
210
0.0
220
1.0
230
-0.0000000000000002
  0
LINE
  5
3144
  8
0
  6
VERDECKT
 62
     1
 10
-59.7211355350035902
 20
180.0
 30
-0.00000000000004
 11
-59.9425432305458088
 21
179.503425813179291
 31
-0.0000000000000399
210
0.0
220
1.0
230
-0.0000000000000002
  0
LINE
  5
3145
  8
0
  6
VERDECKT
 62
     1
 10
-64.0000000000001137
 20
60.0000000000000711
 30
-0.0000000000000133
 11
-64.0000000000001137
 21
179.9999999999998863
 31
-0.00000000000004
210
0.0
220
1.0
230
-0.0000000000000002
  0
LINE
  5
3146
  8
0
  6
VERDECKT
 62
     1
 10
64.0000000000001137
 20
60.0000000000000711
 30
-0.0000000000000133
 11
64.0000000000001137
 21
179.9999999999998863
 31
-0.00000000000004
210
0.0
220
1.0
230
-0.0000000000000002
  0
LINE
  5
3147
  8
0
  6
VERDECKT
 62
     1
 10
56.0
 20
65.9999999999999005
 30
-0.0000000000000147
 11
-56.0
 21
65.9999999999999005
 31
-0.0000000000000147
210
0.0
220
1.0
230
-0.0000000000000002
  0
LINE
  5
3148
  8
0
  6
VERDECKT
 62
     1
 10
64.0
 20
75.9999999999999005
 30
-0.0000000000000169
 11
-64.0
 21
75.9999999999999005
 31
-0.0000000000000169
210
0.0
220
1.0
230
-0.0000000000000002
  0
LINE
  5
3149
  8
0
  6
VERDECKT
 62
     1
 10
62.4999999999999432
 20
77.4999999999998437
 30
-0.0000000000000172
 11
-62.4999999999999432
 21
77.4999999999998437
 31
-0.0000000000000172
210
0.0
220
1.0
230
-0.0000000000000002
  0
LINE
  5
314A
  8
0
  6
VERDECKT
 62
     1
 10
-51.0
 20
65.9999999999999005
 30
-0.0000000000000147
 11
-51.0
 21
77.4999999999998437
 31
-0.0000000000000172
210
0.0
220
1.0
230
-0.0000000000000002
  0
LINE
  5
314B
  8
0
  6
VERDECKT
 62
     1
 10
51.0
 20
65.9999999999999005
 30
-0.0000000000000147
 11
51.0
 21
77.4999999999998437
 31
-0.0000000000000172
210
0.0
220
1.0
230
-0.0000000000000002
  0
LINE
  5
314C
  8
0
  6
VERDECKT
 62
     1
 10
56.0000000000000213
 20
65.9999999999999147
 30
-0.0000000000000147
 11
60.6188021535172012
 21
57.9999999999998579
 31
-0.0000000000000129
210
0.0
220
1.0
230
-0.0000000000000002
  0
LINE
  5
314D
  8
0
  6
VERDECKT
 62
     1
 10
-56.0000000000000213
 20
65.9999999999999147
 30
-0.0000000000000147
 11
-60.6188021535172012
 21
57.9999999999998579
 31
-0.0000000000000129
210
0.0
220
1.0
230
-0.0000000000000002
  0
LINE
  5
314E
  8
0
  6
VERDECKT
 62
     1
 10
-64.0
 20
59.9999999999999005
 30
-0.0000000000000133
 11
-64.0
 21
75.9999999999999005
 31
-0.0000000000000169
210
0.0
220
1.0
230
-0.0000000000000002
  0
LINE
  5
314F
  8
0
  6
VERDECKT
 62
     1
 10
64.0
 20
59.9999999999999005
 30
-0.0000000000000133
 11
64.0
 21
75.9999999999999005
 31
-0.0000000000000169
210
0.0
220
1.0
230
-0.0000000000000002
  0
LINE
  5
3150
  8
0
  6
VERDECKT
 62
     1
 10
62.4999999999999574
 20
77.4999999999998437
 30
-0.0000000000000172
 11
64.0000000000000142
 21
75.9999999999999147
 31
-0.0000000000000169
210
0.0
220
1.0
230
-0.0000000000000002
  0
LINE
  5
3151
  8
0
  6
VERDECKT
 62
     1
 10
-62.4999999999999574
 20
77.4999999999998437
 30
-0.0000000000000172
 11
-64.0000000000000142
 21
75.9999999999999147
 31
-0.0000000000000169
210
0.0
220
1.0
230
-0.0000000000000002
  0
LINE
  5
3152
  8
0
  6
VERDECKT
 62
     1
 10
-62.0
 20
149.2329999999998051
 30
-0.0000000000000331
 11
62.0
 21
149.2329999999998051
 31
-0.0000000000000331
210
0.0
220
1.0
230
-0.0000000000000002
  0
LINE
  5
3153
  8
0
  6
VERDECKT
 62
     1
 10
-64.0000000000002274
 20
75.9999999999997158
 30
-0.0000000000000169
 11
64.0000000000002274
 21
75.9999999999997158
 31
-0.0000000000000169
210
0.0
220
1.0
230
-0.0000000000000002
  0
LINE
  5
3154
  8
0
  6
VERDECKT
 62
     1
 10
-62.5
 20
77.4999999999999005
 30
-0.0000000000000172
 11
62.5
 21
77.4999999999999005
 31
-0.0000000000000172
210
0.0
220
1.0
230
-0.0000000000000002
  0
LINE
  5
3155
  8
0
  6
VERDECKT
 62
     1
 10
62.0
 20
169.5716731926927991
 30
-0.0000000000000377
 11
62.0
 21
149.2329999999998051
 31
-0.0000000000000331
210
0.0
220
1.0
230
-0.0000000000000002
  0
LINE
  5
3156
  8
0
  6
VERDECKT
 62
     1
 10
-62.0
 20
169.5716731926927991
 30
-0.0000000000000377
 11
-62.0
 21
149.2329999999998051
 31
-0.0000000000000331
210
0.0
220
1.0
230
-0.0000000000000002
  0
ARC
  5
3157
  8
0
  6
VERDECKT
 62
     1
 10
36.9999999999993889
 20
169.5716731926929128
 30
0.0
 40
25.0000000000006111
210
0.0
220
-0.0000000000000002
230
-1.0
 50
359.9999999999997726
 51
24.6537182127349688
  0
ARC
  5
3158
  8
0
  6
VERDECKT
 62
     1
 10
-36.9999999999996874
 20
169.5716731926929128
 30
0.0
 40
25.0000000000003197
210
0.0
220
-0.0000000000000002
230
-1.0
 50
155.3462817872648998
 51
180.0000000000003126
  0
LINE
  5
3159
  8
0
  6
VERDECKT
 62
     1
 10
64.0
 20
180.0
 30
-0.00000000000004
 11
64.0
 21
75.9999999999997158
 31
-0.0000000000000169
210
0.0
220
1.0
230
-0.0000000000000002
  0
LINE
  5
315A
  8
0
  6
VERDECKT
 62
     1
 10
-64.0
 20
180.0
 30
-0.00000000000004
 11
-64.0
 21
75.9999999999997158
 31
-0.0000000000000169
210
0.0
220
1.0
230
-0.0000000000000002
  0
LINE
  5
315B
  8
0
  6
VERDECKT
 62
     1
 10
62.4999999999999218
 20
77.4999999999998295
 30
-0.0000000000000172
 11
64.0000000000001563
 21
75.9999999999996447
 31
-0.0000000000000169
210
0.0
220
1.0
230
-0.0000000000000002
  0
LINE
  5
315C
  8
0
  6
VERDECKT
 62
     1
 10
-62.4999999999999218
 20
77.4999999999998295
 30
-0.0000000000000172
 11
-64.0000000000001563
 21
75.9999999999996447
 31
-0.0000000000000169
210
0.0
220
1.0
230
-0.0000000000000002
  0
LINE
  5
315D
  8
0
  6
VERDECKT
 62
     1
 10
51.0
 20
99.4918931027849283
 30
-0.0000000000000221
 11
51.0
 21
77.4999999999999005
 31
-0.0000000000000172
210
0.0
220
1.0
230
-0.0000000000000002
  0
LINE
  5
315E
  8
0
  6
VERDECKT
 62
     1
 10
-51.0
 20
99.4918931027849283
 30
-0.0000000000000221
 11
-51.0
 21
77.4999999999999005
 31
-0.0000000000000172
210
0.0
220
1.0
230
-0.0000000000000002
  0
ARC
  5
315F
  8
0
  6
VERDECKT
 62
     1
 10
58.9999999999999787
 20
99.4918931027846583
 30
0.0
 40
8.0000000000000036
210
0.0
220
-0.0000000000000002
230
-1.0
 50
130.7057068310384977
 51
179.9999999999980105
  0
ARC
  5
3160
  8
0
  6
VERDECKT
 62
     1
 10
-58.9999999999999787
 20
99.4918931027846583
 30
0.0
 40
8.0000000000000071
210
0.0
220
-0.0000000000000002
230
-1.0
 50
0.0000000000019338
 51
49.2942931689615307
  0
ARC
  5
3161
  8
0
  6
VERDECKT
 62
     1
 10
43.9999999999997371
 20
116.9274888769475069
 30
0.0
 40
15.0000000000002593
210
0.0
220
-0.0000000000000002
230
-1.0
 50
310.705706831043301
 51
360.0
  0
ARC
  5
3162
  8
0
  6
VERDECKT
 62
     1
 10
-43.99999999999973
 20
116.9274888769475069
 30
0.0
 40
15.0000000000002593
210
0.0
220
-0.0000000000000002
230
-1.0
 50
180.0
 51
229.2942931689565
  0
LINE
  5
3163
  8
0
  6
VERDECKT
 62
     1
 10
59.0
 20
134.6387103975557977
 30
-0.0000000000000299
 11
59.0
 21
116.9274888769475069
 31
-0.000000000000026
210
0.0
220
1.0
230
-0.0000000000000002
  0
LINE
  5
3164
  8
0
  6
VERDECKT
 62
     1
 10
-59.0
 20
134.6387103975557977
 30
-0.0000000000000299
 11
-59.0
 21
116.9274888769475069
 31
-0.000000000000026
210
0.0
220
1.0
230
-0.0000000000000002
  0
ARC
  5
3165
  8
0
  6
VERDECKT
 62
     1
 10
70.9999999999999147
 20
134.6387103975555988
 30
0.0
 40
11.9999999999999094
210
0.0
220
-0.0000000000000002
230
-1.0
 50
156.7688706623962958
 51
179.9999999999992042
  0
ARC
  5
3166
  8
0
  6
VERDECKT
 62
     1
 10
-70.9999999999999147
 20
134.6387103975555988
 30
0.0
 40
11.9999999999999201
210
0.0
220
-0.0000000000000002
230
-1.0
 50
0.0000000000008142
 51
23.23112933760369
  0
ARC
  5
3167
  8
0
  6
VERDECKT
 62
     1
 10
36.9999999999972573
 20
149.2329999999998904
 30
0.0
 40
24.9999093107023995
210
0.0
220
-0.0000000000000002
230
-1.0
 50
336.7688706623981147
 51
359.9999999999997726
  0
ARC
  5
3168
  8
0
  6
VERDECKT
 62
     1
 10
-36.9999999999975913
 20
149.2329999999998051
 30
0.0
 40
24.9999093107020585
210
0.0
220
-0.0000000000000002
230
-1.0
 50
179.9999999999998863
 51
203.2311293376019137
  0
ENDBLK
  5
316A
  8
0
  0
ENDSEC
  0
SECTION
  2
ENTITIES
  0
TEXT
  5
1D8
  8
VOLL
 10
78.076754716981128
 20
31.025947764705851
 30
0.0
 40
1.8
  1

  7
GREEKS
  0
TEXT
  5
1E4
  8
VOLL
 10
339.7958237333796774
 20
71.919576338331467
 30
0.0
 40
1.8
  1

  7
GREEKS
  0
TEXT
  5
1E5
  8
TEXT
 10
671.6280919369726234
 20
77.4778118715570088
 30
0.0
 40
2.5
  1
  
  7
GREEKS
 72
     1
 11
673.8899966988774395
 21
77.4778118715570088
 31
0.0
  0
TEXT
  5
1E6
  8
BEM
 10
915.7478092494545763
 20
213.036693901959211
 30
0.0
 40
2.5
  1
 
 72
     4
 11
916.8787616304069843
 21
213.036693901959211
 31
0.0
  0
TEXT
  5
1E8
  8
BEM
 10
454.2848421115471069
 20
134.8585024391051093
 30
0.0
 40
2.5
  1

  7
GREEKS
  0
TEXT
  5
1E9
  8
VOLL
 10
440.2186490918256254
 20
114.6752417820700032
 30
0.0
 40
1.8
  1

  7
GREEKS
  0
TEXT
  5
1EA
  8
BEM
 10
474.7067139311101869
 20
119.4009661052904931
 30
0.0
 40
2.5
  1

 41
0.8
  7
GREEKS
  0
TEXT
  5
1EB
  8
BEM
 10
474.7067139311101869
 20
114.7071975512383943
 30
0.0
 40
2.5
  1

 41
0.8
  7
GREEKS
  0
TEXT
  5
1EC
  8
BEM
 10
474.7067139311101869
 20
109.469353732574902
 30
0.0
 40
2.5
  1

 41
0.8
  7
GREEKS
  0
TEXT
  5
1ED
  8
BEM
 10
474.6337694537357947
 20
104.9641647824772974
 30
0.0
 40
1.8
  1

 41
0.8
  7
GREEKS
  0
TEXT
  5
1EE
  8
BEM
 10
461.9501985741246131
 20
130.5557538787024896
 30
0.0
 40
2.0
  1

 41
0.8
  7
GREEKS
 72
     1
 11
461.9501985741246131
 21
130.5557538787024896
 31
0.0
  0
TEXT
  5
1EF
  8
TEXT
 10
772.0509172954184578
 20
120.2334773152955023
 30
0.0
 40
2.5
  1
  
  7
GREEKS
 72
     1
 11
774.3128220573232738
 21
120.2334773152955023
 31
0.0
  0
TEXT
  5
1F0
  8
BEM
 10
1016.1706346078999559
 20
255.7923593456976903
 30
0.0
 40
2.5
  1
 
 72
     4
 11
1017.301586988853046
 21
255.7923593456976903
 31
0.0
  0
TEXT
  5
1F1
  8
VOLL
 10
228.6383494536079013
 20
31.1863151116223882
 30
0.0
 40
1.8
  1

  7
GREEKS
  0
TEXT
  5
1F2
  8
TEXT
 10
560.4706176572007053
 20
36.7445506448479335
 30
0.0
 40
2.5
  1
  
  7
GREEKS
 72
     1
 11
562.732522419105635
 21
36.7445506448479335
 31
0.0
  0
TEXT
  5
1F3
  8
BEM
 10
804.5903349696827718
 20
172.3034326752502068
 30
0.0
 40
2.5
  1
 
 72
     4
 11
805.7212873506352935
 21
172.3034326752502068
 31
0.0
  0
TEXT
  5
1F4
  8
BEM
 10
393.9839625332579089
 20
71.3395458102080511
 30
0.0
 40
2.5
  1

  7
GREEKS
  0
TEXT
  5
1F5
  8
VOLL
 10
379.9177695135364274
 20
51.1562851531729379
 30
0.0
 40
1.8
  1

  7
GREEKS
  0
TEXT
  5
1F6
  8
BEM
 10
414.4058343528211026
 20
55.8820094763935415
 30
0.0
 40
2.5
  1

 41
0.8
  7
GREEKS
  0
TEXT
  5
1F7
  8
BEM
 10
414.4058343528211026
 20
51.1882409223413788
 30
0.0
 40
2.5
  1

 41
0.8
  7
GREEKS
  0
TEXT
  5
1F8
  8
BEM
 10
414.4058343528211026
 20
45.9503971036778793
 30
0.0
 40
2.5
  1

 41
0.8
  7
GREEKS
  0
TEXT
  5
1F9
  8
BEM
 10
414.3328898754465968
 20
41.4452081535802606
 30
0.0
 40
1.8
  1

 41
0.8
  7
GREEKS
  0
TEXT
  5
1FA
  8
BEM
 10
401.6493189958354151
 20
67.0367972498055451
 30
0.0
 40
2.0
  1

 41
0.8
  7
GREEKS
 72
     1
 11
401.6493189958354151
 21
67.0367972498055451
 31
0.0
  0
TEXT
  5
1FB
  8
TEXT
 10
711.7500377171293167
 20
56.7145206863984797
 30
0.0
 40
2.5
  1
  
  7
GREEKS
 72
     1
 11
714.0119424790341327
 21
56.7145206863984797
 31
0.0
  0
TEXT
  5
1FC
  8
BEM
 10
955.8697550296113832
 20
192.2734027168006889
 30
0.0
 40
2.5
  1
 
 72
     4
 11
957.0007074105636775
 21
192.2734027168006889
 31
0.0
  0
TEXT
  5
54A
  8
VOLL
 10
305.2666505177692784
 20
60.9917365573274992
 30
0.0
 40
1.8
  1

  7
GREEKS
  0
TEXT
  5
558
  8
BEM
 10
779.8708637178526715
 20
75.8397999125841125
 30
0.0
 40
2.5
  1

 41
0.8
  7
GREEKS
 72
     4
 11
779.8708637178526715
 21
75.8397999125841125
 31
0.0
  0
INSERT
  5
3107
  8
ROHR
  2
A$C00590D14
 10
-0.0000000000000041
 20
-116.500000000000199
 30
0.0
  0
INSERT
  5
316B
  8
ROHR
  2
A$C0B826531
 10
0.0
 20
0.0
 30
0.0
  0
VIEWPORT
  5
2E72
 67
     1
  8
0
 10
5.6776494276905041
 20
8.0076585924251145
 30
0.0
 40
32.4149683191103932
 41
16.9392961933199686
 68
     1
 69
     1
1001
ACAD
1000
MVIEW
1002
{
1070
    16
1010
0.0
1020
0.0
1030
0.0
1010
0.0
1020
0.0
1030
1.0
1040
0.0
1040
16.9392961933199686
1040
5.6776494276905041
1040
8.0076585924251145
1040
50.0
1040
0.0
1040
0.0
1070
     0
1070
  1500
1070
     1
1070
     1
1070
     0
1070
     0
1070
     0
1070
     0
1040
0.0
1040
0.0
1040
0.0
1040
10.0
1040
10.0
1040
10.0
1040
10.0
1070
     0
1002
{
1002
}
1002
}
  0
VIEWPORT
  5
2E76
 67
     1
  8
DEFPOINTS
 10
5.6776837931120392
 20
8.0079200973871192
 30
0.0
 40
11.7798510819256403
 41
16.8100395032878787
 68
     2
 69
     2
1001
ACAD
1000
MVIEW
1002
{
1070
    16
1010
69.7577336598491229
1020
315.4569859434840851
1030
-190.2704881688200942
1010
0.0
1020
0.0
1030
2461.5040022688008321
1040
0.0
1040
616.7204274605901446
1040
136.8720377943249105
1040
-17.1453743646382506
1040
50.0
1040
0.0
1040
0.0
1070
     0
1070
  1500
1070
     1
1070
     0
1070
     0
1070
     0
1070
     0
1070
     0
1040
0.0
1040
0.0
1040
0.0
1040
1.0
1040
1.0
1040
10.0
1040
10.0
1070
     0
1002
{
1002
}
1002
}
  0
VIEWPORT
  5
2E7A
 67
     1
  8
DEFPOINTS
 10
8.900442027412339
 20
6.9076257919968418
 30
0.0
 40
3.798261270771774
 41
4.6977627287251664
 68
     3
 69
     3
1001
ACAD
1000
MVIEW
1002
{
1070
    16
1010
705.2058048495705407
1020
417.8863140667393168
1030
-198.1051899292799874
1010
0.0
1020
140.6066088918204002
1030
498.9632515131924038
1040
3.146800413368104
1040
307.8351453785426202
1040
0.0
1040
0.0
1040
50.0
1040
0.0
1040
0.0
1070
     0
1070
  1500
1070
     1
1070
     0
1070
     0
1070
     0
1070
     0
1070
     0
1040
0.0
1040
0.0
1040
0.0
1040
1.0
1040
1.0
1040
10.0
1040
10.0
1070
     0
1002
{
1002
}
1002
}
  0
ENDSEC
  0
EOF
