  0
SECTION
  2
HEADER
  9
$ACADVER
  1
AC1009
  9
$INSBASE
 10
0.0
 20
0.0
 30
0.0
  9
$EXTMIN
 10
0.0000068711709673
 20
0.0000012560304299
 30
0.0
  9
$EXTMAX
 10
102.0000068711721042
 20
4457.8810954551199757
 30
0.0
  9
$LIMMIN
 10
0.0
 20
0.0
  9
$LIMMAX
 10
419.9999999999998863
 20
594.0
  9
$ORTHOMODE
 70
     1
  9
$REGENMODE
 70
     1
  9
$FILLMODE
 70
     1
  9
$QTEXTMODE
 70
     0
  9
$MIRRTEXT
 70
     1
  9
$DRAGMODE
 70
     2
  9
$LTSCALE
 40
20.0
  9
$OSMODE
 70
    39
  9
$ATTMODE
 70
     1
  9
$TEXTSIZE
 40
3.5
  9
$TRACEWID
 40
0.5
  9
$TEXTSTYLE
  7
STANDARD
  9
$CLAYER
  8
HILF
  9
$CELTYPE
  6
BYLAYER
  9
$CECOLOR
 62
   256
  9
$DIMSCALE
 40
2.0
  9
$DIMASZ
 40
3.5
  9
$DIMEXO
 40
1.0
  9
$DIMDLI
 40
7.0
  9
$DIMRND
 40
0.0
  9
$DIMDLE
 40
0.0
  9
$DIMEXE
 40
1.0
  9
$DIMTP
 40
0.0
  9
$DIMTM
 40
0.0
  9
$DIMTXT
 40
3.5
  9
$DIMCEN
 40
1.5
  9
$DIMTSZ
 40
0.0
  9
$DIMTOL
 70
     0
  9
$DIMLIM
 70
     0
  9
$DIMTIH
 70
     0
  9
$DIMTOH
 70
     0
  9
$DIMSE1
 70
     0
  9
$DIMSE2
 70
     0
  9
$DIMTAD
 70
     1
  9
$DIMZIN
 70
     8
  9
$DIMBLK
  1

  9
$DIMASO
 70
     1
  9
$DIMSHO
 70
     0
  9
$DIMPOST
  1

  9
$DIMAPOST
  1

  9
$DIMALT
 70
     0
  9
$DIMALTD
 70
     2
  9
$DIMALTF
 40
25.3999999999999986
  9
$DIMLFAC
 40
1.0
  9
$DIMTOFL
 70
     1
  9
$DIMTVP
 40
0.0
  9
$DIMTIX
 70
     0
  9
$DIMSOXD
 70
     0
  9
$DIMSAH
 70
     0
  9
$DIMBLK1
  1

  9
$DIMBLK2
  1

  9
$DIMSTYLE
  2
STANDARD
  9
$DIMCLRD
 70
     0
  9
$DIMCLRE
 70
     0
  9
$DIMCLRT
 70
     1
  9
$DIMTFAC
 40
0.5142857142857143
  9
$DIMGAP
 40
1.5
  9
$LUNITS
 70
     2
  9
$LUPREC
 70
     2
  9
$SKETCHINC
 40
1.0
  9
$FILLETRAD
 40
0.0
  9
$AUNITS
 70
     0
  9
$AUPREC
 70
     0
  9
$MENU
  1
ACAD
  9
$ELEVATION
 40
0.0
  9
$PELEVATION
 40
0.0
  9
$THICKNESS
 40
0.0
  9
$LIMCHECK
 70
     0
  9
$BLIPMODE
 70
     0
  9
$CHAMFERA
 40
0.0
  9
$CHAMFERB
 40
0.0
  9
$SKPOLY
 70
     0
  9
$TDCREATE
 40
2455397.8646990740671754
  9
$TDUPDATE
 40
2458418.2895370367914438
  9
$TDINDWG
 40
0.1008598611
  9
$TDUSRTIMER
 40
0.1008598611
  9
$USRTIMER
 70
     1
  9
$ANGBASE
 50
0.0
  9
$ANGDIR
 70
     0
  9
$PDMODE
 70
     0
  9
$PDSIZE
 40
0.0
  9
$PLINEWID
 40
0.0
  9
$COORDS
 70
     1
  9
$SPLFRAME
 70
     0
  9
$SPLINETYPE
 70
     6
  9
$SPLINESEGS
 70
     8
  9
$ATTDIA
 70
     1
  9
$ATTREQ
 70
     1
  9
$HANDLING
 70
     1
  9
$HANDSEED
  5
12B8
  9
$SURFTAB1
 70
     6
  9
$SURFTAB2
 70
     6
  9
$SURFTYPE
 70
     6
  9
$SURFU
 70
     6
  9
$SURFV
 70
     6
  9
$UCSNAME
  2

  9
$UCSORG
 10
0.0
 20
0.0
 30
0.0
  9
$UCSXDIR
 10
1.0
 20
0.0
 30
0.0
  9
$UCSYDIR
 10
0.0
 20
1.0
 30
0.0
  9
$PUCSNAME
  2

  9
$PUCSORG
 10
0.0
 20
0.0
 30
0.0
  9
$PUCSXDIR
 10
1.0
 20
0.0
 30
0.0
  9
$PUCSYDIR
 10
0.0
 20
1.0
 30
0.0
  9
$USERI1
 70
     0
  9
$USERI2
 70
     0
  9
$USERI3
 70
     0
  9
$USERI4
 70
     0
  9
$USERI5
 70
     0
  9
$USERR1
 40
0.0
  9
$USERR2
 40
0.0
  9
$USERR3
 40
0.0
  9
$USERR4
 40
0.0
  9
$USERR5
 40
0.0
  9
$WORLDVIEW
 70
     1
  9
$SHADEDGE
 70
     3
  9
$SHADEDIF
 70
    70
  9
$TILEMODE
 70
     1
  9
$MAXACTVP
 70
    16
  9
$PLIMCHECK
 70
     0
  9
$PEXTMIN
 10
-63.5345890643850382
 20
-2148.1608707401778702
 30
-0.0015258207003583
  9
$PEXTMAX
 10
674.5294208474572315
 20
2191.7015628341359843
 30
0.0000000349246037
  9
$PLIMMIN
 10
-0.2500002402958907
 20
-0.2499999962453767
  9
$PLIMMAX
 10
10.7499995194082203
 20
8.2499997634587334
  9
$UNITMODE
 70
     0
  9
$VISRETAIN
 70
     0
  9
$PLINEGEN
 70
     0
  9
$PSLTSCALE
 70
     0
  0
ENDSEC
  0
SECTION
  2
TABLES
  0
TABLE
  2
VPORT
 70
     1
  0
VPORT
  2
*ACTIVE
 70
     0
 10
0.0
 20
0.0
 11
1.0
 21
1.0
 12
51.0000068711715286
 22
2228.9405483555751744
 13
0.0
 23
0.0
 14
1.0
 24
1.0
 15
10.0
 25
10.0
 16
-0.0000000000000012
 26
0.0
 36
5.5852494427615742
 17
0.0
 27
0.0
 37
0.0
 40
4493.4966555375640382
 41
2.0800000000000001
 42
50.0
 43
0.0
 44
0.0
 50
0.0
 51
0.0
 71
     0
 72
  1500
 73
     1
 74
     0
 75
     0
 76
     0
 77
     0
 78
     0
  0
ENDTAB
  0
TABLE
  2
LTYPE
 70
     2
  0
LTYPE
  2
CONTINUOUS
 70
     0
  3
Solid line
 72
    65
 73
     0
 40
0.0
  0
LTYPE
  2
VERDECKT
 70
     0
  3
Verdeckt __ __ __ __ __ __ __ __ __ __ __ __ __
 72
    65
 73
     2
 40
0.375
 49
0.25
 49
-0.125
  0
ENDTAB
  0
TABLE
  2
LAYER
 70
     5
  0
LAYER
  2
0
 70
     0
 62
     7
  6
CONTINUOUS
  0
LAYER
  2
HILF
 70
     0
 62
     2
  6
CONTINUOUS
  0
LAYER
  2
VOLL
 70
     0
 62
     1
  6
CONTINUOUS
  0
LAYER
  2
DEFPOINTS
 70
     0
 62
     7
  6
CONTINUOUS
  0
LAYER
  2
ADSK_ASSOC_ENTITY_BACKUPS
 70
     1
 62
    -7
  6
CONTINUOUS
  0
ENDTAB
  0
TABLE
  2
STYLE
 70
     3
  0
STYLE
  2
STANDARD
 70
     0
 40
0.0
 41
0.8
 50
0.0
 71
     0
 42
3.5
  3
simplex.shx
  4

  0
STYLE
  2
ANNOTATIVE
 70
     0
 40
0.0
 41
1.0
 50
0.0
 71
     0
 42
0.2
  3
txt
  4

  0
STYLE
  2
GREEKS
 70
     0
 40
0.0
 41
0.8
 50
0.0
 71
     0
 42
2.5
  3
SIMPLEX.shx
  4

  0
ENDTAB
  0
TABLE
  2
VIEW
 70
     0
  0
ENDTAB
  0
TABLE
  2
UCS
 70
     0
  0
ENDTAB
  0
TABLE
  2
APPID
 70
    14
  0
APPID
  2
ACAD
 70
     0
  0
APPID
  2
ACADANNOTATIVE
 70
     0
  0
APPID
  2
ACAD_NAV_VCDISPLAY
 70
     0
  0
APPID
  2
ACAECLAYERSTANDARD
 70
     0
  0
APPID
  2
ACCMTRANSPARENCY
 70
     0
  0
APPID
  2
ACAD_PSEXT
 70
     0
  0
APPID
  2
ACAD_EXEMPT_FROM_CAD_STANDARDS
 70
     0
  0
APPID
  2
ACSYNERGY
 70
     0
  0
APPID
  2
SYNERGY_BODY_TBR_ID
 70
     0
  0
APPID
  2
ACAD_VIEW_EDGE_ID
 70
     0
  0
APPID
  2
ACSYNERGYSKETCH
 70
     0
  0
APPID
  2
ACAD_MODELDOC_XFORM
 70
     0
  0
APPID
  2
ACAD_MLEADERVER
 70
     0
  0
APPID
  2
ACADANNOMONITORALERTICONDI
 70
     0
  0
ENDTAB
  0
TABLE
  2
DIMSTYLE
 70
     2
  0
DIMSTYLE
  2
STANDARD
 70
     0
  3

  4

  5

  6

  7

 40
1.0
 41
0.18
 42
0.0625
 43
0.38
 44
0.18
 45
0.0
 46
0.0
 47
0.0
 48
0.0
140
0.18
141
0.09
142
0.0
143
25.3999999999999986
144
1.0
145
0.0
146
1.0
147
0.09
 71
     0
 72
     0
 73
     1
 74
     1
 75
     0
 76
     0
 77
     0
 78
     0
170
     0
171
     2
172
     0
173
     0
174
     0
175
     0
176
     0
177
     0
178
     0
  0
DIMSTYLE
  2
ANNOTATIVE
 70
     0
  3

  4

  5

  6

  7

 40
1.0
 41
0.18
 42
0.0625
 43
0.38
 44
0.18
 45
0.0
 46
0.0
 47
0.0
 48
0.0
140
0.18
141
0.09
142
0.0
143
25.3999999999999986
144
1.0
145
0.0
146
1.0
147
0.09
 71
     0
 72
     0
 73
     1
 74
     1
 75
     0
 76
     0
 77
     0
 78
     0
170
     0
171
     2
172
     0
173
     0
174
     0
175
     0
176
     0
177
     0
178
     0
  0
ENDTAB
  0
ENDSEC
  0
SECTION
  2
BLOCKS
  0
BLOCK
  8
0
  2
$MODEL_SPACE
 70
     0
 10
0.0
 20
0.0
 30
0.0
  3
$MODEL_SPACE
  1

  0
ENDBLK
  5
1225
  8
0
  0
BLOCK
 67
     1
  8
0
  2
$PAPER_SPACE
 70
     0
 10
0.0
 20
0.0
 30
0.0
  3
$PAPER_SPACE
  1

  0
ENDBLK
  5
1221
 67
     1
  8
0
  0
BLOCK
  8
0
  2
*U2
 70
     1
 10
0.0
 20
0.0
 30
0.0
  3
*U2
  1

  0
ENDBLK
  5
A75
  8
0
  0
BLOCK
  8
0
  2
A$C5516167C
 70
     0
 10
0.0
 20
0.0
 30
0.0
  3
A$C5516167C
  1

  0
LINE
  5
10B4
  8
0
  6
CONTINUOUS
 62
     3
 10
946.7094773429170118
 20
-1982.5
 30
0.0
 11
1048.7094773429168981
 21
-1982.5
 31
0.0
210
0.0
220
1.0
230
0.0
  0
LINE
  5
10B5
  8
0
  6
CONTINUOUS
 62
     3
 10
946.7094773429170118
 20
-1984.5
 30
0.0
 11
1048.7094773429168981
 21
-1984.5
 31
0.0
210
0.0
220
1.0
230
0.0
  0
LINE
  5
10B6
  8
0
  6
CONTINUOUS
 62
     3
 10
1048.7094773429168981
 20
-1982.5
 30
0.0
 11
1048.7094773429168981
 21
-1984.5
 31
0.0
210
0.0
220
1.0
230
0.0
  0
LINE
  5
10B7
  8
0
  6
CONTINUOUS
 62
     3
 10
946.7094773429170118
 20
-1982.5
 30
0.0
 11
946.7094773429170118
 21
-1984.5
 31
0.0
210
0.0
220
1.0
230
0.0
  0
LINE
  5
10B8
  8
0
  6
CONTINUOUS
 62
     3
 10
1048.7094773429168981
 20
2027.5
 30
0.0
 11
946.7094773429170118
 21
2027.5
 31
0.0
210
0.0
220
1.0
230
0.0
  0
LINE
  5
10B9
  8
0
  6
CONTINUOUS
 62
     3
 10
946.7094773429170118
 20
-1982.5
 30
0.0
 11
1048.7094773429168981
 21
-1982.5
 31
0.0
210
0.0
220
1.0
230
0.0
  0
LINE
  5
10BA
  8
0
  6
CONTINUOUS
 62
     3
 10
1048.7094773429168981
 20
2027.5
 30
0.0
 11
1048.7094773429168981
 21
-1982.5
 31
0.0
210
0.0
220
1.0
230
0.0
  0
LINE
  5
10BB
  8
0
  6
CONTINUOUS
 62
     3
 10
946.7094773429170118
 20
2027.5
 30
0.0
 11
946.7094773429170118
 21
-1982.5
 31
0.0
210
0.0
220
1.0
230
0.0
  0
LINE
  5
10BC
  8
0
  6
CONTINUOUS
 62
     3
 10
1033.6031684383060565
 20
-2027.5
 30
0.0
 11
961.8157862475281945
 21
-2027.5
 31
0.0
210
0.0
220
1.0
230
0.0
  0
LINE
  5
10BD
  8
0
  6
CONTINUOUS
 62
     3
 10
1034.2094773429168981
 20
-2020.5698575086610163
 30
0.0
 11
961.2094773429170118
 21
-2020.5698575086610163
 31
0.0
210
0.0
220
1.0
230
0.0
  0
LINE
  5
10BE
  8
0
  6
CONTINUOUS
 62
     3
 10
961.8157862475281945
 20
-2027.5
 30
0.0
 11
961.2094773429170118
 21
-2020.5698575086610163
 31
0.0
210
0.0
220
1.0
230
0.0
  0
LINE
  5
10BF
  8
0
  6
CONTINUOUS
 62
     3
 10
1033.6031684383060565
 20
-2027.5
 30
0.0
 11
1034.2094773429168981
 21
-2020.5698575086610163
 31
0.0
210
0.0
220
1.0
230
0.0
  0
LINE
  5
10C0
  8
0
  6
CONTINUOUS
 62
     3
 10
961.2094773429170118
 20
-2020.5698575086610163
 30
0.0
 11
961.2094773429170118
 21
-1984.5
 31
0.0
210
0.0
220
1.0
230
0.0
  0
LINE
  5
10C1
  8
0
  6
CONTINUOUS
 62
     3
 10
1034.2094773429168981
 20
-2020.5698575086610163
 30
0.0
 11
1034.2094773429168981
 21
-1984.5
 31
0.0
210
0.0
220
1.0
230
0.0
  0
LINE
  5
10C2
  8
0
  6
VERDECKT
 62
     1
 10
948.7094773429170118
 20
2013.5
 30
0.0
 11
1046.7094773429168981
 21
2013.5
 31
0.0
210
0.0
220
1.0
230
0.0
  0
LINE
  5
10C3
  8
0
  6
VERDECKT
 62
     1
 10
955.6094773429168754
 20
2016.9510775928820294
 30
0.0
 11
1039.8094773429170345
 21
2016.9510775928820294
 31
0.0
210
0.0
220
1.0
230
0.0
  0
LINE
  5
10C4
  8
0
  6
VERDECKT
 62
     1
 10
1046.7094773429168981
 20
2027.5
 30
0.0
 11
1046.7094773429168981
 21
2013.5
 31
0.0
210
0.0
220
1.0
230
0.0
  0
LINE
  5
10C5
  8
0
  6
VERDECKT
 62
     1
 10
948.7094773429170118
 20
2027.5
 30
0.0
 11
948.7094773429170118
 21
2013.5
 31
0.0
210
0.0
220
1.0
230
0.0
  0
LINE
  5
10C6
  8
0
  6
VERDECKT
 62
     1
 10
1039.8094773429170345
 20
2016.9510775928820294
 30
0.0
 11
1039.8094773429170345
 21
2013.5
 31
0.0
210
0.0
220
1.0
230
0.0
  0
LINE
  5
10C7
  8
0
  6
VERDECKT
 62
     1
 10
955.609477342916648
 20
2016.9510775928820294
 30
0.0
 11
955.609477342916648
 21
2013.5
 31
0.0
210
0.0
220
1.0
230
0.0
  0
ARC
  5
10C8
  8
0
  6
VERDECKT
 62
     1
 10
-980.6094773429174438
 20
2016.9510775928820294
 30
0.0
 40
25.0000000000004583
210
0.0
220
0.0
230
-1.0
 50
0.0
 51
24.9581963123154793
  0
ARC
  5
10C9
  8
0
  6
VERDECKT
 62
     1
 10
-1014.8094773429170345
 20
2016.9510775928820294
 30
0.0
 40
24.9999999999999716
210
0.0
220
0.0
230
-1.0
 50
155.0418036876855865
 51
180.0000000000015064
  0
LINE
  5
10CA
  8
0
  6
VERDECKT
 62
     1
 10
954.4594773429168981
 20
-1973.5
 30
0.0
 11
1040.9594773429168981
 21
-1973.5
 31
0.0
210
0.0
220
1.0
230
0.0
  0
LINE
  5
10CB
  8
0
  6
VERDECKT
 62
     1
 10
948.7094773429170118
 20
-1966.5
 30
0.0
 11
1046.7094773429168981
 21
-1966.5
 31
0.0
210
0.0
220
1.0
230
0.0
  0
LINE
  5
10CC
  8
0
  6
VERDECKT
 62
     1
 10
958.3094773429168072
 20
-1976.4999999999990905
 30
0.0
 11
1037.1094773429169891
 21
-1976.4999999999990905
 31
0.0
210
0.0
220
1.0
230
0.0
  0
LINE
  5
10CD
  8
0
  6
VERDECKT
 62
     1
 10
954.4594773429168981
 20
-1973.5
 30
0.0
 11
951.4881536294493571
 21
-1966.5
 31
0.0
210
0.0
220
1.0
230
0.0
  0
LINE
  5
10CE
  8
0
  6
VERDECKT
 62
     1
 10
1040.9594773429168981
 20
-1973.5
 30
0.0
 11
1043.930801056384098
 21
-1966.5
 31
0.0
210
0.0
220
1.0
230
0.0
  0
LINE
  5
10CF
  8
0
  6
VERDECKT
 62
     1
 10
1046.7094773429168981
 20
-1966.5
 30
0.0
 11
1046.7094773429168981
 21
-1982.5
 31
0.0
210
0.0
220
1.0
230
0.0
  0
LINE
  5
10D0
  8
0
  6
VERDECKT
 62
     1
 10
948.7094773429170118
 20
-1966.5
 30
0.0
 11
948.7094773429170118
 21
-1982.5
 31
0.0
210
0.0
220
1.0
230
0.0
  0
LINE
  5
10D1
  8
0
  6
VERDECKT
 62
     1
 10
1037.1094773429169891
 20
-1976.4999999999990905
 30
0.0
 11
1041.7282794964339701
 21
-1984.5
 31
0.0
210
0.0
220
1.0
230
0.0
  0
LINE
  5
10D2
  8
0
  6
VERDECKT
 62
     1
 10
958.3094773429168072
 20
-1976.4999999999990905
 30
0.0
 11
953.6906751893999399
 21
-1984.5
 31
0.0
210
0.0
220
1.0
230
0.0
  0
LINE
  5
10D3
  8
0
  6
VERDECKT
 62
     1
 10
1034.2094773429168981
 20
-1966.5
 30
0.0
 11
1034.2094773429168981
 21
-1976.4999999999990905
 31
0.0
210
0.0
220
1.0
230
0.0
  0
LINE
  5
10D4
  8
0
  6
VERDECKT
 62
     1
 10
961.2094773429170118
 20
-1966.5
 30
0.0
 11
961.2094773429170118
 21
-1976.4999999999990905
 31
0.0
210
0.0
220
1.0
230
0.0
  0
LINE
  5
10D5
  8
0
  6
VERDECKT
 62
     1
 10
1037.9594773429168981
 20
-1966.5
 30
0.0
 11
1037.9594773429168981
 21
-1973.5
 31
0.0
210
0.0
220
1.0
230
0.0
  0
LINE
  5
10D6
  8
0
  6
VERDECKT
 62
     1
 10
957.4594773429170118
 20
-1966.5
 30
0.0
 11
957.4594773429170118
 21
-1973.5
 31
0.0
210
0.0
220
1.0
230
0.0
  0
LINE
  5
10D7
  8
0
  6
VERDECKT
 62
     1
 10
954.4594773429168981
 20
-1973.5
 30
0.0
 11
1040.9594773429168981
 21
-1973.5
 31
0.0
210
0.0
220
1.0
230
0.0
  0
LINE
  5
10D8
  8
0
  6
VERDECKT
 62
     1
 10
1046.7094773429168981
 20
-1966.5
 30
0.0
 11
948.7094773429170118
 21
-1966.5
 31
0.0
210
0.0
220
1.0
230
0.0
  0
LINE
  5
10D9
  8
0
  6
VERDECKT
 62
     1
 10
961.2094773429170118
 20
1967.1934003354310789
 30
0.0
 11
1034.2094773429168981
 21
1967.1934003354310789
 31
0.0
210
0.0
220
1.0
230
0.0
  0
LINE
  5
10DA
  8
0
  6
VERDECKT
 62
     1
 10
948.7094773429170118
 20
2013.5
 30
0.0
 11
1046.7094773429168981
 21
2013.5
 31
0.0
210
0.0
220
1.0
230
0.0
  0
LINE
  5
10DB
  8
0
  6
VERDECKT
 62
     1
 10
959.9694773429170027
 20
1971.4715307682261027
 30
0.0
 11
1035.4494773429169072
 21
1971.4715307682261027
 31
0.0
210
0.0
220
1.0
230
0.0
  0
LINE
  5
10DC
  8
0
  6
VERDECKT
 62
     1
 10
958.1094773429167617
 20
1977.8887264174170468
 30
0.0
 11
1037.3094773429170345
 21
1977.8887264174170468
 31
0.0
210
0.0
220
1.0
230
0.0
  0
LINE
  5
10DD
  8
0
  6
VERDECKT
 62
     1
 10
958.1094773429167617
 20
1998.8299999999999272
 30
0.0
 11
1037.3094773429170345
 21
1998.8299999999999272
 31
0.0
210
0.0
220
1.0
230
0.0
  0
LINE
  5
10DE
  8
0
  6
VERDECKT
 62
     1
 10
957.2986383344752994
 20
2003.1662052886119909
 30
0.0
 11
1038.1203163513589516
 21
2003.1662052886119909
 31
0.0
210
0.0
220
1.0
230
0.0
  0
LINE
  5
10DF
  8
0
  6
VERDECKT
 62
     1
 10
955.609477342916648
 20
2012.2682800481820777
 30
0.0
 11
1039.8094773429170345
 21
2012.2682800481820777
 31
0.0
210
0.0
220
1.0
230
0.0
  0
LINE
  5
10E0
  8
0
  6
VERDECKT
 62
     1
 10
954.4594773429168981
 20
-1973.5
 30
0.0
 11
951.4881536294493571
 21
-1966.5
 31
0.0
210
0.0
220
1.0
230
0.0
  0
LINE
  5
10E1
  8
0
  6
VERDECKT
 62
     1
 10
1040.9594773429168981
 20
-1973.5
 30
0.0
 11
1043.930801056384098
 21
-1966.5
 31
0.0
210
0.0
220
1.0
230
0.0
  0
LINE
  5
10E2
  8
0
  6
VERDECKT
 62
     1
 10
1037.9594773429168981
 20
-1966.5
 30
0.0
 11
1037.9594773429168981
 21
-1973.5
 31
0.0
210
0.0
220
1.0
230
0.0
  0
LINE
  5
10E3
  8
0
  6
VERDECKT
 62
     1
 10
957.4594773429170118
 20
-1966.5
 30
0.0
 11
957.4594773429170118
 21
-1973.5
 31
0.0
210
0.0
220
1.0
230
0.0
  0
LINE
  5
10E4
  8
0
  6
VERDECKT
 62
     1
 10
961.2094773429170118
 20
-1966.5
 30
0.0
 11
961.2094773429170118
 21
1967.1934003354310789
 31
0.0
210
0.0
220
1.0
230
0.0
  0
LINE
  5
10E5
  8
0
  6
VERDECKT
 62
     1
 10
1034.2094773429168981
 20
-1966.5
 30
0.0
 11
1034.2094773429168981
 21
1967.1934003354310789
 31
0.0
210
0.0
220
1.0
230
0.0
  0
LINE
  5
10E6
  8
0
  6
VERDECKT
 62
     1
 10
1046.7094773429168981
 20
2013.5
 30
0.0
 11
1046.7094773429168981
 21
-1966.5
 31
0.0
210
0.0
220
1.0
230
0.0
  0
LINE
  5
10E7
  8
0
  6
VERDECKT
 62
     1
 10
948.7094773429170118
 20
2013.5
 30
0.0
 11
948.7094773429170118
 21
-1966.5
 31
0.0
210
0.0
220
1.0
230
0.0
  0
ARC
  5
10E8
  8
0
  6
VERDECKT
 62
     1
 10
-953.2094773429156476
 20
1967.1934003354310789
 30
0.0
 40
8.0000000000014282
210
0.0
220
0.0
230
-1.0
 50
147.6719358778412072
 51
179.9999999999967031
  0
ARC
  5
10E9
  8
0
  6
VERDECKT
 62
     1
 10
-1042.2094773429200814
 20
1967.1934003354299421
 30
0.0
 40
8.0000000000029576
210
0.0
220
0.0
230
-1.0
 50
0.0000000000065138
 51
32.3280641221559009
  0
ARC
  5
10EA
  8
0
  6
VERDECKT
 62
     1
 10
-970.1094773429197176
 20
1977.8887264174179563
 30
0.0
 40
12.0000000000027303
210
0.0
220
0.0
230
-1.0
 50
327.671935877840383
 51
359.9999999999956231
  0
ARC
  5
10EB
  8
0
  6
VERDECKT
 62
     1
 10
-1025.3094773429170345
 20
1977.8887264174170468
 30
0.0
 40
11.9999999999997708
210
0.0
220
0.0
230
-1.0
 50
179.9999999999988063
 51
212.3280641221618907
  0
LINE
  5
10EC
  8
0
  6
VERDECKT
 62
     1
 10
1037.3094773429170345
 20
1998.8299999999999272
 30
0.0
 11
1037.3094773429170345
 21
1977.8887264174170468
 31
0.0
210
0.0
220
1.0
230
0.0
  0
LINE
  5
10ED
  8
0
  6
VERDECKT
 62
     1
 10
958.1094773429168754
 20
1998.8299999999999272
 30
0.0
 11
958.1094773429168754
 21
1977.8887264174170468
 31
0.0
210
0.0
220
1.0
230
0.0
  0
ARC
  5
10EE
  8
0
  6
VERDECKT
 62
     1
 10
-946.109477342916648
 20
1998.8299999999999272
 30
0.0
 40
12.0000000000000302
210
0.0
220
0.0
230
-1.0
 50
158.8168456069635113
 51
179.9999999999978115
  0
ARC
  5
10EF
  8
0
  6
VERDECKT
 62
     1
 10
-1049.3094773429140787
 20
1998.8299999999999272
 30
0.0
 40
11.9999999999970406
210
0.0
220
0.0
230
-1.0
 50
0.0
 51
21.1831543930396791
  0
ARC
  5
10F0
  8
0
  6
VERDECKT
 62
     1
 10
-980.6094773429177849
 20
2012.2000000000000455
 30
0.0
 40
25.0000932431265106
210
0.0
220
0.0
230
-1.0
 50
338.8168456069652734
 51
0.1564859543315451
  0
ARC
  5
10F1
  8
0
  6
VERDECKT
 62
     1
 10
-1014.809477342917944
 20
2012.1999999999989086
 30
0.0
 40
25.0000932431230893
210
0.0
220
0.0
230
-1.0
 50
179.8435140456662111
 51
201.183154393035494
  0
LINE
  5
10F2
  8
0
  6
VERDECKT
 62
     1
 10
1039.8094773429170345
 20
2013.5
 30
0.0
 11
1039.8094773429170345
 21
2012.2682800481820777
 31
0.0
210
0.0
220
1.0
230
0.0
  0
LINE
  5
10F3
  8
0
  6
VERDECKT
 62
     1
 10
955.609477342916648
 20
2013.5
 30
0.0
 11
955.609477342916648
 21
2012.2682800481820777
 31
0.0
210
0.0
220
1.0
230
0.0
  0
LINE
  5
10F4
  8
0
  6
VERDECKT
 62
     1
 10
1046.7094773429168981
 20
2027.5
 30
0.0
 11
1046.7094773429168981
 21
-1982.5
 31
0.0
210
0.0
220
1.0
230
0.0
  0
LINE
  5
10F5
  8
0
  6
VERDECKT
 62
     1
 10
948.7094773429170118
 20
2027.5
 30
0.0
 11
948.7094773429170118
 21
-1982.5
 31
0.0
210
0.0
220
1.0
230
0.0
  0
LINE
  5
10F6
  8
0
  6
VERDECKT
 62
     1
 10
958.7905264666827634
 20
2003.7443659937619032
 30
0.0
 11
1036.6284282191509192
 21
2003.7443659937619032
 31
0.0
210
0.0
220
1.0
230
0.0
  0
LINE
  5
10F7
  8
0
  6
VERDECKT
 62
     1
 10
957.2094773429168981
 20
2012.2660589659240031
 30
0.0
 11
1038.2094773429168981
 21
2012.2660589659240031
 31
0.0
210
0.0
220
1.0
230
0.0
  0
LINE
  5
10F8
  8
0
  6
VERDECKT
 62
     1
 10
959.4018751262594833
 20
2026.8403449176139475
 30
0.0
 11
1036.0170795595740856
 21
2026.8403449176139475
 31
0.0
210
0.0
220
1.0
230
0.0
  0
LINE
  5
10F9
  8
0
  6
VERDECKT
 62
     1
 10
955.6094773429168754
 20
2016.9510775928820294
 30
0.0
 11
1039.8094773429170345
 21
2016.9510775928820294
 31
0.0
210
0.0
220
1.0
230
0.0
  0
LINE
  5
10FA
  8
0
  6
VERDECKT
 62
     1
 10
955.6094773429168754
 20
2012.2682800481820777
 30
0.0
 11
1039.8094773429170345
 21
2012.2682800481820777
 31
0.0
210
0.0
220
1.0
230
0.0
  0
LINE
  5
10FB
  8
0
  6
VERDECKT
 62
     1
 10
957.2986383344752994
 20
2003.1662052886119909
 30
0.0
 11
1038.1203163513589516
 21
2003.1662052886119909
 31
0.0
210
0.0
220
1.0
230
0.0
  0
LINE
  5
10FC
  8
0
  6
VERDECKT
 62
     1
 10
958.1094773429168754
 20
1998.8299999999999272
 30
0.0
 11
1037.3094773429170345
 21
1998.8299999999999272
 31
0.0
210
0.0
220
1.0
230
0.0
  0
LINE
  5
10FD
  8
0
  6
VERDECKT
 62
     1
 10
958.1094773429168754
 20
1977.8887264174170468
 30
0.0
 11
1037.3094773429170345
 21
1977.8887264174170468
 31
0.0
210
0.0
220
1.0
230
0.0
  0
LINE
  5
10FE
  8
0
  6
VERDECKT
 62
     1
 10
959.9694773429170027
 20
1971.4715307682261027
 30
0.0
 11
1035.4494773429169072
 21
1971.4715307682261027
 31
0.0
210
0.0
220
1.0
230
0.0
  0
LINE
  5
10FF
  8
0
  6
VERDECKT
 62
     1
 10
961.2094773429170118
 20
1967.1934003354310789
 30
0.0
 11
1034.2094773429168981
 21
1967.1934003354310789
 31
0.0
210
0.0
220
1.0
230
0.0
  0
LINE
  5
1100
  8
0
  6
VERDECKT
 62
     1
 10
961.3214773429169782
 20
1972.3271568547841071
 30
0.0
 11
1034.0974773429170455
 21
1972.3271568547841071
 31
0.0
210
0.0
220
1.0
230
0.0
  0
LINE
  5
1101
  8
0
  6
VERDECKT
 62
     1
 10
1032.6094773429169891
 20
-2020.5000000000090949
 30
0.0
 11
962.8094773429170345
 21
-2020.5000000000090949
 31
0.0
210
0.0
220
1.0
230
0.0
  0
ARC
  5
1102
  8
0
  6
VERDECKT
 62
     1
 10
-946.1094773429165343
 20
1998.8299999999999272
 30
0.0
 40
13.6000000000007297
210
0.0
220
0.0
230
-1.0
 50
158.816845606961806
 51
179.9999999999980105
  0
ARC
  5
1103
  8
0
  6
VERDECKT
 62
     1
 10
-1049.3094773429299948
 20
1998.8299999999969714
 30
0.0
 40
13.6000000000133205
210
0.0
220
0.0
230
-1.0
 50
0.0000000000115009
 51
21.1831543930278698
  0
ARC
  5
1104
  8
0
  6
VERDECKT
 62
     1
 10
-980.6094773429181259
 20
2012.2000000000000455
 30
0.0
 40
23.4000932431266087
210
0.0
220
0.0
230
-1.0
 50
338.8168456069660124
 51
0.1617474312726952
  0
ARC
  5
1105
  8
0
  6
VERDECKT
 62
     1
 10
-1014.809477342917944
 20
2012.1999999999989086
 30
0.0
 40
23.4000932431233295
210
0.0
220
0.0
230
-1.0
 50
179.8382525687250961
 51
201.1831543930346982
  0
LINE
  5
1106
  8
0
  6
VERDECKT
 62
     1
 10
1038.2094773429168981
 20
2016.9510775928820294
 30
0.0
 11
1038.2094773429168981
 21
2012.2660589659240031
 31
0.0
210
0.0
220
1.0
230
0.0
  0
LINE
  5
1107
  8
0
  6
VERDECKT
 62
     1
 10
957.2094773429168981
 20
2016.9510775928820294
 30
0.0
 11
957.2094773429168981
 21
2012.2660589659240031
 31
0.0
210
0.0
220
1.0
230
0.0
  0
ARC
  5
1108
  8
0
  6
VERDECKT
 62
     1
 10
-980.6094773429222187
 20
2016.9510775928799831
 30
0.0
 40
23.4000000000050896
210
0.0
220
0.0
230
-1.0
 50
0.0000000000027989
 51
24.9999999999972502
  0
ARC
  5
1109
  8
0
  6
VERDECKT
 62
     1
 10
-1014.8094773429210136
 20
2016.9510775928820294
 30
0.0
 40
23.399999999996119
210
0.0
220
0.0
230
-1.0
 50
154.9999999999980105
 51
180.0000000000021032
  0
LINE
  5
110A
  8
0
  6
VERDECKT
 62
     1
 10
1035.7094773429168981
 20
2027.5
 30
0.0
 11
1036.0170795595740856
 21
2026.8403449176139475
 31
0.0
210
0.0
220
1.0
230
0.0
  0
LINE
  5
110B
  8
0
  6
VERDECKT
 62
     1
 10
959.7094773429168981
 20
2027.5
 30
0.0
 11
959.4018751262594833
 21
2026.8403449176139475
 31
0.0
210
0.0
220
1.0
230
0.0
  0
ARC
  5
110C
  8
0
  6
VERDECKT
 62
     1
 10
-980.6094773429168754
 20
2016.9510775928820294
 30
0.0
 40
25.0000000000002309
210
0.0
220
0.0
230
-1.0
 50
0.0
 51
24.9581963123156889
  0
ARC
  5
110D
  8
0
  6
VERDECKT
 62
     1
 10
-1014.8094773429120323
 20
2016.9510775928808926
 30
0.0
 40
25.0000000000047713
210
0.0
220
0.0
230
-1.0
 50
155.0418036876868086
 51
179.9999999999978968
  0
LINE
  5
110E
  8
0
  6
VERDECKT
 62
     1
 10
1039.8094773429170345
 20
2016.9510775928820294
 30
0.0
 11
1039.8094773429170345
 21
2012.2682800481820777
 31
0.0
210
0.0
220
1.0
230
0.0
  0
LINE
  5
110F
  8
0
  6
VERDECKT
 62
     1
 10
955.6094773429168754
 20
2016.9510775928820294
 30
0.0
 11
955.6094773429168754
 21
2012.2682800481820777
 31
0.0
210
0.0
220
1.0
230
0.0
  0
ARC
  5
1110
  8
0
  6
VERDECKT
 62
     1
 10
-980.6094773429181259
 20
2012.2000000000000455
 30
0.0
 40
25.0000932431266101
210
0.0
220
0.0
230
-1.0
 50
338.8168456069652734
 51
0.1564859543315451
  0
ARC
  5
1111
  8
0
  6
VERDECKT
 62
     1
 10
-1014.8094773429130555
 20
2012.200000000000955
 30
0.0
 40
25.0000932431298004
210
0.0
220
0.0
230
-1.0
 50
179.8435140456705028
 51
201.1831543930339876
  0
ARC
  5
1112
  8
0
  6
VERDECKT
 62
     1
 10
-946.1094773429169891
 20
1998.8299999999999272
 30
0.0
 40
12.0000000000000302
210
0.0
220
0.0
230
-1.0
 50
158.8168456069635113
 51
179.9999999999978115
  0
ARC
  5
1113
  8
0
  6
VERDECKT
 62
     1
 10
-1049.3094773429140787
 20
1998.8299999999999272
 30
0.0
 40
11.9999999999970406
210
0.0
220
0.0
230
-1.0
 50
0.0
 51
21.1831543930396791
  0
LINE
  5
1114
  8
0
  6
VERDECKT
 62
     1
 10
1037.3094773429170345
 20
1998.8299999999999272
 30
0.0
 11
1037.3094773429170345
 21
1977.8887264174170468
 31
0.0
210
0.0
220
1.0
230
0.0
  0
LINE
  5
1115
  8
0
  6
VERDECKT
 62
     1
 10
958.1094773429168754
 20
1998.8299999999999272
 30
0.0
 11
958.1094773429168754
 21
1977.8887264174170468
 31
0.0
210
0.0
220
1.0
230
0.0
  0
ARC
  5
1116
  8
0
  6
VERDECKT
 62
     1
 10
-970.1094773429199449
 20
1977.8887264174179563
 30
0.0
 40
12.0000000000027303
210
0.0
220
0.0
230
-1.0
 50
327.671935877840383
 51
359.9999999999956231
  0
ARC
  5
1117
  8
0
  6
VERDECKT
 62
     1
 10
-1025.3094773429170345
 20
1977.8887264174179563
 30
0.0
 40
11.9999999999997708
210
0.0
220
0.0
230
-1.0
 50
180.0000000000021032
 51
212.3280641221658982
  0
ARC
  5
1118
  8
0
  6
VERDECKT
 62
     1
 10
-953.2094773429156476
 20
1967.1934003354310789
 30
0.0
 40
8.0000000000015241
210
0.0
220
0.0
230
-1.0
 50
147.6719358778416051
 51
179.9999999999967031
  0
ARC
  5
1119
  8
0
  6
VERDECKT
 62
     1
 10
-1042.2094773429200814
 20
1967.1934003354299421
 30
0.0
 40
8.0000000000027285
210
0.0
220
0.0
230
-1.0
 50
0.0000000000065138
 51
32.3280641221567606
  0
ARC
  5
111A
  8
0
  6
VERDECKT
 62
     1
 10
-953.2094773429158749
 20
1967.1934003354310789
 30
0.0
 40
9.6000000000010637
210
0.0
220
0.0
230
-1.0
 50
147.6719358778387061
 51
179.9999999999972999
  0
ARC
  5
111B
  8
0
  6
VERDECKT
 62
     1
 10
-1042.2094773429159886
 20
1967.1934003354319884
 30
0.0
 40
9.599999999998543
210
0.0
220
0.0
230
-1.0
 50
359.9999999999973284
 51
32.3280641221646903
  0
ARC
  5
111C
  8
0
  6
VERDECKT
 62
     1
 10
-970.109477342916648
 20
1977.8887264174170468
 30
0.0
 40
10.3999999999997002
210
0.0
220
0.0
230
-1.0
 50
327.671935877838223
 51
0.0000000000012468
  0
ARC
  5
111D
  8
0
  6
VERDECKT
 62
     1
 10
-1025.309477342917944
 20
1977.88872641741591
 30
0.0
 40
10.3999999999982702
210
0.0
220
0.0
230
-1.0
 50
179.9999999999961915
 51
212.3280641221637097
  0
LINE
  5
111E
  8
0
  6
VERDECKT
 62
     1
 10
1035.7094773429168981
 20
1998.8299999999999272
 30
0.0
 11
1035.7094773429168981
 21
1977.8887264174170468
 31
0.0
210
0.0
220
1.0
230
0.0
  0
LINE
  5
111F
  8
0
  6
VERDECKT
 62
     1
 10
959.7094773429168981
 20
1998.8299999999999272
 30
0.0
 11
959.7094773429168981
 21
1977.8887264174170468
 31
0.0
210
0.0
220
1.0
230
0.0
  0
LINE
  5
1120
  8
0
  6
VERDECKT
 62
     1
 10
963.4218979875980722
 20
-2027.5
 30
0.0
 11
962.8094773429170345
 21
-2020.5000000000090949
 31
0.0
210
0.0
220
1.0
230
0.0
  0
LINE
  5
1121
  8
0
  6
VERDECKT
 62
     1
 10
1031.9970566982360651
 20
-2027.5
 30
0.0
 11
1032.6094773429169891
 21
-2020.5000000000090949
 31
0.0
210
0.0
220
1.0
230
0.0
  0
LINE
  5
1122
  8
0
  6
VERDECKT
 62
     1
 10
962.8094773429170345
 20
-2020.5000000000090949
 30
0.0
 11
962.8094773429170345
 21
1967.1934003354310789
 31
0.0
210
0.0
220
1.0
230
0.0
  0
LINE
  5
1123
  8
0
  6
VERDECKT
 62
     1
 10
1032.6094773429169891
 20
-2020.5000000000090949
 30
0.0
 11
1032.6094773429169891
 21
1967.1934003354310789
 31
0.0
210
0.0
220
1.0
230
0.0
  0
LINE
  5
1124
  8
0
  6
VERDECKT
 62
     1
 10
961.2094773429170118
 20
-1984.5
 30
0.0
 11
961.2094773429170118
 21
1967.1934003354310789
 31
0.0
210
0.0
220
1.0
230
0.0
  0
LINE
  5
1125
  8
0
  6
VERDECKT
 62
     1
 10
1034.2094773429168981
 20
-1984.5
 30
0.0
 11
1034.2094773429168981
 21
1967.1934003354310789
 31
0.0
210
0.0
220
1.0
230
0.0
  0
ENDBLK
  5
1127
  8
0
  0
BLOCK
  8
0
  2
A$C213921D8
 70
     0
 10
0.0
 20
0.0
 30
0.0
  3
A$C213921D8
  1

  0
CIRCLE
  5
112B
  8
0
  6
CONTINUOUS
 62
     3
 10
193.6613640609222102
 20
1320.6857806657919809
 30
0.0
 40
49.0
  0
CIRCLE
  5
112C
  8
0
  6
CONTINUOUS
 62
     3
 10
193.6613640609222102
 20
1320.6857806657919809
 30
0.0
 40
39.7653973282753412
  0
CIRCLE
  5
112D
  8
0
  6
CONTINUOUS
 62
     3
 10
193.6613640609222102
 20
1320.6857806657919809
 30
0.0
 40
49.0
  0
CIRCLE
  5
112E
  8
0
  6
CONTINUOUS
 62
     3
 10
193.6613640609222102
 20
1320.6857806657919809
 30
0.0
 40
51.0
  0
CIRCLE
  5
112F
  8
0
  6
CONTINUOUS
 62
     3
 10
193.6613640609222102
 20
1320.6857806657919809
 30
0.0
 40
38.0
  0
CIRCLE
  5
1130
  8
0
  6
CONTINUOUS
 62
     3
 10
193.6613640609222102
 20
1320.6857806657919809
 30
0.0
 40
39.7653973282752986
  0
CIRCLE
  5
1131
  8
0
  6
CONTINUOUS
 62
     3
 10
193.6613640609222102
 20
1320.6857806657919809
 30
0.0
 40
36.3879999999999768
  0
CIRCLE
  5
1132
  8
0
  6
CONTINUOUS
 62
     3
 10
193.6613640609222102
 20
1320.6857806657919809
 30
0.0
 40
34.8999999999999773
  0
CIRCLE
  5
1133
  8
0
  6
CONTINUOUS
 62
     3
 10
193.6613640609222102
 20
1320.6857806657919809
 30
0.0
 40
34.2875793553191812
  0
CIRCLE
  5
1134
  8
0
  6
VERDECKT
 62
     1
 10
193.6613640609222102
 20
1320.6857806657919809
 30
0.0
 40
42.0999999999999588
  0
CIRCLE
  5
1135
  8
0
  6
VERDECKT
 62
     1
 10
193.6613640609222102
 20
1320.6857806657910714
 30
0.0
 40
46.2213237134674273
  0
CIRCLE
  5
1136
  8
0
  6
VERDECKT
 62
     1
 10
193.6613640609222102
 20
1320.6857806657910714
 30
0.0
 40
43.25
  0
CIRCLE
  5
1137
  8
0
  6
VERDECKT
 62
     1
 10
193.6613640609222102
 20
1320.6857806657910714
 30
0.0
 40
44.0188021535168374
  0
CIRCLE
  5
1138
  8
0
  6
VERDECKT
 62
     1
 10
193.6613640609222102
 20
1320.6857806657910714
 30
0.0
 40
39.4000000000000909
  0
CIRCLE
  5
1139
  8
0
  6
VERDECKT
 62
     1
 10
193.6613640609222102
 20
1320.6857806657910714
 30
0.0
 40
40.25
  0
CIRCLE
  5
113A
  8
0
  6
VERDECKT
 62
     1
 10
193.6613640609222102
 20
1320.6857806657910714
 30
0.0
 40
46.2213237134674273
  0
CIRCLE
  5
113B
  8
0
  6
VERDECKT
 62
     1
 10
193.6613640609222102
 20
1320.6857806657910714
 30
0.0
 40
43.25
  0
CIRCLE
  5
113C
  8
0
  6
VERDECKT
 62
     1
 10
193.6613640609222102
 20
1320.6857806657910714
 30
0.0
 40
40.25
  0
CIRCLE
  5
113D
  8
0
  6
VERDECKT
 62
     1
 10
193.6613640609222102
 20
1320.6857806657919809
 30
0.0
 40
36.5
  0
CIRCLE
  5
113E
  8
0
  6
VERDECKT
 62
     1
 10
193.6613640609222102
 20
1320.6857806657919809
 30
0.0
 40
37.7399999999999594
  0
CIRCLE
  5
113F
  8
0
  6
VERDECKT
 62
     1
 10
193.6613640609222102
 20
1320.6857806657919809
 30
0.0
 40
39.599999999999973
  0
CIRCLE
  5
1140
  8
0
  6
VERDECKT
 62
     1
 10
193.6613640609222102
 20
1320.6857806657919809
 30
0.0
 40
40.4108390084417124
  0
CIRCLE
  5
1141
  8
0
  6
VERDECKT
 62
     1
 10
193.6613640609222102
 20
1320.6857806657919809
 30
0.0
 40
42.1000932431257127
  0
CIRCLE
  5
1142
  8
0
  6
VERDECKT
 62
     1
 10
193.6613640609222102
 20
1320.6857806657919809
 30
0.0
 40
38.9189508762341916
  0
CIRCLE
  5
1143
  8
0
  6
VERDECKT
 62
     1
 10
193.6613640609222102
 20
1320.6857806657919809
 30
0.0
 40
40.4999999999999929
  0
CIRCLE
  5
1144
  8
0
  6
VERDECKT
 62
     1
 10
193.6613640609222102
 20
1320.6857806657919809
 30
0.0
 40
38.3076022166575285
  0
CIRCLE
  5
1145
  8
0
  6
VERDECKT
 62
     1
 10
193.6613640609222102
 20
1320.6857806657919809
 30
0.0
 40
42.0999999999999588
  0
CIRCLE
  5
1146
  8
0
  6
VERDECKT
 62
     1
 10
193.6613640609222102
 20
1320.6857806657919809
 30
0.0
 40
40.4108390084417124
  0
CIRCLE
  5
1147
  8
0
  6
VERDECKT
 62
     1
 10
193.6613640609222102
 20
1320.6857806657919809
 30
0.0
 40
39.599999999999973
  0
CIRCLE
  5
1148
  8
0
  6
VERDECKT
 62
     1
 10
193.6613640609222102
 20
1320.6857806657919809
 30
0.0
 40
37.7399999999999594
  0
CIRCLE
  5
1149
  8
0
  6
VERDECKT
 62
     1
 10
193.6613640609222102
 20
1320.6857806657919809
 30
0.0
 40
36.5
  0
CIRCLE
  5
114A
  8
0
  6
VERDECKT
 62
     1
 10
193.6613640609222102
 20
1320.6857806657919809
 30
0.0
 40
35.8936910953885402
  0
CIRCLE
  5
114B
  8
0
  6
VERDECKT
 62
     1
 10
193.6613640609222102
 20
1320.6857806657919809
 30
0.0
 40
40.5000932431257112
  0
CIRCLE
  5
114C
  8
0
  6
VERDECKT
 62
     1
 10
193.6613640609222102
 20
1320.6857806657919809
 30
0.0
 40
42.1000932431257127
  0
ENDBLK
  5
114E
  8
0
  0
ENDSEC
  0
SECTION
  2
ENTITIES
  0
TEXT
  5
8F
  8
VOLL
 10
78.076754716981128
 20
31.025947764705851
 30
0.0
 40
1.8
  1

  7
GREEKS
  0
INSERT
  5
A77
  8
ADSK_ASSOC_ENTITY_BACKUPS
  2
*U2
 10
0.0
 20
0.0
 30
0.0
  0
INSERT
  5
125B
  8
HILF
  2
A$C5516167C
 10
-946.7094704717460445
 20
2430.3810954551190662
 30
0.0
  0
INSERT
  5
125C
  8
HILF
  2
A$C213921D8
 10
-142.661357189750106
 20
-1269.6857794097620626
 30
0.0
  0
VIEWPORT
  5
A56
 67
     1
  8
0
 10
1573.3627916484110756
 20
-1785.2980314262611046
 30
0.0
 40
25441.041998311651696
 41
9945.7513518732976081
 68
     1
 69
     1
1001
ACAD
1000
MVIEW
1002
{
1070
    16
1010
0.0
1020
0.0
1030
0.0
1010
0.0
1020
0.0
1030
1.0
1040
0.0
1040
9945.7513518732976081
1040
1573.3627916484110756
1040
-1785.2980314262611046
1040
50.0
1040
0.0
1040
0.0
1070
     0
1070
  1500
1070
     1
1070
     1
1070
     0
1070
     0
1070
     0
1070
     0
1040
0.0
1040
0.0
1040
0.0
1040
10.0
1040
10.0
1040
10.0
1040
10.0
1070
     0
1002
{
1002
}
1002
}
  0
TEXT
  5
BA7
 67
     1
  8
VOLL
 10
-1066.4514879905980251
 20
-129.5948228943655067
 30
0.0
 40
3.6000000000000001
  1

  7
GREEKS
  0
TEXT
  5
E74
 67
     1
  8
VOLL
 10
2374.0906998166028643
 20
443.4850579574905964
 30
0.0
 40
3.6000000000000001
  1

  7
GREEKS
  0
TEXT
  5
E75
 67
     1
  8
VOLL
 10
2616.8962371549650925
 20
858.1258740480154756
 30
0.0
 40
3.6000000000000001
  1

  7
GREEKS
  0
TEXT
  5
E76
 67
     1
  8
VOLL
 10
3276.5626590838051015
 20
490.9470259798291067
 30
0.0
 40
3.6000000000000001
  1

  7
GREEKS
  0
TEXT
  5
E77
 67
     1
  8
VOLL
 10
3268.8981060551309383
 20
468.5393785229073842
 30
0.0
 40
3.6000000000000001
  1

  7
GREEKS
  0
ENDSEC
  0
EOF
