  0
SECTION
  2
HEADER
  9
$ACADVER
  1
AC1009
  9
$INSBASE
 10
0.0
 20
0.0
 30
0.0
  9
$EXTMIN
 10
-44.5
 20
-188.9999999999998863
 30
-0.0000000000008966
  9
$EXTMAX
 10
44.5000000000013571
 20
4038.0000000000009095
 30
0.0
  9
$LIMMIN
 10
0.0
 20
0.0
  9
$LIMMAX
 10
419.9999999999998863
 20
594.0
  9
$ORTHOMODE
 70
     1
  9
$REGENMODE
 70
     1
  9
$FILLMODE
 70
     1
  9
$QTEXTMODE
 70
     0
  9
$MIRRTEXT
 70
     1
  9
$DRAGMODE
 70
     2
  9
$LTSCALE
 40
20.0
  9
$OSMODE
 70
   511
  9
$ATTMODE
 70
     1
  9
$TEXTSIZE
 40
3.5
  9
$TRACEWID
 40
0.5
  9
$TEXTSTYLE
  7
STANDARD
  9
$CLAYER
  8
STEMPEL
  9
$CELTYPE
  6
BYLAYER
  9
$CECOLOR
 62
   256
  9
$DIMSCALE
 40
1.0
  9
$DIMASZ
 40
3.5
  9
$DIMEXO
 40
1.0
  9
$DIMDLI
 40
0.38
  9
$DIMRND
 40
0.0
  9
$DIMDLE
 40
0.0
  9
$DIMEXE
 40
1.0
  9
$DIMTP
 40
0.0
  9
$DIMTM
 40
0.000000001
  9
$DIMTXT
 40
3.5
  9
$DIMCEN
 40
0.09
  9
$DIMTSZ
 40
0.0
  9
$DIMTOL
 70
     0
  9
$DIMLIM
 70
     0
  9
$DIMTIH
 70
     0
  9
$DIMTOH
 70
     0
  9
$DIMSE1
 70
     0
  9
$DIMSE2
 70
     0
  9
$DIMTAD
 70
     1
  9
$DIMZIN
 70
     8
  9
$DIMBLK
  1

  9
$DIMASO
 70
     1
  9
$DIMSHO
 70
     0
  9
$DIMPOST
  1

  9
$DIMAPOST
  1

  9
$DIMALT
 70
     0
  9
$DIMALTD
 70
     2
  9
$DIMALTF
 40
25.3999999999999986
  9
$DIMLFAC
 40
2.0
  9
$DIMTOFL
 70
     1
  9
$DIMTVP
 40
0.0
  9
$DIMTIX
 70
     0
  9
$DIMSOXD
 70
     0
  9
$DIMSAH
 70
     0
  9
$DIMBLK1
  1

  9
$DIMBLK2
  1

  9
$DIMSTYLE
  2
LORO
  9
$DIMCLRD
 70
     0
  9
$DIMCLRE
 70
     0
  9
$DIMCLRT
 70
     1
  9
$DIMTFAC
 40
0.5
  9
$DIMGAP
 40
1.5
  9
$LUNITS
 70
     2
  9
$LUPREC
 70
     2
  9
$SKETCHINC
 40
1.0
  9
$FILLETRAD
 40
0.0
  9
$AUNITS
 70
     0
  9
$AUPREC
 70
     0
  9
$MENU
  1
ACAD
  9
$ELEVATION
 40
0.0
  9
$PELEVATION
 40
0.0
  9
$THICKNESS
 40
0.0
  9
$LIMCHECK
 70
     0
  9
$BLIPMODE
 70
     0
  9
$CHAMFERA
 40
0.0
  9
$CHAMFERB
 40
0.0
  9
$SKPOLY
 70
     0
  9
$TDCREATE
 40
2455397.8646990740671754
  9
$TDUPDATE
 40
2459172.6206365739926696
  9
$TDINDWG
 40
0.3340935417
  9
$TDUSRTIMER
 40
0.3340935417
  9
$USRTIMER
 70
     1
  9
$ANGBASE
 50
0.0
  9
$ANGDIR
 70
     0
  9
$PDMODE
 70
     0
  9
$PDSIZE
 40
0.0
  9
$PLINEWID
 40
0.0
  9
$COORDS
 70
     1
  9
$SPLFRAME
 70
     0
  9
$SPLINETYPE
 70
     6
  9
$SPLINESEGS
 70
     8
  9
$ATTDIA
 70
     1
  9
$ATTREQ
 70
     1
  9
$HANDLING
 70
     1
  9
$HANDSEED
  5
2E33
  9
$SURFTAB1
 70
     6
  9
$SURFTAB2
 70
     6
  9
$SURFTYPE
 70
     6
  9
$SURFU
 70
     6
  9
$SURFV
 70
     6
  9
$UCSNAME
  2

  9
$UCSORG
 10
0.0
 20
0.0
 30
0.0
  9
$UCSXDIR
 10
1.0
 20
0.0
 30
0.0
  9
$UCSYDIR
 10
0.0
 20
1.0
 30
0.0
  9
$PUCSNAME
  2

  9
$PUCSORG
 10
0.0
 20
0.0
 30
0.0
  9
$PUCSXDIR
 10
1.0
 20
0.0
 30
0.0
  9
$PUCSYDIR
 10
0.0
 20
1.0
 30
0.0
  9
$USERI1
 70
     0
  9
$USERI2
 70
     0
  9
$USERI3
 70
     0
  9
$USERI4
 70
     0
  9
$USERI5
 70
     0
  9
$USERR1
 40
0.0
  9
$USERR2
 40
0.0
  9
$USERR3
 40
0.0
  9
$USERR4
 40
0.0
  9
$USERR5
 40
0.0
  9
$WORLDVIEW
 70
     1
  9
$SHADEDGE
 70
     3
  9
$SHADEDIF
 70
    70
  9
$TILEMODE
 70
     1
  9
$MAXACTVP
 70
    16
  9
$PLIMCHECK
 70
     0
  9
$PEXTMIN
 10
1.0000000000000000E+20
 20
1.0000000000000000E+20
 30
1.0000000000000000E+20
  9
$PEXTMAX
 10
-1.0000000000000000E+20
 20
-1.0000000000000000E+20
 30
-1.0000000000000000E+20
  9
$PLIMMIN
 10
-4.6048787566564124
 20
-1.571988189860946
  9
$PLIMMAX
 10
203.3377062399349882
 20
292.5155580555825736
  9
$UNITMODE
 70
     0
  9
$VISRETAIN
 70
     0
  9
$PLINEGEN
 70
     0
  9
$PSLTSCALE
 70
     0
  0
ENDSEC
  0
SECTION
  2
TABLES
  0
TABLE
  2
VPORT
 70
     1
  0
VPORT
  2
*ACTIVE
 70
     0
 10
0.0
 20
0.0
 11
1.0
 21
1.0
 12
0.0000000000009095
 22
-72.2515525817866546
 13
0.0
 23
0.0
 14
1.0
 24
1.0
 15
10.0
 25
10.0
 16
-0.0000000000023318
 26
0.0
 36
10501.4248825507893343
 17
0.0
 27
1996.7515525817871094
 37
-0.0000000000004483
 40
4248.5480033984713373
 41
1.868197278911564
 42
50.0
 43
0.0
 44
0.0
 50
0.0
 51
0.0
 71
     0
 72
  1500
 73
     1
 74
     0
 75
     0
 76
     0
 77
     0
 78
     0
  0
ENDTAB
  0
TABLE
  2
LTYPE
 70
     3
  0
LTYPE
  2
CONTINUOUS
 70
     0
  3
Solid line
 72
    65
 73
     0
 40
0.0
  0
LTYPE
  2
STRICHPUNKT
 70
     0
  3
__ . __ . __ . __ . __ . __ . __ . __ . __ . __
 72
    65
 73
     4
 40
1.0
 49
0.5
 49
-0.25
 49
0.0
 49
-0.25
  0
LTYPE
  2
VERDECKT
 70
     0
  3
Verdeckt __ __ __ __ __ __ __ __ __ __ __ __ __
 72
    65
 73
     2
 40
0.375
 49
0.25
 49
-0.125
  0
ENDTAB
  0
TABLE
  2
LAYER
 70
    10
  0
LAYER
  2
0
 70
     0
 62
     7
  6
CONTINUOUS
  0
LAYER
  2
VOLL
 70
     0
 62
     1
  6
CONTINUOUS
  0
LAYER
  2
STEMPEL
 70
     0
 62
     3
  6
CONTINUOUS
  0
LAYER
  2
DEFPOINTS
 70
     0
 62
     7
  6
CONTINUOUS
  0
LAYER
  2
ADSK_ASSOC_ENTITY_BACKUPS
 70
     1
 62
    -7
  6
CONTINUOUS
  0
ENDTAB
  0
TABLE
  2
STYLE
 70
     3
  0
STYLE
  2
STANDARD
 70
     0
 40
0.0
 41
0.8
 50
0.0
 71
     0
 42
3.5
  3
simplex.shx
  4

  0
STYLE
  2
GREEKS
 70
     0
 40
0.0
 41
0.8
 50
0.0
 71
     0
 42
2.5
  3
SIMPLEX.shx
  4

  0
ENDTAB
  0
TABLE
  2
VIEW
 70
     0
  0
ENDTAB
  0
TABLE
  2
UCS
 70
     0
  0
ENDTAB
  0
TABLE
  2
APPID
 70
    23
  0
APPID
  2
ACAD
 70
     0
  0
APPID
  2
ACAD_NAV_VCDISPLAY
 70
     0
  0
APPID
  2
ACAD_EXEMPT_FROM_CAD_STANDARDS
 70
     0
  0
APPID
  2
ACAD_PSEXT
 70
     0
  0
APPID
  2
ACAECLAYERSTANDARD
 70
     0
  0
APPID
  2
ACDBDYNAMICBLOCKGUID
 70
     0
  0
APPID
  2
ACCMTRANSPARENCY
 70
     0
  0
APPID
  2
ACAD_STEPID
 70
     0
  0
APPID
  2
ACSYNERGY
 70
     0
  0
APPID
  2
SYNERGY_BODY_TBR_ID
 70
     0
  0
APPID
  2
ACAD_VIEW_EDGE_ID
 70
     0
  0
APPID
  2
ACSYNERGYSKETCH
 70
     0
  0
APPID
  2
ACADANNOMONITORALERTICONDI
 70
     0
  0
APPID
  2
ACADANNOPO
 70
     0
  0
APPID
  2
ACAD_MODELDOC_XFORM
 70
     0
  0
APPID
  2
ACAUTHENVIRON
 70
     0
  0
APPID
  2
ACDBDYNAMICBLOCKTRUENAME
 70
     0
  0
APPID
  2
GRADIENTCOLOR1ACI
 70
     0
  0
APPID
  2
GRADIENTCOLOR2ACI
 70
     0
  0
APPID
  2
ACAD_DSTYLE_DIMJAG
 70
     0
  0
APPID
  2
ACAD_DSTYLE_DIMBREAK
 70
     0
  0
APPID
  2
ACAD_DSTYLE_DIMTALN
 70
     0
  0
APPID
  2
ACAD_MLEADERVER
 70
     0
  0
ENDTAB
  0
TABLE
  2
DIMSTYLE
 70
     2
  0
DIMSTYLE
  2
STANDARD
 70
     0
  3

  4

  5

  6

  7

 40
1.0
 41
0.18
 42
0.0625
 43
0.38
 44
0.18
 45
0.0
 46
0.0
 47
0.0
 48
0.0
140
0.18
141
0.09
142
0.0
143
25.3999999999999986
144
1.0
145
0.0
146
1.0
147
0.09
 71
     0
 72
     0
 73
     1
 74
     1
 75
     0
 76
     0
 77
     0
 78
     0
170
     0
171
     2
172
     0
173
     0
174
     0
175
     0
176
     0
177
     0
178
     0
  0
DIMSTYLE
  2
LORO
 70
     0
  3

  4

  5

  6

  7

 40
1.0
 41
3.5
 42
1.0
 43
0.38
 44
1.0
 45
0.0
 46
0.0
 47
0.0
 48
0.000000001
140
3.5
141
0.09
142
0.0
143
25.3999999999999986
144
2.0
145
0.0
146
0.5
147
1.5
 71
     0
 72
     0
 73
     0
 74
     0
 75
     0
 76
     0
 77
     1
 78
     8
170
     0
171
     2
172
     1
173
     0
174
     0
175
     0
176
     0
177
     0
178
     1
  0
ENDTAB
  0
ENDSEC
  0
SECTION
  2
BLOCKS
  0
BLOCK
  8
0
  2
$MODEL_SPACE
 70
     0
 10
0.0
 20
0.0
 30
0.0
  3
$MODEL_SPACE
  1

  0
ENDBLK
  5
36
  8
0
  0
BLOCK
 67
     1
  8
0
  2
$PAPER_SPACE
 70
     0
 10
0.0
 20
0.0
 30
0.0
  3
$PAPER_SPACE
  1

  0
ENDBLK
  5
34
 67
     1
  8
0
  0
BLOCK
  8
0
  2
*S0
 70
     1
 10
0.0
 20
0.0
 30
0.0
  3
*S0
  1

  0
ENDBLK
  5
F56
  8
0
  0
BLOCK
  8
0
  2
A$C37DDC2C6
 70
     0
 10
0.0
 20
0.0
 30
0.0
  3
A$C37DDC2C6
  1

  0
CIRCLE
  5
2C8F
  8
0
  6
CONTINUOUS
 62
     3
 10
0.0000000000008982
 20
0.0
 30
0.0
 40
42.8999999999999915
  0
CIRCLE
  5
2C90
  8
0
  6
CONTINUOUS
 62
     3
 10
0.0000000000008982
 20
0.0
 30
0.0
 40
44.4999999999999929
  0
CIRCLE
  5
2C91
  8
0
  6
CONTINUOUS
 62
     3
 10
0.0000000000009125
 20
0.0000000000000001
 30
0.0
 40
29.3953925994696803
  0
CIRCLE
  5
2C92
  8
0
  6
CONTINUOUS
 62
     3
 10
0.0000000000009125
 20
0.0000000000000009
 30
0.0
 40
42.8999999999999915
  0
CIRCLE
  5
2C93
  8
0
  6
CONTINUOUS
 62
     3
 10
0.0000000000008886
 20
-0.0000000000000131
 30
0.0
 40
25.0
  0
CIRCLE
  5
2C94
  8
0
  6
CONTINUOUS
 62
     3
 10
-0.0000000000002273
 20
0.0000000000000058
 30
0.0
 40
24.5682646352329392
  0
CIRCLE
  5
2C95
  8
0
  6
CONTINUOUS
 62
     3
 10
0.0000000000008981
 20
0.0
 30
0.0
 40
28.0
  0
CIRCLE
  5
2C96
  8
0
  6
CONTINUOUS
 62
     3
 10
0.0000000000008982
 20
0.0000000000000001
 30
0.0
 40
29.395392599469691
  0
ARC
  5
2C97
  8
0
  6
VERDECKT
 62
     1
 10
-34.2499999999992468
 20
0.0000000000006206
 30
0.0
 40
7.7499999999999876
 50
303.232610092858522
 51
359.9999999999997726
  0
ARC
  5
2C98
  8
0
  6
VERDECKT
 62
     1
 10
0.0000000000019902
 20
34.2499999999980673
 30
0.0
 40
7.7500000000000071
 50
213.2326100928544008
 51
269.9999999999973284
  0
ARC
  5
2C99
  8
0
  6
VERDECKT
 62
     1
 10
0.0000000000005069
 20
-34.2499999999978328
 30
0.0
 40
7.749999999999992
 50
90.0000000000001705
 51
146.7673899071347137
  0
ARC
  5
2C9A
  8
0
  6
VERDECKT
 62
     1
 10
34.2500000000017479
 20
-0.0000000000003348
 30
0.0
 40
7.7499999999999858
 50
123.2326100928584935
 51
179.9999999999986073
  0
ARC
  5
2C9B
  8
0
  6
VERDECKT
 62
     1
 10
-28.3585766423348105
 20
-8.9918647020934959
 30
0.0
 40
3.0000000000000209
 50
123.2326100928590051
 51
197.5926464938399079
  0
ARC
  5
2C9C
  8
0
  6
VERDECKT
 62
     1
 10
-39.8111313868604029
 20
-12.5752263477861703
 30
0.0
 40
6.000000000000095
 50
17.5298739995549084
 51
66.1435897608752441
  0
ARC
  5
2C9D
  8
0
  6
VERDECKT
 62
     1
 10
-8.9918647020926397
 20
-28.3585766423342491
 30
0.0
 40
3.0000000000000102
 50
252.4073535061640996
 51
326.7673899071452865
  0
ARC
  5
2C9E
  8
0
  6
VERDECKT
 62
     1
 10
0.0000000000001827
 20
0.0000000000019575
 30
0.0
 40
32.7499999999999929
 50
197.5926464938420963
 51
252.4073535061637017
  0
ARC
  5
2C9F
  8
0
  6
VERDECKT
 62
     1
 10
0.0000000000001685
 20
0.0000000000009663
 30
0.0
 40
35.7499999999993108
 50
197.5298739995540132
 51
252.4701260004488859
  0
ARC
  5
2CA0
  8
0
  6
VERDECKT
 62
     1
 10
-12.5752263477843904
 20
-39.8111313868599765
 30
0.0
 40
6.0000000000000764
 50
23.8564102391288699
 51
72.4701260004493832
  0
ARC
  5
2CA1
  8
0
  6
VERDECKT
 62
     1
 10
-8.9918647020926397
 20
28.3585766423344801
 30
0.0
 40
3.0000000000000102
 50
33.2326100928546495
 51
107.5926464938359004
  0
ARC
  5
2CA2
  8
0
  6
VERDECKT
 62
     1
 10
-12.5752263477843904
 20
39.811131386860211
 30
0.0
 40
6.0000000000000764
 50
287.5298739995507162
 51
336.143589760871123
  0
CIRCLE
  5
2CA3
  8
0
  6
VERDECKT
 62
     1
 10
-34.2499999999990266
 20
0.0000000000005116
 30
0.0
 40
4.7499999999997611
  0
ARC
  5
2CA4
  8
0
  6
VERDECKT
 62
     1
 10
-34.249999999999261
 20
0.0000000000006253
 30
0.0
 40
7.75
 50
359.9999999999997726
 51
56.767389907138913
  0
ARC
  5
2CA5
  8
0
  6
VERDECKT
 62
     1
 10
-28.3585766423348105
 20
8.9918647020937232
 30
0.0
 40
3.0000000000000209
 50
162.4073535061600069
 51
236.7673899071409096
  0
ARC
  5
2CA6
  8
0
  6
VERDECKT
 62
     1
 10
0.0000000000006872
 20
-0.0000000000012577
 30
0.0
 40
32.7499999999999787
 50
107.5926464938379041
 51
162.4073535061594953
  0
ARC
  5
2CA7
  8
0
  6
VERDECKT
 62
     1
 10
-0.000000000000304
 20
-0.0000000000012363
 30
0.0
 40
35.7499999999992895
 50
107.5298739995498067
 51
162.4701260004447079
  0
ARC
  5
2CA8
  8
0
  6
VERDECKT
 62
     1
 10
-39.8111313868604029
 20
12.5752263477862805
 30
0.0
 40
6.000000000000095
 50
293.8564102391247843
 51
342.4701260004450774
  0
ARC
  5
2CA9
  8
0
  6
VERDECKT
 62
     1
 10
-34.249999999999261
 20
-0.0000000000003411
 30
0.0
 40
7.7500000000000151
 50
113.8564102391245996
 51
246.1435897608652965
  0
CIRCLE
  5
2CAA
  8
0
  6
VERDECKT
 62
     1
 10
0.0000000000017601
 20
34.24999999999784
 30
0.0
 40
4.7499999999997611
  0
ARC
  5
2CAB
  8
0
  6
VERDECKT
 62
     1
 10
0.0000000000019928
 20
34.2499999999980602
 30
0.0
 40
7.749999999999992
 50
270.0
 51
326.7673899071373853
  0
ARC
  5
2CAC
  8
0
  6
VERDECKT
 62
     1
 10
8.9918647020951372
 20
28.3585766423344801
 30
0.0
 40
3.0000000000000102
 50
72.4073535061640996
 51
146.7673899071452865
  0
ARC
  5
2CAD
  8
0
  6
VERDECKT
 62
     1
 10
12.5752263477868897
 20
39.811131386860211
 30
0.0
 40
6.0000000000000764
 50
203.8564102391287918
 51
252.4701260004493122
  0
ARC
  5
2CAE
  8
0
  6
VERDECKT
 62
     1
 10
0.0000000000005105
 20
34.2499999999980673
 30
0.0
 40
7.7500000000000124
 50
23.8564102391288486
 51
156.1435897608695029
  0
ARC
  5
2CAF
  8
0
  6
VERDECKT
 62
     1
 10
28.3585766423373009
 20
8.9918647020937232
 30
0.0
 40
3.0000000000000209
 50
303.2326100928590904
 51
17.5926464938400002
  0
ARC
  5
2CB0
  8
0
  6
VERDECKT
 62
     1
 10
0.0000000000023144
 20
-0.0000000000017302
 30
0.0
 40
32.7499999999999929
 50
17.5926464938421496
 51
72.4073535061637443
  0
ARC
  5
2CB1
  8
0
  6
VERDECKT
 62
     1
 10
0.0000000000023286
 20
-0.0000000000007958
 30
0.0
 40
35.7499999999993108
 50
17.5298739995540593
 51
72.4701260004489569
  0
ARC
  5
2CB2
  8
0
  6
VERDECKT
 62
     1
 10
39.8111313868628969
 20
12.5752263477862805
 30
0.0
 40
6.000000000000095
 50
197.529873999554809
 51
246.1435897608751873
  0
CIRCLE
  5
2CB3
  8
0
  6
VERDECKT
 62
     1
 10
0.000000000000737
 20
-34.2499999999976126
 30
0.0
 40
4.7499999999997611
  0
ARC
  5
2CB4
  8
0
  6
VERDECKT
 62
     1
 10
0.00000000000051
 20
-34.24999999999784
 30
0.0
 40
7.7500000000000009
 50
33.2326100928543724
 51
90.0000000000001847
  0
ARC
  5
2CB5
  8
0
  6
VERDECKT
 62
     1
 10
8.9918647020951372
 20
-28.3585766423342491
 30
0.0
 40
3.0000000000000102
 50
213.2326100928547135
 51
287.5926464938359004
  0
ARC
  5
2CB6
  8
0
  6
VERDECKT
 62
     1
 10
12.5752263477868897
 20
-39.8111313868599765
 30
0.0
 40
6.0000000000000764
 50
107.5298739995506025
 51
156.1435897608710945
  0
ARC
  5
2CB7
  8
0
  6
VERDECKT
 62
     1
 10
0.0000000000019866
 20
-34.24999999999784
 30
0.0
 40
7.7500000000000124
 50
203.8564102391287065
 51
336.1435897608694745
  0
CIRCLE
  5
2CB8
  8
0
  6
VERDECKT
 62
     1
 10
34.2500000000015277
 20
-0.0000000000003411
 30
0.0
 40
4.7499999999997611
  0
ARC
  5
2CB9
  8
0
  6
VERDECKT
 62
     1
 10
34.2500000000017693
 20
-0.0000000000003402
 30
0.0
 40
7.75
 50
179.9999999999986073
 51
236.7673899071388917
  0
ARC
  5
2CBA
  8
0
  6
VERDECKT
 62
     1
 10
28.3585766423373009
 20
-8.9918647020934959
 30
0.0
 40
3.0000000000000209
 50
342.4073535061601206
 51
56.7673899071409522
  0
ARC
  5
2CBB
  8
0
  6
VERDECKT
 62
     1
 10
0.0000000000018099
 20
0.0000000000013713
 30
0.0
 40
32.7499999999999787
 50
287.5926464938378899
 51
342.4073535061594953
  0
ARC
  5
2CBC
  8
0
  6
VERDECKT
 62
     1
 10
0.0000000000028011
 20
0.0000000000014637
 30
0.0
 40
35.7499999999992895
 50
287.5298739995498067
 51
342.4701260004446794
  0
ARC
  5
2CBD
  8
0
  6
VERDECKT
 62
     1
 10
39.8111313868628969
 20
-12.5752263477861703
 30
0.0
 40
6.000000000000095
 50
113.856410239124699
 51
162.4701260004449921
  0
ARC
  5
2CBE
  8
0
  6
VERDECKT
 62
     1
 10
34.2500000000017693
 20
0.0000000000006253
 30
0.0
 40
7.7500000000000151
 50
293.8564102391246138
 51
66.1435897608652965
  0
CIRCLE
  5
2CBF
  8
0
  6
VERDECKT
 62
     1
 10
0.0000000000009093
 20
-0.0000000000000038
 30
0.0
 40
31.1511532967008087
  0
CIRCLE
  5
2CC0
  8
0
  6
VERDECKT
 62
     1
 10
0.0000000000009029
 20
-0.0000000000000131
 30
0.0
 40
26.5
  0
CIRCLE
  5
2CC1
  8
0
  6
VERDECKT
 62
     1
 10
0.0000000000009077
 20
-0.0000000000000064
 30
0.0
 40
29.5
  0
CIRCLE
  5
2CC2
  8
0
  6
VERDECKT
 62
     1
 10
0.0000000000007066
 20
0.0000000000000011
 30
0.0
 40
42.341267688131893
  0
CIRCLE
  5
2CC3
  8
0
  6
VERDECKT
 62
     1
 10
0.0000000000009093
 20
-0.0000000000000038
 30
0.0
 40
31.1511532967008193
  0
CIRCLE
  5
2CC4
  8
0
  6
VERDECKT
 62
     1
 10
0.0000000000009104
 20
-0.0000000000000027
 30
0.0
 40
31.5
  0
CIRCLE
  5
2CC5
  8
0
  6
VERDECKT
 62
     1
 10
0.0000000000009103
 20
-0.0000000000000029
 30
0.0
 40
31.5000320571283012
  0
CIRCLE
  5
2CC6
  8
0
  6
VERDECKT
 62
     1
 10
-0.0000000000002274
 20
0.0000000000000057
 30
0.0
 40
26.0625566823705412
  0
CIRCLE
  5
2CC7
  8
0
  6
VERDECKT
 62
     1
 10
0.0000000000008886
 20
-0.0000000000000131
 30
0.0
 40
26.5
  0
CIRCLE
  5
2CC8
  8
0
  6
VERDECKT
 62
     1
 10
0.0000000000008962
 20
-0.0000000000000027
 30
0.0
 40
30.0
  0
CIRCLE
  5
2CC9
  8
0
  6
VERDECKT
 62
     1
 10
0.0000000000008935
 20
-0.0000000000000064
 30
0.0
 40
29.5
  0
CIRCLE
  5
2CCA
  8
0
  6
VERDECKT
 62
     1
 10
0.0000000000008962
 20
-0.0000000000000027
 30
0.0
 40
31.5
  0
CIRCLE
  5
2CCB
  8
0
  6
VERDECKT
 62
     1
 10
0.0000000000008961
 20
-0.0000000000000029
 30
0.0
 40
30.0000320571281485
  0
CIRCLE
  5
2CCC
  8
0
  6
VERDECKT
 62
     1
 10
0.0000000000008961
 20
-0.0000000000000029
 30
0.0
 40
31.5000320571283012
  0
ARC
  5
2CCD
  8
0
  6
VERDECKT
 62
     1
 10
-28.3585766423349988
 20
-8.9918647020934372
 30
0.0
 40
2.9999999999998881
 50
123.2326100928564045
 51
197.5926464938420111
  0
ARC
  5
2CCE
  8
0
  6
VERDECKT
 62
     1
 10
-39.8111313868602821
 20
-12.5752263477860406
 30
0.0
 40
5.9999999999999254
 50
17.5298739995542192
 51
66.1435897608761536
  0
ARC
  5
2CCF
  8
0
  6
VERDECKT
 62
     1
 10
-8.9918647020927143
 20
-28.3585766423341887
 30
0.0
 40
3.0000000000000551
 50
252.4073535061658049
 51
326.7673899071450023
  0
ARC
  5
2CD0
  8
0
  6
VERDECKT
 62
     1
 10
0.0000000000000975
 20
0.000000000001819
 30
0.0
 40
32.7499999999998721
 50
197.5926464938418974
 51
252.407353506163787
  0
ARC
  5
2CD1
  8
0
  6
VERDECKT
 62
     1
 10
0.000000000000268
 20
0.0000000000010232
 30
0.0
 40
35.7499999999994529
 50
197.5298739995540132
 51
252.4701260004488006
  0
ARC
  5
2CD2
  8
0
  6
VERDECKT
 62
     1
 10
-12.5752263477846409
 20
-39.8111313868602679
 30
0.0
 40
6.0000000000004263
 50
23.8564102391306392
 51
72.4701260004479337
  0
ARC
  5
2CD3
  8
0
  6
VERDECKT
 62
     1
 10
-8.9918647020927143
 20
28.3585766423344694
 30
0.0
 40
3.0000000000000009
 50
33.2326100928540384
 51
107.5926464938344935
  0
ARC
  5
2CD4
  8
0
  6
VERDECKT
 62
     1
 10
-12.57522634778441
 20
39.8111313868603318
 30
0.0
 40
6.0000000000001492
 50
287.5298739995507162
 51
336.1435897608699861
  0
CIRCLE
  5
2CD5
  8
0
  6
VERDECKT
 62
     1
 10
-34.2499999999990479
 20
0.0000000000005116
 30
0.0
 40
4.7499999999997611
  0
ARC
  5
2CD6
  8
0
  6
VERDECKT
 62
     1
 10
-34.2499999999993321
 20
0.0000000000006253
 30
0.0
 40
7.7500000000000471
 50
303.2326100928590904
 51
56.7673899071384724
  0
ARC
  5
2CD7
  8
0
  6
VERDECKT
 62
     1
 10
-28.3585766423349988
 20
8.9918647020936646
 30
0.0
 40
2.9999999999998881
 50
162.4073535061579037
 51
236.7673899071436097
  0
ARC
  5
2CD8
  8
0
  6
VERDECKT
 62
     1
 10
0.0000000000007796
 20
-0.0000000000011937
 30
0.0
 40
32.75
 50
107.5926464938380036
 51
162.407353506159609
  0
ARC
  5
2CD9
  8
0
  6
VERDECKT
 62
     1
 10
-0.0000000000005847
 20
-0.00000000000108
 30
0.0
 40
35.7499999999990266
 50
107.5298739995494941
 51
162.4701260004447931
  0
ARC
  5
2CDA
  8
0
  6
VERDECKT
 62
     1
 10
-39.8111313868602821
 20
12.5752263477861508
 30
0.0
 40
5.9999999999999254
 50
293.8564102391238748
 51
342.4701260004458163
  0
ARC
  5
2CDB
  8
0
  6
VERDECKT
 62
     1
 10
-34.2499999999992824
 20
-0.0000000000002842
 30
0.0
 40
7.7500000000000391
 50
113.856410239124898
 51
246.1435897608656092
  0
CIRCLE
  5
2CDC
  8
0
  6
VERDECKT
 62
     1
 10
0.0000000000017459
 20
34.24999999999784
 30
0.0
 40
4.7499999999997611
  0
ARC
  5
2CDD
  8
0
  6
VERDECKT
 62
     1
 10
0.0000000000019733
 20
34.2499999999979465
 30
0.0
 40
7.7499999999999432
 50
213.2326100928540882
 51
326.76738990713568
  0
ARC
  5
2CDE
  8
0
  6
VERDECKT
 62
     1
 10
8.9918647020951834
 20
28.3585766423344694
 30
0.0
 40
3.0000000000000009
 50
72.4073535061654923
 51
146.7673899071459118
  0
ARC
  5
2CDF
  8
0
  6
VERDECKT
 62
     1
 10
12.5752263477868809
 20
39.8111313868603318
 30
0.0
 40
6.0000000000001492
 50
203.8564102391300139
 51
252.4701260004493122
  0
ARC
  5
2CE0
  8
0
  6
VERDECKT
 62
     1
 10
0.0000000000004385
 20
34.2499999999980673
 30
0.0
 40
7.7499999999999361
 50
23.856410239128369
 51
156.1435897608693892
  0
ARC
  5
2CE1
  8
0
  6
VERDECKT
 62
     1
 10
28.3585766423374608
 20
8.9918647020936646
 30
0.0
 40
2.9999999999998881
 50
303.2326100928564188
 51
17.5926464938420288
  0
ARC
  5
2CE2
  8
0
  6
VERDECKT
 62
     1
 10
0.0000000000022575
 20
-0.0000000000017621
 30
0.0
 40
32.7500000000000426
 50
17.59264649384221
 51
72.4073535061636449
  0
ARC
  5
2CE3
  8
0
  6
VERDECKT
 62
     1
 10
0.000000000002428
 20
-0.000000000000739
 30
0.0
 40
35.7499999999992113
 50
17.5298739995540203
 51
72.470126000449028
  0
ARC
  5
2CE4
  8
0
  6
VERDECKT
 62
     1
 10
39.8111313868627477
 20
12.5752263477861508
 30
0.0
 40
5.9999999999999254
 50
197.5298739995542121
 51
246.1435897608760968
  0
CIRCLE
  5
2CE5
  8
0
  6
VERDECKT
 62
     1
 10
0.0000000000007227
 20
-34.2499999999976126
 30
0.0
 40
4.7499999999997611
  0
ARC
  5
2CE6
  8
0
  6
VERDECKT
 62
     1
 10
0.0000000000004954
 20
-34.2499999999977334
 30
0.0
 40
7.7499999999999103
 50
33.2326100928537329
 51
146.7673899071353105
  0
ARC
  5
2CE7
  8
0
  6
VERDECKT
 62
     1
 10
8.9918647020951834
 20
-28.3585766423341887
 30
0.0
 40
3.0000000000000551
 50
213.2326100928549977
 51
287.5926464938341951
  0
ARC
  5
2CE8
  8
0
  6
VERDECKT
 62
     1
 10
12.5752263477870994
 20
-39.8111313868602679
 30
0.0
 40
6.0000000000004263
 50
107.5298739995519952
 51
156.143589760869304
  0
ARC
  5
2CE9
  8
0
  6
VERDECKT
 62
     1
 10
0.0000000000019733
 20
-34.24999999999784
 30
0.0
 40
7.7499999999999902
 50
203.8564102391289055
 51
336.1435897608695882
  0
CIRCLE
  5
2CEA
  8
0
  6
VERDECKT
 62
     1
 10
34.2500000000015206
 20
-0.0000000000003411
 30
0.0
 40
4.7499999999997611
  0
ARC
  5
2CEB
  8
0
  6
VERDECKT
 62
     1
 10
34.2500000000017479
 20
-0.0000000000003411
 30
0.0
 40
7.7500000000000169
 50
123.2326100928587067
 51
236.7673899071388064
  0
ARC
  5
2CEC
  8
0
  6
VERDECKT
 62
     1
 10
28.3585766423374608
 20
-8.9918647020934372
 30
0.0
 40
2.9999999999998881
 50
342.4073535061580174
 51
56.767389907143567
  0
ARC
  5
2CED
  8
0
  6
VERDECKT
 62
     1
 10
0.0000000000019165
 20
0.0000000000011937
 30
0.0
 40
32.7499999999997726
 50
287.5926464938377762
 51
342.4073535061597227
  0
ARC
  5
2CEE
  8
0
  6
VERDECKT
 62
     1
 10
0.0000000000027123
 20
0.0000000000014779
 30
0.0
 40
35.7499999999993534
 50
287.5298739995499204
 51
342.4701260004446794
  0
ARC
  5
2CEF
  8
0
  6
VERDECKT
 62
     1
 10
39.8111313868627477
 20
-12.5752263477860406
 30
0.0
 40
5.9999999999999254
 50
113.8564102391238038
 51
162.4701260004457026
  0
ARC
  5
2CF0
  8
0
  6
VERDECKT
 62
     1
 10
34.2500000000017479
 20
0.0000000000005684
 30
0.0
 40
7.7500000000000391
 50
293.8564102391250117
 51
66.1435897608655949
  0
CIRCLE
  5
2CF1
  8
0
  6
VERDECKT
 62
     1
 10
0.0000000000006888
 20
0.0000000000000001
 30
0.0
 40
33.964101615137622
  0
CIRCLE
  5
2CF2
  8
0
  6
VERDECKT
 62
     1
 10
0.0000000000006901
 20
0.0000000000000005
 30
0.0
 40
30.5
  0
CIRCLE
  5
2CF3
  8
0
  6
VERDECKT
 62
     1
 10
0.0000000000006888
 20
0.0000000000000001
 30
0.0
 40
38.5000000000009095
  0
CIRCLE
  5
2CF4
  8
0
  6
VERDECKT
 62
     1
 10
0.0000000000006924
 20
0.0000000000000011
 30
0.0
 40
42.341267688131893
  0
ENDBLK
  5
2CF6
  8
0
  0
BLOCK
  8
0
  2
A$C6AE65214
 70
     0
 10
0.0
 20
0.0
 30
0.0
  3
A$C6AE65214
  1

  0
LINE
  5
2CFA
  8
0
  6
CONTINUOUS
 62
     3
 10
44.4999999999999929
 20
30.0000000000000107
 30
-0.0000000000000067
 11
-44.4999999999999929
 21
30.0000000000000107
 31
-0.0000000000000067
210
0.0
220
1.0
230
-0.0000000000000002
  0
LINE
  5
2CFB
  8
0
  6
CONTINUOUS
 62
     3
 10
44.4999999999999929
 20
4038.0000000000009095
 30
-0.0000000000008966
 11
-44.4999999999999929
 21
4038.0000000000009095
 31
-0.0000000000008966
210
0.0
220
1.0
230
-0.0000000000000002
  0
LINE
  5
2CFC
  8
0
  6
CONTINUOUS
 62
     3
 10
44.4999999999999929
 20
4038.0000000000009095
 30
-0.0000000000008966
 11
44.4999999999999929
 21
30.0000000000000107
 31
-0.0000000000000067
210
0.0
220
1.0
230
-0.0000000000000002
  0
LINE
  5
2CFD
  8
0
  6
CONTINUOUS
 62
     3
 10
-44.4999999999999929
 20
4038.0000000000009095
 30
-0.0000000000008966
 11
-44.4999999999999929
 21
30.0000000000000107
 31
-0.0000000000000067
210
0.0
220
1.0
230
-0.0000000000000002
  0
LINE
  5
2CFE
  8
0
  6
CONTINUOUS
 62
     3
 10
26.0625566823703103
 20
0.0
 30
0.0
 11
-26.0625566823707686
 21
0.0
 31
0.0
210
0.0
220
1.0
230
-0.0000000000000002
  0
ARC
  5
2CFF
  8
0
  6
CONTINUOUS
 62
     3
 10
-25.5000000000010907
 20
5.0436609429056674
 30
0.0
 40
0.9999999999986783
210
0.0
220
-0.0000000000000002
230
-1.0
 50
179.999999999997101
 51
185.0000000000034106
  0
ARC
  5
2D00
  8
0
  6
CONTINUOUS
 62
     3
 10
25.500000000001549
 20
5.0436609429056674
 30
0.0
 40
0.9999999999986783
210
0.0
220
-0.0000000000000002
230
-1.0
 50
354.9999999999964757
 51
0.0000000000029007
  0
LINE
  5
2D01
  8
0
  6
CONTINUOUS
 62
     3
 10
-26.0625566823709995
 20
-0.00000000000002
 30
0.0
 11
-26.4961946980919585
 21
4.9565052001580652
 31
-0.0000000000000011
210
0.0
220
1.0
230
-0.0000000000000002
  0
LINE
  5
2D02
  8
0
  6
CONTINUOUS
 62
     3
 10
26.0625566823705412
 20
-0.00000000000002
 30
0.0
 11
26.4961946980915108
 21
4.9565052001580652
 31
-0.0000000000000011
210
0.0
220
1.0
230
-0.0000000000000002
  0
LINE
  5
2D03
  8
0
  6
CONTINUOUS
 62
     3
 10
-26.5000000000002309
 20
5.0436609429057171
 30
-0.0000000000000011
 11
-26.5000000000002309
 21
27.9999999999999503
 31
-0.0000000000000062
210
0.0
220
1.0
230
-0.0000000000000002
  0
LINE
  5
2D04
  8
0
  6
CONTINUOUS
 62
     3
 10
26.4999999999997691
 20
5.0436609429057171
 30
-0.0000000000000011
 11
26.4999999999997691
 21
27.9999999999999503
 31
-0.0000000000000062
210
0.0
220
1.0
230
-0.0000000000000002
  0
LINE
  5
2D05
  8
0
  6
CONTINUOUS
 62
     3
 10
44.5000000000006821
 20
27.9999999999999503
 30
-0.0000000000000062
 11
-44.4999999999993108
 21
27.9999999999999503
 31
-0.0000000000000062
210
0.0
220
1.0
230
-0.0000000000000002
  0
LINE
  5
2D06
  8
0
  6
CONTINUOUS
 62
     3
 10
44.5000000000013571
 20
30.0000000000000107
 30
-0.0000000000000067
 11
-44.5
 21
30.0000000000000107
 31
-0.0000000000000067
210
0.0
220
1.0
230
-0.0000000000000002
  0
LINE
  5
2D07
  8
0
  6
CONTINUOUS
 62
     3
 10
-44.4999999999996589
 20
27.9999999999999503
 30
-0.0000000000000062
 11
-44.4999999999996589
 21
30.0000000000000107
 31
-0.0000000000000067
210
0.0
220
1.0
230
-0.0000000000000002
  0
LINE
  5
2D08
  8
0
  6
CONTINUOUS
 62
     3
 10
44.5000000000010232
 20
27.9999999999999503
 30
-0.0000000000000062
 11
44.5000000000010232
 21
30.0000000000000107
 31
-0.0000000000000067
210
0.0
220
1.0
230
-0.0000000000000002
  0
LINE
  5
2D09
  8
0
  6
VERDECKT
 62
     1
 10
-26.4999999999998685
 20
2738.0000000000009095
 30
-0.000000000000608
 11
-26.4999999999998685
 21
2728.0000000000009095
 31
-0.0000000000006057
210
0.0
220
1.0
230
-0.0000000000000002
  0
LINE
  5
2D0A
  8
0
  6
VERDECKT
 62
     1
 10
-0.0000000000001252
 20
2728.0000000000009095
 30
-0.0000000000006057
 11
-0.0000000000001252
 21
2738.0000000000009095
 31
-0.000000000000608
210
0.0
220
1.0
230
-0.0000000000000002
  0
LINE
  5
2D0B
  8
0
  6
VERDECKT
 62
     1
 10
26.5000000000011511
 20
2738.0000000000009095
 30
-0.000000000000608
 11
26.5000000000011511
 21
2728.0000000000009095
 31
-0.0000000000006057
210
0.0
220
1.0
230
-0.0000000000000002
  0
LINE
  5
2D0C
  8
0
  6
VERDECKT
 62
     1
 10
-34.0897711875515625
 20
2728.0000000000009095
 30
-0.0000000000006057
 11
-37.3844558725943088
 21
2728.0000000000009095
 31
-0.0000000000006057
210
0.0
220
1.0
230
-0.0000000000000002
  0
LINE
  5
2D0D
  8
0
  6
VERDECKT
 62
     1
 10
-37.3844558725943017
 20
2738.0000000000009095
 30
-0.000000000000608
 11
-34.0897711875515625
 21
2738.0000000000009095
 31
-0.000000000000608
210
0.0
220
1.0
230
-0.0000000000000002
  0
LINE
  5
2D0E
  8
0
  6
VERDECKT
 62
     1
 10
-34.089771187551527
 20
2728.0000000000009095
 30
-0.0000000000006057
 11
-10.7680081900198399
 21
2728.0000000000009095
 31
-0.0000000000006057
210
0.0
220
1.0
230
-0.0000000000000002
  0
LINE
  5
2D0F
  8
0
  6
VERDECKT
 62
     1
 10
-10.7680081900198399
 20
2738.0000000000009095
 30
-0.000000000000608
 11
-34.0897711875515199
 21
2738.0000000000009095
 31
-0.000000000000608
210
0.0
220
1.0
230
-0.0000000000000002
  0
LINE
  5
2D10
  8
0
  6
VERDECKT
 62
     1
 10
-10.7680081900194899
 20
2728.0000000000009095
 30
-0.0000000000006057
 11
-7.0878548505691024
 21
2728.0000000000009095
 31
-0.0000000000006057
210
0.0
220
1.0
230
-0.0000000000000002
  0
LINE
  5
2D11
  8
0
  6
VERDECKT
 62
     1
 10
-7.0878548505691041
 20
2738.0000000000009095
 30
-0.000000000000608
 11
-10.7680081900195006
 21
2738.0000000000009095
 31
-0.000000000000608
210
0.0
220
1.0
230
-0.0000000000000002
  0
LINE
  5
2D12
  8
0
  6
VERDECKT
 62
     1
 10
-37.3844558725955594
 20
2728.0000000000009095
 30
-0.0000000000006057
 11
-41.9999999999998792
 21
2728.0000000000009095
 31
-0.0000000000006057
210
0.0
220
1.0
230
-0.0000000000000002
  0
LINE
  5
2D13
  8
0
  6
VERDECKT
 62
     1
 10
-41.9999999999998792
 20
2738.0000000000009095
 30
-0.000000000000608
 11
-37.3844558725955523
 21
2738.0000000000009095
 31
-0.000000000000608
210
0.0
220
1.0
230
-0.0000000000000002
  0
LINE
  5
2D14
  8
0
  6
VERDECKT
 62
     1
 10
10.7680081900207707
 20
2728.0000000000009095
 30
-0.0000000000006057
 11
7.0878548505703813
 21
2728.0000000000009095
 31
-0.0000000000006057
210
0.0
220
1.0
230
-0.0000000000000002
  0
LINE
  5
2D15
  8
0
  6
VERDECKT
 62
     1
 10
7.0878548505703831
 20
2738.0000000000009095
 30
-0.000000000000608
 11
10.7680081900207707
 21
2738.0000000000009095
 31
-0.000000000000608
210
0.0
220
1.0
230
-0.0000000000000002
  0
LINE
  5
2D16
  8
0
  6
VERDECKT
 62
     1
 10
-7.0878548505704693
 20
2728.0000000000009095
 30
-0.0000000000006057
 11
7.0878548505703618
 21
2728.0000000000009095
 31
-0.0000000000006057
210
0.0
220
1.0
230
-0.0000000000000002
  0
LINE
  5
2D17
  8
0
  6
VERDECKT
 62
     1
 10
-7.0878548505690828
 20
2738.0000000000009095
 30
-0.000000000000608
 11
7.0878548505717482
 21
2738.0000000000009095
 31
-0.000000000000608
210
0.0
220
1.0
230
-0.0000000000000002
  0
LINE
  5
2D18
  8
0
  6
VERDECKT
 62
     1
 10
10.76800819002084
 20
2728.0000000000009095
 30
-0.0000000000006057
 11
34.0897711875530192
 21
2728.0000000000009095
 31
-0.0000000000006057
210
0.0
220
1.0
230
-0.0000000000000002
  0
LINE
  5
2D19
  8
0
  6
VERDECKT
 62
     1
 10
34.0897711875530121
 20
2738.0000000000009095
 30
-0.000000000000608
 11
10.76800819002084
 21
2738.0000000000009095
 31
-0.000000000000608
210
0.0
220
1.0
230
-0.0000000000000002
  0
LINE
  5
2D1A
  8
0
  6
VERDECKT
 62
     1
 10
34.0897711875528415
 20
2728.0000000000009095
 30
-0.0000000000006057
 11
37.3844558725955878
 21
2728.0000000000009095
 31
-0.0000000000006057
210
0.0
220
1.0
230
-0.0000000000000002
  0
LINE
  5
2D1B
  8
0
  6
VERDECKT
 62
     1
 10
37.3844558725955807
 20
2738.0000000000009095
 30
-0.000000000000608
 11
34.0897711875528415
 21
2738.0000000000009095
 31
-0.000000000000608
210
0.0
220
1.0
230
-0.0000000000000002
  0
LINE
  5
2D1C
  8
0
  6
VERDECKT
 62
     1
 10
42.0000000000011582
 20
2728.0000000000009095
 30
-0.0000000000006057
 11
37.3844558725955807
 21
2728.0000000000009095
 31
-0.0000000000006057
210
0.0
220
1.0
230
-0.0000000000000002
  0
LINE
  5
2D1D
  8
0
  6
VERDECKT
 62
     1
 10
37.3844558725955807
 20
2738.0000000000009095
 30
-0.000000000000608
 11
42.0000000000011582
 21
2738.0000000000009095
 31
-0.000000000000608
210
0.0
220
1.0
230
-0.0000000000000002
  0
LINE
  5
2D1E
  8
0
  6
VERDECKT
 62
     1
 10
-26.5000000000005009
 20
1340.0
 30
-0.0000000000002975
 11
-26.5000000000005009
 21
1330.0
 31
-0.0000000000002953
210
0.0
220
1.0
230
-0.0000000000000002
  0
LINE
  5
2D1F
  8
0
  6
VERDECKT
 62
     1
 10
-0.000000000000609
 20
1330.0
 30
-0.0000000000002953
 11
-0.000000000000609
 21
1340.0
 31
-0.0000000000002975
210
0.0
220
1.0
230
-0.0000000000000002
  0
LINE
  5
2D20
  8
0
  6
VERDECKT
 62
     1
 10
26.5000000000005294
 20
1340.0
 30
-0.0000000000002975
 11
26.5000000000005294
 21
1330.0
 31
-0.0000000000002953
210
0.0
220
1.0
230
-0.0000000000000002
  0
LINE
  5
2D21
  8
0
  6
VERDECKT
 62
     1
 10
-34.0897711875521878
 20
1330.0
 30
-0.0000000000002953
 11
-37.384455872594927
 21
1330.0
 31
-0.0000000000002953
210
0.0
220
1.0
230
-0.0000000000000002
  0
LINE
  5
2D22
  8
0
  6
VERDECKT
 62
     1
 10
-37.384455872594927
 20
1340.0
 30
-0.0000000000002975
 11
-34.0897711875521878
 21
1340.0
 31
-0.0000000000002975
210
0.0
220
1.0
230
-0.0000000000000002
  0
LINE
  5
2D23
  8
0
  6
VERDECKT
 62
     1
 10
-34.0897711875521594
 20
1330.0
 30
-0.0000000000002953
 11
-10.7680081900204705
 21
1330.0
 31
-0.0000000000002953
210
0.0
220
1.0
230
-0.0000000000000002
  0
LINE
  5
2D24
  8
0
  6
VERDECKT
 62
     1
 10
-10.7680081900204598
 20
1340.0
 30
-0.0000000000002975
 11
-34.0897711875521523
 21
1340.0
 31
-0.0000000000002975
210
0.0
220
1.0
230
-0.0000000000000002
  0
LINE
  5
2D25
  8
0
  6
VERDECKT
 62
     1
 10
-10.7680081900201206
 20
1330.0
 30
-0.0000000000002953
 11
-7.0878548505697268
 21
1330.0
 31
-0.0000000000002953
210
0.0
220
1.0
230
-0.0000000000000002
  0
LINE
  5
2D26
  8
0
  6
VERDECKT
 62
     1
 10
-7.0878548505697294
 20
1340.0
 30
-0.0000000000002975
 11
-10.7680081900201206
 21
1340.0
 31
-0.0000000000002975
210
0.0
220
1.0
230
-0.0000000000000002
  0
LINE
  5
2D27
  8
0
  6
VERDECKT
 62
     1
 10
-37.3844558725961917
 20
1330.0
 30
-0.0000000000002953
 11
-42.0000000000005116
 21
1330.0
 31
-0.0000000000002953
210
0.0
220
1.0
230
-0.0000000000000002
  0
LINE
  5
2D28
  8
0
  6
VERDECKT
 62
     1
 10
-42.0000000000005116
 20
1340.0
 30
-0.0000000000002975
 11
-37.3844558725961775
 21
1340.0
 31
-0.0000000000002975
210
0.0
220
1.0
230
-0.0000000000000002
  0
LINE
  5
2D29
  8
0
  6
VERDECKT
 62
     1
 10
10.7680081900201507
 20
1330.0
 30
-0.0000000000002953
 11
7.0878548505697561
 21
1330.0
 31
-0.0000000000002953
210
0.0
220
1.0
230
-0.0000000000000002
  0
LINE
  5
2D2A
  8
0
  6
VERDECKT
 62
     1
 10
7.0878548505697569
 20
1340.0
 30
-0.0000000000002975
 11
10.7680081900201507
 21
1340.0
 31
-0.0000000000002975
210
0.0
220
1.0
230
-0.0000000000000002
  0
LINE
  5
2D2B
  8
0
  6
VERDECKT
 62
     1
 10
-7.0878548505710937
 20
1330.0
 30
-0.0000000000002953
 11
7.0878548505697374
 21
1330.0
 31
-0.0000000000002953
210
0.0
220
1.0
230
-0.0000000000000002
  0
LINE
  5
2D2C
  8
0
  6
VERDECKT
 62
     1
 10
-7.0878548505697081
 20
1340.0
 30
-0.0000000000002975
 11
7.0878548505711221
 21
1340.0
 31
-0.0000000000002975
210
0.0
220
1.0
230
-0.0000000000000002
  0
LINE
  5
2D2D
  8
0
  6
VERDECKT
 62
     1
 10
10.76800819002022
 20
1330.0
 30
-0.0000000000002953
 11
34.089771187552401
 21
1330.0
 31
-0.0000000000002953
210
0.0
220
1.0
230
-0.0000000000000002
  0
LINE
  5
2D2E
  8
0
  6
VERDECKT
 62
     1
 10
34.0897711875523868
 20
1340.0
 30
-0.0000000000002975
 11
10.76800819002022
 21
1340.0
 31
-0.0000000000002975
210
0.0
220
1.0
230
-0.0000000000000002
  0
LINE
  5
2D2F
  8
0
  6
VERDECKT
 62
     1
 10
34.0897711875522234
 20
1330.0
 30
-0.0000000000002953
 11
37.3844558725949696
 21
1330.0
 31
-0.0000000000002953
210
0.0
220
1.0
230
-0.0000000000000002
  0
LINE
  5
2D30
  8
0
  6
VERDECKT
 62
     1
 10
37.3844558725949625
 20
1340.0
 30
-0.0000000000002975
 11
34.0897711875522234
 21
1340.0
 31
-0.0000000000002975
210
0.0
220
1.0
230
-0.0000000000000002
  0
LINE
  5
2D31
  8
0
  6
VERDECKT
 62
     1
 10
42.00000000000054
 20
1330.0
 30
-0.0000000000002953
 11
37.3844558725949625
 21
1330.0
 31
-0.0000000000002953
210
0.0
220
1.0
230
-0.0000000000000002
  0
LINE
  5
2D32
  8
0
  6
VERDECKT
 62
     1
 10
37.3844558725949625
 20
1340.0
 30
-0.0000000000002975
 11
42.00000000000054
 21
1340.0
 31
-0.0000000000002975
210
0.0
220
1.0
230
-0.0000000000000002
  0
LINE
  5
2D33
  8
0
  6
VERDECKT
 62
     1
 10
-42.8999999999999773
 20
4024.0
 30
-0.0000000000008935
 11
42.8999999999999986
 21
4024.0
 31
-0.0000000000008935
210
0.0
220
1.0
230
-0.0000000000000002
  0
LINE
  5
2D34
  8
0
  6
VERDECKT
 62
     1
 10
42.341267688132568
 20
46.0
 30
-0.0000000000000102
 11
-42.3412676881311896
 21
46.0
 31
-0.0000000000000102
210
0.0
220
1.0
230
-0.0000000000000002
  0
LINE
  5
2D35
  8
0
  6
VERDECKT
 62
     1
 10
-31.3585766423354393
 20
2728.0000000000009095
 30
-0.0000000000006057
 11
-31.3585766423354393
 21
2738.0000000000009095
 31
-0.000000000000608
210
0.0
220
1.0
230
-0.0000000000000002
  0
LINE
  5
2D36
  8
0
  6
VERDECKT
 62
     1
 10
-29.4999999999998792
 20
2738.0000000000009095
 30
-0.000000000000608
 11
-29.4999999999998792
 21
2728.0000000000009095
 31
-0.0000000000006057
210
0.0
220
1.0
230
-0.0000000000000002
  0
LINE
  5
2D37
  8
0
  6
VERDECKT
 62
     1
 10
-38.9999999999994031
 20
2738.0000000000009095
 30
-0.000000000000608
 11
-38.9999999999994031
 21
2728.0000000000009095
 31
-0.0000000000006057
210
0.0
220
1.0
230
-0.0000000000000002
  0
LINE
  5
2D38
  8
0
  6
VERDECKT
 62
     1
 10
-41.9999999999998792
 20
2738.0000000000009095
 30
-0.000000000000608
 11
-41.9999999999998792
 21
2728.0000000000009095
 31
-0.0000000000006057
210
0.0
220
1.0
230
-0.0000000000000002
  0
LINE
  5
2D39
  8
0
  6
VERDECKT
 62
     1
 10
-4.7499999999996332
 20
2728.0000000000009095
 30
-0.0000000000006057
 11
-4.7499999999996332
 21
2738.0000000000009095
 31
-0.000000000000608
210
0.0
220
1.0
230
-0.0000000000000002
  0
LINE
  5
2D3A
  8
0
  6
VERDECKT
 62
     1
 10
4.7499999999998881
 20
2728.0000000000009095
 30
-0.0000000000006057
 11
4.7499999999998881
 21
2738.0000000000009095
 31
-0.000000000000608
210
0.0
220
1.0
230
-0.0000000000000002
  0
LINE
  5
2D3B
  8
0
  6
VERDECKT
 62
     1
 10
39.0000000000006821
 20
2738.0000000000009095
 30
-0.000000000000608
 11
39.0000000000006821
 21
2728.0000000000009095
 31
-0.0000000000006057
210
0.0
220
1.0
230
-0.0000000000000002
  0
LINE
  5
2D3C
  8
0
  6
VERDECKT
 62
     1
 10
29.5000000000011617
 20
2738.0000000000009095
 30
-0.000000000000608
 11
29.5000000000011617
 21
2728.0000000000009095
 31
-0.0000000000006057
210
0.0
220
1.0
230
-0.0000000000000002
  0
LINE
  5
2D3D
  8
0
  6
VERDECKT
 62
     1
 10
31.3585766423367183
 20
2738.0000000000009095
 30
-0.000000000000608
 11
31.3585766423367183
 21
2728.0000000000009095
 31
-0.0000000000006057
210
0.0
220
1.0
230
-0.0000000000000002
  0
LINE
  5
2D3E
  8
0
  6
VERDECKT
 62
     1
 10
42.0000000000011582
 20
2738.0000000000009095
 30
-0.000000000000608
 11
42.0000000000011582
 21
2728.0000000000009095
 31
-0.0000000000006057
210
0.0
220
1.0
230
-0.0000000000000002
  0
LINE
  5
2D3F
  8
0
  6
VERDECKT
 62
     1
 10
-31.3585766423360717
 20
1330.0
 30
-0.0000000000002953
 11
-31.3585766423360717
 21
1340.0
 31
-0.0000000000002975
210
0.0
220
1.0
230
-0.0000000000000002
  0
LINE
  5
2D40
  8
0
  6
VERDECKT
 62
     1
 10
-29.5000000000005116
 20
1340.0
 30
-0.0000000000002975
 11
-29.5000000000005116
 21
1330.0
 31
-0.0000000000002953
210
0.0
220
1.0
230
-0.0000000000000002
  0
LINE
  5
2D41
  8
0
  6
VERDECKT
 62
     1
 10
-39.0000000000000284
 20
1340.0
 30
-0.0000000000002975
 11
-39.0000000000000284
 21
1330.0
 31
-0.0000000000002953
210
0.0
220
1.0
230
-0.0000000000000002
  0
LINE
  5
2D42
  8
0
  6
VERDECKT
 62
     1
 10
-42.0000000000005116
 20
1340.0
 30
-0.0000000000002975
 11
-42.0000000000005116
 21
1330.0
 31
-0.0000000000002953
210
0.0
220
1.0
230
-0.0000000000000002
  0
LINE
  5
2D43
  8
0
  6
VERDECKT
 62
     1
 10
-4.7500000000002576
 20
1330.0
 30
-0.0000000000002953
 11
-4.7500000000002576
 21
1340.0
 31
-0.0000000000002975
210
0.0
220
1.0
230
-0.0000000000000002
  0
LINE
  5
2D44
  8
0
  6
VERDECKT
 62
     1
 10
4.7499999999992628
 20
1330.0
 30
-0.0000000000002953
 11
4.7499999999992628
 21
1340.0
 31
-0.0000000000002975
210
0.0
220
1.0
230
-0.0000000000000002
  0
LINE
  5
2D45
  8
0
  6
VERDECKT
 62
     1
 10
39.0000000000000568
 20
1340.0
 30
-0.0000000000002975
 11
39.0000000000000568
 21
1330.0
 31
-0.0000000000002953
210
0.0
220
1.0
230
-0.0000000000000002
  0
LINE
  5
2D46
  8
0
  6
VERDECKT
 62
     1
 10
29.50000000000054
 20
1340.0
 30
-0.0000000000002975
 11
29.50000000000054
 21
1330.0
 31
-0.0000000000002953
210
0.0
220
1.0
230
-0.0000000000000002
  0
LINE
  5
2D47
  8
0
  6
VERDECKT
 62
     1
 10
31.3585766423361001
 20
1340.0
 30
-0.0000000000002975
 11
31.3585766423361001
 21
1330.0
 31
-0.0000000000002953
210
0.0
220
1.0
230
-0.0000000000000002
  0
LINE
  5
2D48
  8
0
  6
VERDECKT
 62
     1
 10
42.00000000000054
 20
1340.0
 30
-0.0000000000002975
 11
42.00000000000054
 21
1330.0
 31
-0.0000000000002953
210
0.0
220
1.0
230
-0.0000000000000002
  0
LINE
  5
2D49
  8
0
  6
VERDECKT
 62
     1
 10
-26.5000000000002203
 20
46.0
 30
-0.0000000000000102
 11
-26.5000000000002203
 21
3994.8726731603442204
 31
-0.000000000000887
210
0.0
220
1.0
230
-0.0000000000000002
  0
LINE
  5
2D4A
  8
0
  6
VERDECKT
 62
     1
 10
26.4999999999997904
 20
46.0
 30
-0.0000000000000102
 11
26.4999999999997904
 21
3994.8726731603442204
 31
-0.000000000000887
210
0.0
220
1.0
230
-0.0000000000000002
  0
ARC
  5
2D4B
  8
0
  6
VERDECKT
 62
     1
 10
34.5000000000008384
 20
3994.8726731603442204
 30
0.0
 40
8.0000000000007159
210
0.0
220
-0.0000000000000002
230
-1.0
 50
148.2116693829505891
 51
180.0000000000032117
  0
ARC
  5
2D4C
  8
0
  6
VERDECKT
 62
     1
 10
-34.5000000000015703
 20
3994.8726731603442204
 30
0.0
 40
8.0000000000015277
210
0.0
220
-0.0000000000000002
230
-1.0
 50
0.0000000000032569
 51
31.788330617049521
  0
ARC
  5
2D4D
  8
0
  6
VERDECKT
 62
     1
 10
17.5000000000021316
 20
4005.4083269131970155
 30
0.0
 40
11.9999999999978098
210
0.0
220
-0.0000000000000002
230
-1.0
 50
328.2116693829473206
 51
0.0000000000043624
  0
ARC
  5
2D4E
  8
0
  6
VERDECKT
 62
     1
 10
-17.50000000000216
 20
4005.4083269131970155
 30
0.0
 40
11.9999999999978506
210
0.0
220
-0.0000000000000002
230
-1.0
 50
179.9999999999955946
 51
211.7883306170527078
  0
LINE
  5
2D4F
  8
0
  6
VERDECKT
 62
     1
 10
29.5000000000000107
 20
4016.5000000000009095
 30
-0.0000000000008918
 11
29.5000000000000107
 21
4005.4083269131970155
 31
-0.0000000000008894
210
0.0
220
1.0
230
-0.0000000000000002
  0
LINE
  5
2D50
  8
0
  6
VERDECKT
 62
     1
 10
-29.4999999999999893
 20
4016.5000000000009095
 30
-0.0000000000008918
 11
-29.4999999999999893
 21
4005.4083269131970155
 31
-0.0000000000008894
210
0.0
220
1.0
230
-0.0000000000000002
  0
ARC
  5
2D51
  8
0
  6
VERDECKT
 62
     1
 10
39.4999999999985718
 20
4016.5000000000009095
 30
0.0
 40
9.9999999999986642
210
0.0
220
-0.0000000000000002
230
-1.0
 50
160.536900555306687
 51
180.0
  0
ARC
  5
2D52
  8
0
  6
VERDECKT
 62
     1
 10
-39.4999999999986002
 20
4016.5000000000009095
 30
0.0
 40
9.9999999999986002
210
0.0
220
-0.0000000000000002
230
-1.0
 50
0.0
 51
19.4630994446933201
  0
ARC
  5
2D53
  8
0
  6
VERDECKT
 62
     1
 10
6.500000000022502
 20
4028.1619999999961692
 30
0.0
 40
25.0000320571053116
210
0.0
220
-0.0000000000000002
230
-1.0
 50
340.5369005553048964
 51
350.4167909288466944
  0
ARC
  5
2D54
  8
0
  6
VERDECKT
 62
     1
 10
-6.5000000000225242
 20
4028.1619999999961692
 30
0.0
 40
25.0000320571053294
210
0.0
220
-0.0000000000000002
230
-1.0
 50
189.5832090711531919
 51
199.4630994446949899
  0
LINE
  5
2D55
  8
0
  6
VERDECKT
 62
     1
 10
-42.8999999999999773
 20
30.0000000000000107
 30
-0.0000000000000067
 11
-42.8999999999999773
 21
4024.0
 31
-0.0000000000008935
210
0.0
220
1.0
230
-0.0000000000000002
  0
LINE
  5
2D56
  8
0
  6
VERDECKT
 62
     1
 10
42.8999999999999986
 20
30.0000000000000107
 30
-0.0000000000000067
 11
42.8999999999999986
 21
4024.0
 31
-0.0000000000008935
210
0.0
220
1.0
230
-0.0000000000000002
  0
LINE
  5
2D57
  8
0
  6
VERDECKT
 62
     1
 10
42.3412676881325893
 20
46.0
 30
-0.0000000000000102
 11
42.9000000000005528
 21
30.0000000000000284
 31
-0.0000000000000067
210
0.0
220
1.0
230
-0.0000000000000002
  0
LINE
  5
2D58
  8
0
  6
VERDECKT
 62
     1
 10
-42.3412676881311896
 20
46.0
 30
-0.0000000000000102
 11
-42.8999999999991601
 21
30.0000000000000107
 31
-0.0000000000000067
210
0.0
220
1.0
230
-0.0000000000000002
  0
LINE
  5
2D59
  8
0
  6
VERDECKT
 62
     1
 10
42.8999999999999915
 20
4038.0000000000009095
 30
-0.0000000000008966
 11
42.8999999999999915
 21
30.0000000000000107
 31
-0.0000000000000067
210
0.0
220
1.0
230
-0.0000000000000002
  0
LINE
  5
2D5A
  8
0
  6
VERDECKT
 62
     1
 10
-42.8999999999999915
 20
4038.0000000000009095
 30
-0.0000000000008966
 11
-42.8999999999999915
 21
30.0000000000000107
 31
-0.0000000000000067
210
0.0
220
1.0
230
-0.0000000000000002
  0
LINE
  5
2D5B
  8
0
  6
VERDECKT
 62
     1
 10
-42.8999999999999773
 20
4024.0
 30
-0.0000000000008935
 11
42.8999999999999986
 21
4024.0
 31
-0.0000000000008935
210
0.0
220
1.0
230
-0.0000000000000002
  0
LINE
  5
2D5C
  8
0
  6
VERDECKT
 62
     1
 10
42.8999999999999986
 20
4038.0000000000009095
 30
-0.0000000000008966
 11
42.8999999999999986
 21
4024.0
 31
-0.0000000000008935
210
0.0
220
1.0
230
-0.0000000000000002
  0
LINE
  5
2D5D
  8
0
  6
VERDECKT
 62
     1
 10
-42.8999999999999773
 20
4038.0000000000009095
 30
-0.0000000000008966
 11
-42.8999999999999773
 21
4024.0
 31
-0.0000000000008935
210
0.0
220
1.0
230
-0.0000000000000002
  0
LINE
  5
2D5E
  8
0
  6
VERDECKT
 62
     1
 10
29.3953925994696696
 20
4038.0000000000009095
 30
-0.0000000000008966
 11
30.0703655260863805
 21
4036.2886145562260936
 31
-0.0000000000008962
210
0.0
220
1.0
230
-0.0000000000000002
  0
LINE
  5
2D5F
  8
0
  6
VERDECKT
 62
     1
 10
-29.3953925994696412
 20
4038.0000000000009095
 30
-0.0000000000008966
 11
-30.0703655260863485
 21
4036.2886145562260936
 31
-0.0000000000008962
210
0.0
220
1.0
230
-0.0000000000000002
  0
ARC
  5
2D60
  8
0
  6
VERDECKT
 62
     1
 10
11.0000000000023395
 20
4028.7672344500588224
 30
0.0
 40
20.4999999999976517
210
0.0
220
-0.0000000000000002
230
-1.0
 50
359.9999999999988063
 51
21.5243488256504989
  0
ARC
  5
2D61
  8
0
  6
VERDECKT
 62
     1
 10
-11.0000000000024603
 20
4028.7672344500588224
 30
0.0
 40
20.4999999999975593
210
0.0
220
-0.0000000000000002
230
-1.0
 50
158.4756511743493945
 51
180.0000000000011937
  0
LINE
  5
2D62
  8
0
  6
VERDECKT
 62
     1
 10
31.5000000000000213
 20
4028.7672344500579129
 30
-0.0000000000008946
 11
31.5000000000000213
 21
4028.2020357021019663
 31
-0.0000000000008944
210
0.0
220
1.0
230
-0.0000000000000002
  0
LINE
  5
2D63
  8
0
  6
VERDECKT
 62
     1
 10
-31.4999999999999893
 20
4028.7672344500588224
 30
-0.0000000000008946
 11
-31.4999999999999893
 21
4028.2020357021019663
 31
-0.0000000000008944
210
0.0
220
1.0
230
-0.0000000000000002
  0
ARC
  5
2D64
  8
0
  6
VERDECKT
 62
     1
 10
6.5000000000079474
 20
4028.1619999999998072
 30
0.0
 40
25.0000320571203503
210
0.0
220
-0.0000000000000002
230
-1.0
 50
350.4167909288431133
 51
0.0917549919734887
  0
ARC
  5
2D65
  8
0
  6
VERDECKT
 62
     1
 10
-6.5000000000074847
 20
4028.1619999999998072
 30
0.0
 40
25.0000320571208299
210
0.0
220
-0.0000000000000002
230
-1.0
 50
179.9082450080265119
 51
189.5832090711566877
  0
LINE
  5
2D66
  8
0
  6
VERDECKT
 62
     1
 10
24.5682646352327083
 20
0.1307336141217093
 30
0.0
 11
-24.5682646352331702
 21
0.1307336141217093
 31
0.0
210
0.0
220
1.0
230
-0.0000000000000002
  0
LINE
  5
2D67
  8
0
  6
VERDECKT
 62
     1
 10
-28.0
 20
4037.4496551141828604
 30
-0.0000000000008965
 11
28.0
 21
4037.4496551141828604
 31
-0.0000000000008965
210
0.0
220
1.0
230
-0.0000000000000002
  0
LINE
  5
2D68
  8
0
  6
VERDECKT
 62
     1
 10
-26.5000000000002309
 20
27.9999999999999503
 30
-0.0000000000000062
 11
-26.5000000000002309
 21
3994.8726731603442204
 31
-0.000000000000887
210
0.0
220
1.0
230
-0.0000000000000002
  0
LINE
  5
2D69
  8
0
  6
VERDECKT
 62
     1
 10
26.4999999999997691
 20
27.9999999999999503
 30
-0.0000000000000062
 11
26.4999999999997691
 21
3994.8726731603442204
 31
-0.000000000000887
210
0.0
220
1.0
230
-0.0000000000000002
  0
ARC
  5
2D6A
  8
0
  6
VERDECKT
 62
     1
 10
-24.0000000000011013
 20
5.1091523572708359
 30
0.0
 40
0.9999999999986783
210
0.0
220
-0.0000000000000002
230
-1.0
 50
179.999999999997101
 51
185.0000000000034106
  0
ARC
  5
2D6B
  8
0
  6
VERDECKT
 62
     1
 10
24.000000000001549
 20
5.1091523572708359
 30
0.0
 40
0.9999999999986783
210
0.0
220
-0.0000000000000002
230
-1.0
 50
354.9999999999964757
 51
0.0000000000029007
  0
LINE
  5
2D6C
  8
0
  6
VERDECKT
 62
     1
 10
-25.0000000000002309
 20
5.1091523572708866
 30
-0.0000000000000011
 11
-25.0000000000002309
 21
3994.8726731603442204
 31
-0.000000000000887
210
0.0
220
1.0
230
-0.0000000000000002
  0
LINE
  5
2D6D
  8
0
  6
VERDECKT
 62
     1
 10
24.9999999999997691
 20
5.1091523572708866
 30
-0.0000000000000011
 11
24.9999999999997691
 21
3994.8726731603442204
 31
-0.000000000000887
210
0.0
220
1.0
230
-0.0000000000000002
  0
LINE
  5
2D6E
  8
0
  6
VERDECKT
 62
     1
 10
-24.5682646352332092
 20
0.1307336141217057
 30
0.0
 11
-24.9961946980919905
 21
5.021996614523232
 31
-0.0000000000000011
210
0.0
220
1.0
230
-0.0000000000000002
  0
LINE
  5
2D6F
  8
0
  6
VERDECKT
 62
     1
 10
24.5682646352327509
 20
0.1307336141217057
 30
0.0
 11
24.9961946980915286
 21
5.021996614523232
 31
-0.0000000000000011
210
0.0
220
1.0
230
-0.0000000000000002
  0
LINE
  5
2D70
  8
0
  6
VERDECKT
 62
     1
 10
24.5682646352327012
 20
0.1307336141215823
 30
0.0
 11
26.0625566823703316
 21
0.0000000000001269
 31
0.0
210
0.0
220
1.0
230
-0.0000000000000002
  0
LINE
  5
2D71
  8
0
  6
VERDECKT
 62
     1
 10
-24.5682646352331489
 20
0.1307336141215823
 30
0.0
 11
-26.0625566823707793
 21
0.0000000000001269
 31
0.0
210
0.0
220
1.0
230
-0.0000000000000002
  0
LINE
  5
2D72
  8
0
  6
VERDECKT
 62
     1
 10
27.9999999999999609
 20
4037.4496551141828604
 30
-0.0000000000008965
 11
28.6749729266166895
 21
4035.738269670408954
 31
-0.0000000000008961
210
0.0
220
1.0
230
-0.0000000000000002
  0
LINE
  5
2D73
  8
0
  6
VERDECKT
 62
     1
 10
-27.9999999999999609
 20
4037.4496551141828604
 30
-0.0000000000008965
 11
-28.6749729266166895
 21
4035.738269670408954
 31
-0.0000000000008961
210
0.0
220
1.0
230
-0.0000000000000002
  0
ARC
  5
2D74
  8
0
  6
VERDECKT
 62
     1
 10
10.9999999999946798
 20
4028.7672344500570034
 30
0.0
 40
19.0000000000053113
210
0.0
220
-0.0000000000000002
230
-1.0
 50
0.000000000002748
 51
21.5243488256459514
  0
ARC
  5
2D75
  8
0
  6
VERDECKT
 62
     1
 10
-10.9999999999945803
 20
4028.7672344500570034
 30
0.0
 40
19.0000000000054214
210
0.0
220
-0.0000000000000002
230
-1.0
 50
158.4756511743541978
 51
179.9999999999971863
  0
LINE
  5
2D76
  8
0
  6
VERDECKT
 62
     1
 10
30.0
 20
4028.7672344500579129
 30
-0.0000000000008946
 11
30.0
 21
4028.2008160540340214
 31
-0.0000000000008944
210
0.0
220
1.0
230
-0.0000000000000002
  0
LINE
  5
2D77
  8
0
  6
VERDECKT
 62
     1
 10
-30.0
 20
4028.7672344500588224
 30
-0.0000000000008946
 11
-30.0
 21
4028.2008160540340214
 31
-0.0000000000008944
210
0.0
220
1.0
230
-0.0000000000000002
  0
ARC
  5
2D78
  8
0
  6
VERDECKT
 62
     1
 10
6.5000000000013456
 20
4028.1619999999998072
 30
0.0
 40
23.5000320571266705
210
0.0
220
-0.0000000000000002
230
-1.0
 50
340.5369005553109218
 51
0.0946380447207366
  0
ARC
  5
2D79
  8
0
  6
VERDECKT
 62
     1
 10
-6.4999999999974634
 20
4028.1620000000011714
 30
0.0
 40
23.5000320571306887
210
0.0
220
-0.0000000000000002
230
-1.0
 50
179.9053619552825865
 51
199.4630994446879981
  0
ARC
  5
2D7A
  8
0
  6
VERDECKT
 62
     1
 10
39.5000000000027427
 20
4016.5000000000009095
 30
0.0
 40
11.5000000000026592
210
0.0
220
-0.0000000000000002
230
-1.0
 50
160.5369005553147872
 51
180.0
  0
ARC
  5
2D7B
  8
0
  6
VERDECKT
 62
     1
 10
-39.5000000000026219
 20
4016.5000000000009095
 30
0.0
 40
11.5000000000026095
210
0.0
220
-0.0000000000000002
230
-1.0
 50
0.0
 51
19.4630994446854118
  0
LINE
  5
2D7C
  8
0
  6
VERDECKT
 62
     1
 10
28.0
 20
4016.5000000000009095
 30
-0.0000000000008918
 11
28.0
 21
4005.4083269131970155
 31
-0.0000000000008894
210
0.0
220
1.0
230
-0.0000000000000002
  0
LINE
  5
2D7D
  8
0
  6
VERDECKT
 62
     1
 10
-28.0
 20
4016.5000000000009095
 30
-0.0000000000008918
 11
-28.0
 21
4005.4083269131970155
 31
-0.0000000000008894
210
0.0
220
1.0
230
-0.0000000000000002
  0
ARC
  5
2D7E
  8
0
  6
VERDECKT
 62
     1
 10
17.5000000000025402
 20
4005.408326913196106
 30
0.0
 40
10.4999999999973994
210
0.0
220
-0.0000000000000002
230
-1.0
 50
328.2116693829472069
 51
0.0000000000074425
  0
ARC
  5
2D7F
  8
0
  6
VERDECKT
 62
     1
 10
-17.5000000000020393
 20
4005.408326913196106
 30
0.0
 40
10.4999999999979803
210
0.0
220
-0.0000000000000002
230
-1.0
 50
179.9999999999926104
 51
211.7883306170485014
  0
ARC
  5
2D80
  8
0
  6
VERDECKT
 62
     1
 10
34.5000000000014069
 20
3994.8726731603442204
 30
0.0
 40
9.5000000000013252
210
0.0
220
-0.0000000000000002
230
-1.0
 50
148.2116693829476901
 51
179.9999999999917009
  0
ARC
  5
2D81
  8
0
  6
VERDECKT
 62
     1
 10
-34.500000000001819
 20
3994.8726731603428561
 30
0.0
 40
9.5000000000018172
210
0.0
220
-0.0000000000000002
230
-1.0
 50
0.0
 51
31.7883306170482101
  0
ARC
  5
2D82
  8
0
  6
VERDECKT
 62
     1
 10
34.5000000000008527
 20
3994.8726731603442204
 30
0.0
 40
8.0000000000007159
210
0.0
220
-0.0000000000000002
230
-1.0
 50
148.2116693829505891
 51
180.0000000000032117
  0
ARC
  5
2D83
  8
0
  6
VERDECKT
 62
     1
 10
-34.5000000000015632
 20
3994.8726731603442204
 30
0.0
 40
8.0000000000015277
210
0.0
220
-0.0000000000000002
230
-1.0
 50
0.0000000000032569
 51
31.788330617049521
  0
ARC
  5
2D84
  8
0
  6
VERDECKT
 62
     1
 10
17.5000000000021387
 20
4005.4083269131970155
 30
0.0
 40
11.9999999999978098
210
0.0
220
-0.0000000000000002
230
-1.0
 50
328.2116693829473206
 51
0.0000000000043624
  0
ARC
  5
2D85
  8
0
  6
VERDECKT
 62
     1
 10
-17.5000000000021494
 20
4005.4083269131970155
 30
0.0
 40
11.9999999999978506
210
0.0
220
-0.0000000000000002
230
-1.0
 50
179.9999999999955946
 51
211.7883306170527078
  0
LINE
  5
2D86
  8
0
  6
VERDECKT
 62
     1
 10
29.5
 20
4016.5000000000009095
 30
-0.0000000000008918
 11
29.5
 21
4005.4083269131970155
 31
-0.0000000000008894
210
0.0
220
1.0
230
-0.0000000000000002
  0
LINE
  5
2D87
  8
0
  6
VERDECKT
 62
     1
 10
-29.5
 20
4016.5000000000009095
 30
-0.0000000000008918
 11
-29.5
 21
4005.4083269131970155
 31
-0.0000000000008894
210
0.0
220
1.0
230
-0.0000000000000002
  0
ARC
  5
2D88
  8
0
  6
VERDECKT
 62
     1
 10
39.4999999999946283
 20
4016.500000000001819
 30
0.0
 40
9.9999999999946301
210
0.0
220
-0.0000000000000002
230
-1.0
 50
160.5369005553068007
 51
180.0000000000050875
  0
ARC
  5
2D89
  8
0
  6
VERDECKT
 62
     1
 10
-39.4999999999946283
 20
4016.500000000001819
 30
0.0
 40
9.9999999999946425
210
0.0
220
-0.0000000000000002
230
-1.0
 50
0.0
 51
19.4630994446984182
  0
ARC
  5
2D8A
  8
0
  6
VERDECKT
 62
     1
 10
6.500000000005933
 20
4028.1619999999998072
 30
0.0
 40
25.0000320571223007
210
0.0
220
-0.0000000000000002
230
-1.0
 50
340.536900555308705
 51
0.0917549919734747
  0
ARC
  5
2D8B
  8
0
  6
VERDECKT
 62
     1
 10
-6.5000000000097664
 20
4028.1619999999998072
 30
0.0
 40
25.0000320571185384
210
0.0
220
-0.0000000000000002
230
-1.0
 50
179.9082450080254034
 51
199.4630994446943077
  0
LINE
  5
2D8C
  8
0
  6
VERDECKT
 62
     1
 10
31.5
 20
4028.7672344500579129
 30
-0.0000000000008946
 11
31.5
 21
4028.2020357021019663
 31
-0.0000000000008944
210
0.0
220
1.0
230
-0.0000000000000002
  0
LINE
  5
2D8D
  8
0
  6
VERDECKT
 62
     1
 10
-31.5
 20
4028.7672344500588224
 30
-0.0000000000008946
 11
-31.5
 21
4028.2020357021019663
 31
-0.0000000000008944
210
0.0
220
1.0
230
-0.0000000000000002
  0
ARC
  5
2D8E
  8
0
  6
VERDECKT
 62
     1
 10
11.0000000000023501
 20
4028.7672344500588224
 30
0.0
 40
20.4999999999976517
210
0.0
220
-0.0000000000000002
230
-1.0
 50
359.9999999999988063
 51
21.5243488256504989
  0
ARC
  5
2D8F
  8
0
  6
VERDECKT
 62
     1
 10
-11.0000000000024496
 20
4028.7672344500588224
 30
0.0
 40
20.4999999999975593
210
0.0
220
-0.0000000000000002
230
-1.0
 50
158.4756511743493945
 51
180.0000000000011937
  0
LINE
  5
2D90
  8
0
  6
VERDECKT
 62
     1
 10
29.395392599469659
 20
4038.0000000000009095
 30
-0.0000000000008966
 11
30.0703655260863592
 21
4036.2886145562260936
 31
-0.0000000000008962
210
0.0
220
1.0
230
-0.0000000000000002
  0
LINE
  5
2D91
  8
0
  6
VERDECKT
 62
     1
 10
-29.395392599469659
 20
4038.0000000000009095
 30
-0.0000000000008966
 11
-30.0703655260863592
 21
4036.2886145562260936
 31
-0.0000000000008962
210
0.0
220
1.0
230
-0.0000000000000002
  0
LINE
  5
2D92
  8
0
  6
VERDECKT
 62
     1
 10
-28.0000000000000107
 20
4037.4496551141828604
 30
-0.0000000000008965
 11
-29.3953925994696803
 21
4038.0000000000009095
 31
-0.0000000000008966
210
0.0
220
1.0
230
-0.0000000000000002
  0
LINE
  5
2D93
  8
0
  6
VERDECKT
 62
     1
 10
28.0000000000000107
 20
4037.4496551141828604
 30
-0.0000000000008965
 11
29.3953925994696803
 21
4038.0000000000009095
 31
-0.0000000000008966
210
0.0
220
1.0
230
-0.0000000000000002
  0
LINE
  5
2D94
  8
0
  6
VERDECKT
 62
     1
 10
-34.0897711875515981
 20
2728.0000000000009095
 30
-0.0000000000006057
 11
-37.3844558725943514
 21
2728.0000000000009095
 31
-0.0000000000006057
210
0.0
220
1.0
230
-0.0000000000000002
  0
LINE
  5
2D95
  8
0
  6
VERDECKT
 62
     1
 10
-37.3844558725943372
 20
2738.0000000000009095
 30
-0.000000000000608
 11
-34.089771187551591
 21
2738.0000000000009095
 31
-0.000000000000608
210
0.0
220
1.0
230
-0.0000000000000002
  0
LINE
  5
2D96
  8
0
  6
VERDECKT
 62
     1
 10
-34.0897711875515199
 20
2728.0000000000009095
 30
-0.0000000000006057
 11
-10.7680081900198807
 21
2728.0000000000009095
 31
-0.0000000000006057
210
0.0
220
1.0
230
-0.0000000000000002
  0
LINE
  5
2D97
  8
0
  6
VERDECKT
 62
     1
 10
-10.7680081900198807
 20
2738.0000000000009095
 30
-0.000000000000608
 11
-34.0897711875515483
 21
2738.0000000000009095
 31
-0.000000000000608
210
0.0
220
1.0
230
-0.0000000000000002
  0
LINE
  5
2D98
  8
0
  6
VERDECKT
 62
     1
 10
-10.7680081900194793
 20
2728.0000000000009095
 30
-0.0000000000006057
 11
-7.0878548505690961
 21
2728.0000000000009095
 31
-0.0000000000006057
210
0.0
220
1.0
230
-0.0000000000000002
  0
LINE
  5
2D99
  8
0
  6
VERDECKT
 62
     1
 10
-7.0878548505691006
 20
2738.0000000000009095
 30
-0.000000000000608
 11
-10.7680081900194899
 21
2738.0000000000009095
 31
-0.000000000000608
210
0.0
220
1.0
230
-0.0000000000000002
  0
LINE
  5
2D9A
  8
0
  6
VERDECKT
 62
     1
 10
-37.3844558725955523
 20
2728.0000000000009095
 30
-0.0000000000006057
 11
-41.9999999999998792
 21
2728.0000000000009095
 31
-0.0000000000006057
210
0.0
220
1.0
230
-0.0000000000000002
  0
LINE
  5
2D9B
  8
0
  6
VERDECKT
 62
     1
 10
-41.9999999999998721
 20
2738.0000000000009095
 30
-0.000000000000608
 11
-37.384455872595538
 21
2738.0000000000009095
 31
-0.000000000000608
210
0.0
220
1.0
230
-0.0000000000000002
  0
LINE
  5
2D9C
  8
0
  6
VERDECKT
 62
     1
 10
10.7680081900207298
 20
2728.0000000000009095
 30
-0.0000000000006057
 11
7.0878548505703458
 21
2728.0000000000009095
 31
-0.0000000000006057
210
0.0
220
1.0
230
-0.0000000000000002
  0
LINE
  5
2D9D
  8
0
  6
VERDECKT
 62
     1
 10
7.087854850570352
 20
2738.0000000000009095
 30
-0.000000000000608
 11
10.7680081900207405
 21
2738.0000000000009095
 31
-0.000000000000608
210
0.0
220
1.0
230
-0.0000000000000002
  0
LINE
  5
2D9E
  8
0
  6
VERDECKT
 62
     1
 10
-7.0878548505704977
 20
2728.0000000000009095
 30
-0.0000000000006057
 11
7.0878548505703511
 21
2728.0000000000009095
 31
-0.0000000000006057
210
0.0
220
1.0
230
-0.0000000000000002
  0
LINE
  5
2D9F
  8
0
  6
VERDECKT
 62
     1
 10
-7.0878548505690686
 20
2738.0000000000009095
 30
-0.000000000000608
 11
7.0878548505717163
 21
2738.0000000000009095
 31
-0.000000000000608
210
0.0
220
1.0
230
-0.0000000000000002
  0
LINE
  5
2DA0
  8
0
  6
VERDECKT
 62
     1
 10
10.7680081900208595
 20
2728.0000000000009095
 30
-0.0000000000006057
 11
34.0897711875530334
 21
2728.0000000000009095
 31
-0.0000000000006057
210
0.0
220
1.0
230
-0.0000000000000002
  0
LINE
  5
2DA1
  8
0
  6
VERDECKT
 62
     1
 10
34.0897711875529907
 20
2738.0000000000009095
 30
-0.000000000000608
 11
10.7680081900208506
 21
2738.0000000000009095
 31
-0.000000000000608
210
0.0
220
1.0
230
-0.0000000000000002
  0
LINE
  5
2DA2
  8
0
  6
VERDECKT
 62
     1
 10
34.0897711875528628
 20
2728.0000000000009095
 30
-0.0000000000006057
 11
37.384455872595602
 21
2728.0000000000009095
 31
-0.0000000000006057
210
0.0
220
1.0
230
-0.0000000000000002
  0
LINE
  5
2DA3
  8
0
  6
VERDECKT
 62
     1
 10
37.384455872595602
 20
2738.0000000000009095
 30
-0.000000000000608
 11
34.0897711875528415
 21
2738.0000000000009095
 31
-0.000000000000608
210
0.0
220
1.0
230
-0.0000000000000002
  0
LINE
  5
2DA4
  8
0
  6
VERDECKT
 62
     1
 10
42.0000000000011227
 20
2728.0000000000009095
 30
-0.0000000000006057
 11
37.384455872595602
 21
2728.0000000000009095
 31
-0.0000000000006057
210
0.0
220
1.0
230
-0.0000000000000002
  0
LINE
  5
2DA5
  8
0
  6
VERDECKT
 62
     1
 10
37.384455872595602
 20
2738.0000000000009095
 30
-0.000000000000608
 11
42.0000000000011298
 21
2738.0000000000009095
 31
-0.000000000000608
210
0.0
220
1.0
230
-0.0000000000000002
  0
LINE
  5
2DA6
  8
0
  6
VERDECKT
 62
     1
 10
-31.3585766423354606
 20
2728.0000000000009095
 30
-0.0000000000006057
 11
-31.3585766423354606
 21
2738.0000000000009095
 31
-0.000000000000608
210
0.0
220
1.0
230
-0.0000000000000002
  0
LINE
  5
2DA7
  8
0
  6
VERDECKT
 62
     1
 10
-29.4999999999999005
 20
2738.0000000000009095
 30
-0.000000000000608
 11
-29.4999999999999005
 21
2728.0000000000009095
 31
-0.0000000000006057
210
0.0
220
1.0
230
-0.0000000000000002
  0
LINE
  5
2DA8
  8
0
  6
VERDECKT
 62
     1
 10
-38.9999999999994174
 20
2738.0000000000009095
 30
-0.000000000000608
 11
-38.9999999999994174
 21
2728.0000000000009095
 31
-0.0000000000006057
210
0.0
220
1.0
230
-0.0000000000000002
  0
LINE
  5
2DA9
  8
0
  6
VERDECKT
 62
     1
 10
-26.4999999999998899
 20
2738.0000000000009095
 30
-0.000000000000608
 11
-26.4999999999998899
 21
2728.0000000000009095
 31
-0.0000000000006057
210
0.0
220
1.0
230
-0.0000000000000002
  0
LINE
  5
2DAA
  8
0
  6
VERDECKT
 62
     1
 10
-41.9999999999999005
 20
2738.0000000000009095
 30
-0.000000000000608
 11
-41.9999999999999005
 21
2728.0000000000009095
 31
-0.0000000000006057
210
0.0
220
1.0
230
-0.0000000000000002
  0
LINE
  5
2DAB
  8
0
  6
VERDECKT
 62
     1
 10
-4.7499999999996474
 20
2728.0000000000009095
 30
-0.0000000000006057
 11
-4.7499999999996474
 21
2738.0000000000009095
 31
-0.000000000000608
210
0.0
220
1.0
230
-0.0000000000000002
  0
LINE
  5
2DAC
  8
0
  6
VERDECKT
 62
     1
 10
4.7499999999998739
 20
2728.0000000000009095
 30
-0.0000000000006057
 11
4.7499999999998739
 21
2738.0000000000009095
 31
-0.000000000000608
210
0.0
220
1.0
230
-0.0000000000000002
  0
LINE
  5
2DAD
  8
0
  6
VERDECKT
 62
     1
 10
39.0000000000006679
 20
2738.0000000000009095
 30
-0.000000000000608
 11
39.0000000000006679
 21
2728.0000000000009095
 31
-0.0000000000006057
210
0.0
220
1.0
230
-0.0000000000000002
  0
LINE
  5
2DAE
  8
0
  6
VERDECKT
 62
     1
 10
29.5000000000011511
 20
2738.0000000000009095
 30
-0.000000000000608
 11
29.5000000000011511
 21
2728.0000000000009095
 31
-0.0000000000006057
210
0.0
220
1.0
230
-0.0000000000000002
  0
LINE
  5
2DAF
  8
0
  6
VERDECKT
 62
     1
 10
26.5000000000011404
 20
2738.0000000000009095
 30
-0.000000000000608
 11
26.5000000000011404
 21
2728.0000000000009095
 31
-0.0000000000006057
210
0.0
220
1.0
230
-0.0000000000000002
  0
LINE
  5
2DB0
  8
0
  6
VERDECKT
 62
     1
 10
31.3585766423367112
 20
2738.0000000000009095
 30
-0.000000000000608
 11
31.3585766423367112
 21
2728.0000000000009095
 31
-0.0000000000006057
210
0.0
220
1.0
230
-0.0000000000000002
  0
LINE
  5
2DB1
  8
0
  6
VERDECKT
 62
     1
 10
42.0000000000011511
 20
2738.0000000000009095
 30
-0.000000000000608
 11
42.0000000000011511
 21
2728.0000000000009095
 31
-0.0000000000006057
210
0.0
220
1.0
230
-0.0000000000000002
  0
LINE
  5
2DB2
  8
0
  6
VERDECKT
 62
     1
 10
-34.0897711875522305
 20
1330.0
 30
-0.0000000000002953
 11
-37.3844558725949767
 21
1330.0
 31
-0.0000000000002953
210
0.0
220
1.0
230
-0.0000000000000002
  0
LINE
  5
2DB3
  8
0
  6
VERDECKT
 62
     1
 10
-37.3844558725949696
 20
1340.0
 30
-0.0000000000002975
 11
-34.0897711875522234
 21
1340.0
 31
-0.0000000000002975
210
0.0
220
1.0
230
-0.0000000000000002
  0
LINE
  5
2DB4
  8
0
  6
VERDECKT
 62
     1
 10
-34.0897711875521523
 20
1330.0
 30
-0.0000000000002953
 11
-10.7680081900205096
 21
1330.0
 31
-0.0000000000002953
210
0.0
220
1.0
230
-0.0000000000000002
  0
LINE
  5
2DB5
  8
0
  6
VERDECKT
 62
     1
 10
-10.7680081900205096
 20
1340.0
 30
-0.0000000000002975
 11
-34.0897711875521665
 21
1340.0
 31
-0.0000000000002975
210
0.0
220
1.0
230
-0.0000000000000002
  0
LINE
  5
2DB6
  8
0
  6
VERDECKT
 62
     1
 10
-10.7680081900201099
 20
1330.0
 30
-0.0000000000002953
 11
-7.0878548505697214
 21
1330.0
 31
-0.0000000000002953
210
0.0
220
1.0
230
-0.0000000000000002
  0
LINE
  5
2DB7
  8
0
  6
VERDECKT
 62
     1
 10
-7.0878548505697259
 20
1340.0
 30
-0.0000000000002975
 11
-10.7680081900201099
 21
1340.0
 31
-0.0000000000002975
210
0.0
220
1.0
230
-0.0000000000000002
  0
LINE
  5
2DB8
  8
0
  6
VERDECKT
 62
     1
 10
-37.3844558725961704
 20
1330.0
 30
-0.0000000000002953
 11
-42.0000000000005116
 21
1330.0
 31
-0.0000000000002953
210
0.0
220
1.0
230
-0.0000000000000002
  0
LINE
  5
2DB9
  8
0
  6
VERDECKT
 62
     1
 10
-42.0000000000004903
 20
1340.0
 30
-0.0000000000002975
 11
-37.3844558725961633
 21
1340.0
 31
-0.0000000000002975
210
0.0
220
1.0
230
-0.0000000000000002
  0
LINE
  5
2DBA
  8
0
  6
VERDECKT
 62
     1
 10
10.7680081900201099
 20
1330.0
 30
-0.0000000000002953
 11
7.0878548505697214
 21
1330.0
 31
-0.0000000000002953
210
0.0
220
1.0
230
-0.0000000000000002
  0
LINE
  5
2DBB
  8
0
  6
VERDECKT
 62
     1
 10
7.0878548505697259
 20
1340.0
 30
-0.0000000000002975
 11
10.7680081900201099
 21
1340.0
 31
-0.0000000000002975
210
0.0
220
1.0
230
-0.0000000000000002
  0
LINE
  5
2DBC
  8
0
  6
VERDECKT
 62
     1
 10
-7.087854850571123
 20
1330.0
 30
-0.0000000000002953
 11
7.087854850569725
 21
1330.0
 31
-0.0000000000002953
210
0.0
220
1.0
230
-0.0000000000000002
  0
LINE
  5
2DBD
  8
0
  6
VERDECKT
 62
     1
 10
-7.0878548505696939
 20
1340.0
 30
-0.0000000000002975
 11
7.0878548505710901
 21
1340.0
 31
-0.0000000000002975
210
0.0
220
1.0
230
-0.0000000000000002
  0
LINE
  5
2DBE
  8
0
  6
VERDECKT
 62
     1
 10
10.7680081900202307
 20
1330.0
 30
-0.0000000000002953
 11
34.089771187552401
 21
1330.0
 31
-0.0000000000002953
210
0.0
220
1.0
230
-0.0000000000000002
  0
LINE
  5
2DBF
  8
0
  6
VERDECKT
 62
     1
 10
34.0897711875523726
 20
1340.0
 30
-0.0000000000002975
 11
10.76800819002022
 21
1340.0
 31
-0.0000000000002975
210
0.0
220
1.0
230
-0.0000000000000002
  0
LINE
  5
2DC0
  8
0
  6
VERDECKT
 62
     1
 10
34.0897711875522305
 20
1330.0
 30
-0.0000000000002953
 11
37.3844558725949767
 21
1330.0
 31
-0.0000000000002953
210
0.0
220
1.0
230
-0.0000000000000002
  0
LINE
  5
2DC1
  8
0
  6
VERDECKT
 62
     1
 10
37.3844558725949696
 20
1340.0
 30
-0.0000000000002975
 11
34.0897711875522234
 21
1340.0
 31
-0.0000000000002975
210
0.0
220
1.0
230
-0.0000000000000002
  0
LINE
  5
2DC2
  8
0
  6
VERDECKT
 62
     1
 10
42.0000000000004974
 20
1330.0
 30
-0.0000000000002953
 11
37.3844558725949696
 21
1330.0
 31
-0.0000000000002953
210
0.0
220
1.0
230
-0.0000000000000002
  0
LINE
  5
2DC3
  8
0
  6
VERDECKT
 62
     1
 10
37.3844558725949696
 20
1340.0
 30
-0.0000000000002975
 11
42.0000000000005116
 21
1340.0
 31
-0.0000000000002975
210
0.0
220
1.0
230
-0.0000000000000002
  0
LINE
  5
2DC4
  8
0
  6
VERDECKT
 62
     1
 10
-31.3585766423360788
 20
1330.0
 30
-0.0000000000002953
 11
-31.3585766423360788
 21
1340.0
 31
-0.0000000000002975
210
0.0
220
1.0
230
-0.0000000000000002
  0
LINE
  5
2DC5
  8
0
  6
VERDECKT
 62
     1
 10
-29.5000000000005187
 20
1340.0
 30
-0.0000000000002975
 11
-29.5000000000005187
 21
1330.0
 31
-0.0000000000002953
210
0.0
220
1.0
230
-0.0000000000000002
  0
LINE
  5
2DC6
  8
0
  6
VERDECKT
 62
     1
 10
-39.0000000000000426
 20
1340.0
 30
-0.0000000000002975
 11
-39.0000000000000426
 21
1330.0
 31
-0.0000000000002953
210
0.0
220
1.0
230
-0.0000000000000002
  0
LINE
  5
2DC7
  8
0
  6
VERDECKT
 62
     1
 10
-26.5000000000005116
 20
1340.0
 30
-0.0000000000002975
 11
-26.5000000000005116
 21
1330.0
 31
-0.0000000000002953
210
0.0
220
1.0
230
-0.0000000000000002
  0
LINE
  5
2DC8
  8
0
  6
VERDECKT
 62
     1
 10
-42.0000000000005187
 20
1340.0
 30
-0.0000000000002975
 11
-42.0000000000005187
 21
1330.0
 31
-0.0000000000002953
210
0.0
220
1.0
230
-0.0000000000000002
  0
LINE
  5
2DC9
  8
0
  6
VERDECKT
 62
     1
 10
-4.7500000000002718
 20
1330.0
 30
-0.0000000000002953
 11
-4.7500000000002718
 21
1340.0
 31
-0.0000000000002975
210
0.0
220
1.0
230
-0.0000000000000002
  0
LINE
  5
2DCA
  8
0
  6
VERDECKT
 62
     1
 10
4.7499999999992486
 20
1330.0
 30
-0.0000000000002953
 11
4.7499999999992486
 21
1340.0
 31
-0.0000000000002975
210
0.0
220
1.0
230
-0.0000000000000002
  0
LINE
  5
2DCB
  8
0
  6
VERDECKT
 62
     1
 10
39.0000000000000426
 20
1340.0
 30
-0.0000000000002975
 11
39.0000000000000426
 21
1330.0
 31
-0.0000000000002953
210
0.0
220
1.0
230
-0.0000000000000002
  0
LINE
  5
2DCC
  8
0
  6
VERDECKT
 62
     1
 10
29.5000000000005187
 20
1340.0
 30
-0.0000000000002975
 11
29.5000000000005187
 21
1330.0
 31
-0.0000000000002953
210
0.0
220
1.0
230
-0.0000000000000002
  0
LINE
  5
2DCD
  8
0
  6
VERDECKT
 62
     1
 10
26.5000000000005116
 20
1340.0
 30
-0.0000000000002975
 11
26.5000000000005116
 21
1330.0
 31
-0.0000000000002953
210
0.0
220
1.0
230
-0.0000000000000002
  0
LINE
  5
2DCE
  8
0
  6
VERDECKT
 62
     1
 10
31.3585766423360788
 20
1340.0
 30
-0.0000000000002975
 11
31.3585766423360788
 21
1330.0
 31
-0.0000000000002953
210
0.0
220
1.0
230
-0.0000000000000002
  0
LINE
  5
2DCF
  8
0
  6
VERDECKT
 62
     1
 10
42.0000000000005187
 20
1340.0
 30
-0.0000000000002975
 11
42.0000000000005187
 21
1330.0
 31
-0.0000000000002953
210
0.0
220
1.0
230
-0.0000000000000002
  0
LINE
  5
2DD0
  8
0
  6
VERDECKT
 62
     1
 10
30.5000000000006786
 20
35.9999999999998934
 30
-0.000000000000008
 11
-30.4999999999993214
 21
35.9999999999998934
 31
-0.000000000000008
210
0.0
220
1.0
230
-0.0000000000000002
  0
LINE
  5
2DD1
  8
0
  6
VERDECKT
 62
     1
 10
42.341267688132568
 20
45.9999999999998934
 30
-0.0000000000000102
 11
-42.3412676881312109
 21
45.9999999999998934
 31
-0.0000000000000102
210
0.0
220
1.0
230
-0.0000000000000002
  0
LINE
  5
2DD2
  8
0
  6
VERDECKT
 62
     1
 10
30.5000000000006999
 20
35.9999999999999076
 30
-0.000000000000008
 11
33.9641016151383326
 21
29.9999999999999503
 31
-0.0000000000000067
210
0.0
220
1.0
230
-0.0000000000000002
  0
LINE
  5
2DD3
  8
0
  6
VERDECKT
 62
     1
 10
-30.4999999999993392
 20
35.9999999999999076
 30
-0.000000000000008
 11
-33.9641016151369612
 21
29.9999999999999503
 31
-0.0000000000000067
210
0.0
220
1.0
230
-0.0000000000000002
  0
LINE
  5
2DD4
  8
0
  6
VERDECKT
 62
     1
 10
-38.5000000000002274
 20
27.9999999999999503
 30
-0.0000000000000062
 11
-38.5000000000002274
 21
30.0000000000000213
 31
-0.0000000000000067
210
0.0
220
1.0
230
-0.0000000000000002
  0
LINE
  5
2DD5
  8
0
  6
VERDECKT
 62
     1
 10
38.5000000000015916
 20
27.9999999999999503
 30
-0.0000000000000062
 11
38.5000000000015916
 21
30.0000000000000213
 31
-0.0000000000000067
210
0.0
220
1.0
230
-0.0000000000000002
  0
LINE
  5
2DD6
  8
0
  6
VERDECKT
 62
     1
 10
42.341267688132568
 20
45.9999999999999005
 30
-0.0000000000000102
 11
42.9000000000005528
 21
29.9999999999999609
 31
-0.0000000000000067
210
0.0
220
1.0
230
-0.0000000000000002
  0
LINE
  5
2DD7
  8
0
  6
VERDECKT
 62
     1
 10
-42.3412676881312109
 20
45.9999999999998934
 30
-0.0000000000000102
 11
-42.8999999999991815
 21
29.9999999999999609
 31
-0.0000000000000067
210
0.0
220
1.0
230
-0.0000000000000002
  0
LINE
  5
2DD8
  8
0
  6
VERDECKT
 62
     1
 10
-26.4999999999993214
 20
35.9999999999998934
 30
-0.000000000000008
 11
-26.4999999999993214
 21
45.9999999999998934
 31
-0.0000000000000102
210
0.0
220
1.0
230
-0.0000000000000002
  0
LINE
  5
2DD9
  8
0
  6
VERDECKT
 62
     1
 10
26.5000000000006786
 20
35.9999999999998934
 30
-0.000000000000008
 11
26.5000000000006786
 21
45.9999999999998934
 31
-0.0000000000000102
210
0.0
220
1.0
230
-0.0000000000000002
  0
ENDBLK
  5
2DDB
  8
0
  0
ENDSEC
  0
SECTION
  2
ENTITIES
  0
TEXT
  5
8F
  8
VOLL
 10
78.076754716981128
 20
31.025947764705851
 30
0.0
 40
1.8
  1

  7
GREEKS
  0
INSERT
  5
F58
  8
ADSK_ASSOC_ENTITY_BACKUPS
  2
*S0
 10
0.0
 20
0.0
 30
0.0
  0
INSERT
  5
2CF7
  8
STEMPEL
  2
A$C37DDC2C6
 10
0.0
 20
-144.5
 30
0.0
  0
INSERT
  5
2DDC
  8
STEMPEL
  2
A$C6AE65214
 10
0.0
 20
0.0
 30
0.0
  0
VIEWPORT
  5
946
 67
     1
  8
0
 10
99.3664137416393345
 20
145.4717849328607997
 30
0.0
 40
552.2143024442159458
 41
295.5867181039590719
 68
     1
 69
     1
1001
ACAD
1000
MVIEW
1002
{
1070
    16
1010
0.0
1020
0.0
1030
0.0
1010
0.0
1020
0.0
1030
1.0
1040
0.0
1040
295.5867181039590719
1040
99.3664137416393345
1040
145.4717849328607997
1040
50.0
1040
0.0
1040
0.0
1070
     0
1070
  1500
1070
     1
1070
     1
1070
     0
1070
     0
1070
     0
1070
     0
1040
0.0
1040
0.0
1040
0.0
1040
10.0
1040
10.0
1040
10.0
1040
10.0
1070
     0
1002
{
1002
}
1002
}
  0
ENDSEC
  0
EOF
