  0
SECTION
  2
HEADER
  9
$ACADVER
  1
AC1009
  9
$INSBASE
 10
0.0
 20
0.0
 30
0.0
  9
$EXTMIN
 10
-75.0000001456373866
 20
-175.0000009446249862
 30
-0.0000000130385374
  9
$EXTMAX
 10
74.9999997458105554
 20
27.9999997734696606
 30
-0.0000000130385374
  9
$LIMMIN
 10
0.0
 20
0.0
  9
$LIMMAX
 10
594.0
 20
840.0
  9
$ORTHOMODE
 70
     1
  9
$REGENMODE
 70
     1
  9
$FILLMODE
 70
     1
  9
$QTEXTMODE
 70
     0
  9
$MIRRTEXT
 70
     1
  9
$DRAGMODE
 70
     2
  9
$LTSCALE
 40
10.0
  9
$OSMODE
 70
  1535
  9
$ATTMODE
 70
     1
  9
$TEXTSIZE
 40
3.5
  9
$TRACEWID
 40
1.0
  9
$TEXTSTYLE
  7
STANDARD
  9
$CLAYER
  8
STEMPEL
  9
$CELTYPE
  6
BYLAYER
  9
$CECOLOR
 62
   256
  9
$DIMSCALE
 40
1.0
  9
$DIMASZ
 40
3.5
  9
$DIMEXO
 40
1.0
  9
$DIMDLI
 40
0.38
  9
$DIMRND
 40
0.0
  9
$DIMDLE
 40
0.0
  9
$DIMEXE
 40
1.0
  9
$DIMTP
 40
0.0
  9
$DIMTM
 40
0.000000001
  9
$DIMTXT
 40
3.5
  9
$DIMCEN
 40
0.09
  9
$DIMTSZ
 40
0.0
  9
$DIMTOL
 70
     0
  9
$DIMLIM
 70
     0
  9
$DIMTIH
 70
     0
  9
$DIMTOH
 70
     0
  9
$DIMSE1
 70
     0
  9
$DIMSE2
 70
     0
  9
$DIMTAD
 70
     1
  9
$DIMZIN
 70
     8
  9
$DIMBLK
  1

  9
$DIMASO
 70
     1
  9
$DIMSHO
 70
     0
  9
$DIMPOST
  1

  9
$DIMAPOST
  1

  9
$DIMALT
 70
     0
  9
$DIMALTD
 70
     2
  9
$DIMALTF
 40
25.3999999999999986
  9
$DIMLFAC
 40
1.0
  9
$DIMTOFL
 70
     1
  9
$DIMTVP
 40
0.0
  9
$DIMTIX
 70
     0
  9
$DIMSOXD
 70
     0
  9
$DIMSAH
 70
     0
  9
$DIMBLK1
  1

  9
$DIMBLK2
  1

  9
$DIMSTYLE
  2
LORO
  9
$DIMCLRD
 70
     0
  9
$DIMCLRE
 70
     0
  9
$DIMCLRT
 70
     1
  9
$DIMTFAC
 40
0.5
  9
$DIMGAP
 40
1.5
  9
$LUNITS
 70
     2
  9
$LUPREC
 70
     2
  9
$SKETCHINC
 40
1.0
  9
$FILLETRAD
 40
0.5
  9
$AUNITS
 70
     0
  9
$AUPREC
 70
     0
  9
$MENU
  1
ACAD
  9
$ELEVATION
 40
0.0
  9
$PELEVATION
 40
0.0
  9
$THICKNESS
 40
0.0
  9
$LIMCHECK
 70
     0
  9
$BLIPMODE
 70
     0
  9
$CHAMFERA
 40
0.0
  9
$CHAMFERB
 40
0.0
  9
$SKPOLY
 70
     0
  9
$TDCREATE
 40
2455397.867048610933125
  9
$TDUPDATE
 40
2460811.578645832836628
  9
$TDINDWG
 40
1.8091845139
  9
$TDUSRTIMER
 40
1.8091845139
  9
$USRTIMER
 70
     1
  9
$ANGBASE
 50
0.0
  9
$ANGDIR
 70
     0
  9
$PDMODE
 70
     0
  9
$PDSIZE
 40
0.0
  9
$PLINEWID
 40
0.0
  9
$COORDS
 70
     1
  9
$SPLFRAME
 70
     0
  9
$SPLINETYPE
 70
     6
  9
$SPLINESEGS
 70
     8
  9
$ATTDIA
 70
     1
  9
$ATTREQ
 70
     1
  9
$HANDLING
 70
     1
  9
$HANDSEED
  5
13D6E
  9
$SURFTAB1
 70
     6
  9
$SURFTAB2
 70
     6
  9
$SURFTYPE
 70
     6
  9
$SURFU
 70
     6
  9
$SURFV
 70
     6
  9
$UCSNAME
  2

  9
$UCSORG
 10
0.0
 20
0.0
 30
0.0
  9
$UCSXDIR
 10
1.0
 20
0.0
 30
0.0
  9
$UCSYDIR
 10
0.0
 20
1.0
 30
0.0
  9
$PUCSNAME
  2

  9
$PUCSORG
 10
0.0
 20
0.0
 30
0.0
  9
$PUCSXDIR
 10
1.0
 20
0.0
 30
0.0
  9
$PUCSYDIR
 10
0.0
 20
1.0
 30
0.0
  9
$USERI1
 70
     0
  9
$USERI2
 70
     0
  9
$USERI3
 70
     0
  9
$USERI4
 70
     0
  9
$USERI5
 70
     0
  9
$USERR1
 40
0.0
  9
$USERR2
 40
0.0
  9
$USERR3
 40
0.0
  9
$USERR4
 40
0.0
  9
$USERR5
 40
0.0
  9
$WORLDVIEW
 70
     1
  9
$SHADEDGE
 70
     3
  9
$SHADEDIF
 70
    70
  9
$TILEMODE
 70
     1
  9
$MAXACTVP
 70
    16
  9
$PLIMCHECK
 70
     0
  9
$PEXTMIN
 10
1.0000000000000000E+20
 20
1.0000000000000000E+20
 30
1.0000000000000000E+20
  9
$PEXTMAX
 10
-1.0000000000000000E+20
 20
-1.0000000000000000E+20
 30
-1.0000000000000000E+20
  9
$PLIMMIN
 10
-0.2180009505008514
 20
-0.2293521144775355
  9
$PLIMMAX
 10
296.7819990494991771
 20
419.7706478855225214
  9
$UNITMODE
 70
     0
  9
$VISRETAIN
 70
     0
  9
$PLINEGEN
 70
     0
  9
$PSLTSCALE
 70
     0
  0
ENDSEC
  0
SECTION
  2
TABLES
  0
TABLE
  2
VPORT
 70
     1
  0
VPORT
  2
*ACTIVE
 70
     0
 10
0.0
 20
0.0
 11
1.0
 21
1.0
 12
-0.0000001999134156
 22
-73.500000585577709
 13
0.0
 23
0.0
 14
1.0
 24
1.0
 15
10.0
 25
10.0
 16
-0.000000000000123
 26
0.0
 36
553.7377432323363564
 17
-0.0000000000000071
 27
0.0
 37
13.9999999999999893
 40
204.0468272151165081
 41
1.8839208942390371
 42
50.0
 43
0.0
 44
0.0
 50
0.0
 51
0.0
 71
     0
 72
  1500
 73
     1
 74
     0
 75
     0
 76
     0
 77
     0
 78
     0
  0
ENDTAB
  0
TABLE
  2
LTYPE
 70
     3
  0
LTYPE
  2
CONTINUOUS
 70
     0
  3
Solid line
 72
    65
 73
     0
 40
0.0
  0
LTYPE
  2
STRICHPUNKT
 70
     0
  3
__ . __ . __ . __ . __ . __ . __ . __ . __ . __
 72
    65
 73
     4
 40
1.0
 49
0.5
 49
-0.25
 49
0.0
 49
-0.25
  0
LTYPE
  2
VERDECKT
 70
     0
  3
Verdeckt __ __ __ __ __ __ __ __ __ __ __ __ __
 72
    65
 73
     2
 40
0.375
 49
0.25
 49
-0.125
  0
ENDTAB
  0
TABLE
  2
LAYER
 70
     5
  0
LAYER
  2
0
 70
     0
 62
     7
  6
CONTINUOUS
  0
LAYER
  2
STEMPEL
 70
     0
 62
     3
  6
CONTINUOUS
  0
LAYER
  2
ADSK_ASSOC_ENTITY_BACKUPS
 70
     1
 62
    -7
  6
CONTINUOUS
  0
ENDTAB
  0
TABLE
  2
STYLE
 70
     1
  0
STYLE
  2
STANDARD
 70
     0
 40
0.0
 41
0.8
 50
0.0
 71
     0
 42
3.5
  3
simplex.shx
  4

  0
ENDTAB
  0
TABLE
  2
VIEW
 70
     2
  0
ENDTAB
  0
TABLE
  2
UCS
 70
     0
  0
ENDTAB
  0
TABLE
  2
APPID
 70
    31
  0
APPID
  2
ACAD
 70
     0
  0
APPID
  2
ACAECLAYERSTANDARD
 70
     0
  0
APPID
  2
ACCMTRANSPARENCY
 70
     0
  0
APPID
  2
ACAD_NAV_VCDISPLAY
 70
     0
  0
APPID
  2
ACAD_PSEXT
 70
     0
  0
APPID
  2
ACAD_STEPID
 70
     0
  0
APPID
  2
ACAD_EXEMPT_FROM_CAD_STANDARDS
 70
     0
  0
APPID
  2
ACSYNERGY
 70
     0
  0
APPID
  2
SYNERGY_BODY_TBR_ID
 70
     0
  0
APPID
  2
ACAD_VIEW_EDGE_ID
 70
     0
  0
APPID
  2
GRADIENTCOLOR1ACI
 70
     0
  0
APPID
  2
GRADIENTCOLOR2ACI
 70
     0
  0
APPID
  2
ACAD_DSTYLE_DIMRADIAL_EXTENSION
 70
     0
  0
APPID
  2
ACADANNOMONITORALERTICONDI
 70
     0
  0
APPID
  2
ACAD_MLEADERVER
 70
     0
  0
APPID
  2
ACSYNERGYSKETCH
 70
     0
  0
APPID
  2
ACAD_MODELDOC_XFORM
 70
     0
  0
APPID
  2
ACDBDYNAMICBLOCKGUID
 70
     0
  0
APPID
  2
ACAD_DSTYLE_DIMJAG
 70
     0
  0
APPID
  2
ACAD_DSTYLE_DIMBREAK
 70
     0
  0
APPID
  2
ACAD_DSTYLE_DIMTALN
 70
     0
  0
APPID
  2
ACADANNOPO
 70
     0
  0
APPID
  2
PLOTTRANSPARENCY
 70
     0
  0
APPID
  2
ACADANNOTATIVE
 70
     0
  0
APPID
  2
ACAD_DIMASSOC_CALC_DIMLFAC
 70
     0
  0
APPID
  2
ACAD_DIMASSOC_DIMLFAC
 70
     0
  0
APPID
  2
ACAD_DIMASSOC_OVERRIDDEN_D
 70
     0
  0
APPID
  2
ACADANNOAV
 70
     0
  0
APPID
  2
ACAUTHENVIRON
 70
     0
  0
APPID
  2
ACDBDYNAMICBLOCKTRUENAME
 70
     0
  0
APPID
  2
SYNERGY_EXCLUDED_FROM_SNAPSHOT
 70
     0
  0
ENDTAB
  0
TABLE
  2
DIMSTYLE
 70
     3
  0
DIMSTYLE
  2
LORO
 70
     0
  3

  4

  5

  6

  7

 40
1.0
 41
3.5
 42
1.0
 43
0.38
 44
1.0
 45
0.0
 46
0.0
 47
0.0
 48
0.000000001
140
3.5
141
0.09
142
0.0
143
25.3999999999999986
144
1.0
145
0.0
146
0.5
147
1.5
 71
     0
 72
     0
 73
     0
 74
     0
 75
     0
 76
     0
 77
     1
 78
     8
170
     0
171
     2
172
     1
173
     0
174
     0
175
     0
176
     0
177
     0
178
     1
  0
ENDTAB
  0
ENDSEC
  0
SECTION
  2
BLOCKS
  0
BLOCK
  8
0
  2
$MODEL_SPACE
 70
     0
 10
0.0
 20
0.0
 30
0.0
  3
$MODEL_SPACE
  1

  0
ENDBLK
  5
38
  8
0
  0
BLOCK
 67
     1
  8
0
  2
$PAPER_SPACE
 70
     0
 10
0.0
 20
0.0
 30
0.0
  3
$PAPER_SPACE
  1

  0
ENDBLK
  5
36
 67
     1
  8
0
  0
BLOCK
  8
0
  2
*S0
 70
     1
 10
0.0
 20
0.0
 30
0.0
  3
*S0
  1

  0
ENDBLK
  5
7128
  8
0
  0
BLOCK
  8
0
  2
A$CB93696EA
 70
     0
 10
0.0
 20
0.0
 30
0.0
  3
A$CB93696EA
  1

  0
LINE
  5
13CF7
  8
0
  6
CONTINUOUS
 62
     3
 10
-75.0
 20
0.000000000000023
 30
0.0
 11
75.0
 21
-0.000000000000023
 31
0.0
210
0.0
220
1.0
230
-0.0000000000000002
  0
LINE
  5
13CF8
  8
0
  6
CONTINUOUS
 62
     3
 10
-59.9999999999999929
 20
28.0000000000000391
 30
-0.0000000000000062
 11
60.0
 21
27.9999999999999893
 31
-0.0000000000000062
210
0.0
220
1.0
230
-0.0000000000000002
  0
LINE
  5
13CF9
  8
0
  6
CONTINUOUS
 62
     3
 10
60.0
 20
28.0
 30
-0.0000000000000062
 11
60.0
 21
23.9999999999999893
 31
-0.0000000000000053
210
0.0
220
1.0
230
-0.0000000000000002
  0
LINE
  5
13CFA
  8
0
  6
CONTINUOUS
 62
     3
 10
-59.9999999999999929
 20
28.0000000000000284
 30
-0.0000000000000062
 11
-59.9999999999999929
 21
24.0000000000000391
 31
-0.0000000000000053
210
0.0
220
1.0
230
-0.0000000000000002
  0
ARC
  5
13CFB
  8
0
  6
CONTINUOUS
 62
     3
 10
62.9999999999999716
 20
24.0000000000000284
 30
0.0
 40
2.999999999999992
210
0.0
220
-0.0000000000000002
230
-1.0
 50
179.999999999999801
 51
247.0014524894133103
  0
ARC
  5
13CFC
  8
0
  6
CONTINUOUS
 62
     3
 10
-62.9999999999999716
 20
23.9999999999999787
 30
0.0
 40
2.9999999999999769
210
0.0
220
-0.0000000000000002
230
-1.0
 50
292.9985475105866044
 51
0.0000000000002767
  0
LINE
  5
13CFD
  8
0
  6
CONTINUOUS
 62
     3
 10
61.8278766212984223
 20
21.2384557245806711
 30
-0.0000000000000047
 11
72.5628311716020846
 21
16.6820590338924113
 31
-0.0000000000000037
210
0.0
220
1.0
230
-0.0000000000000002
  0
LINE
  5
13CFE
  8
0
  6
CONTINUOUS
 62
     3
 10
-61.827876621298401
 20
21.2384557245807102
 30
-0.0000000000000047
 11
-72.5628311716020846
 21
16.682059033892461
 31
-0.0000000000000037
210
0.0
220
1.0
230
-0.0000000000000002
  0
ARC
  5
13CFF
  8
0
  6
CONTINUOUS
 62
     3
 10
70.9999999999999858
 20
13.0000000000000195
 30
0.0
 40
4.0000000000000142
210
0.0
220
-0.0000000000000002
230
-1.0
 50
0.0000000000001272
 51
67.0014524894130687
  0
ARC
  5
13D00
  8
0
  6
CONTINUOUS
 62
     3
 10
-70.9999999999999858
 20
12.9999999999999805
 30
0.0
 40
4.0000000000000098
210
0.0
220
-0.0000000000000002
230
-1.0
 50
112.9985475105869028
 51
180.0
  0
LINE
  5
13D01
  8
0
  6
CONTINUOUS
 62
     3
 10
75.0
 20
12.9999999999999805
 30
-0.0000000000000029
 11
75.0
 21
-0.0000000000000231
 31
0.0
210
0.0
220
1.0
230
-0.0000000000000002
  0
LINE
  5
13D02
  8
0
  6
CONTINUOUS
 62
     3
 10
-75.0
 20
13.0000000000000195
 30
-0.0000000000000029
 11
-75.0
 21
0.0000000000000231
 31
0.0
210
0.0
220
1.0
230
-0.0000000000000002
  0
LINE
  5
13D03
  8
0
  6
VERDECKT
 62
     1
 10
74.2000000000000028
 20
12.9999999999999805
 30
-0.0000000000000029
 11
74.2000000000000028
 21
-0.0000000000000231
 31
0.0
210
0.0
220
1.0
230
-0.0000000000000002
  0
LINE
  5
13D04
  8
0
  6
VERDECKT
 62
     1
 10
-74.2000000000000028
 20
13.0000000000000195
 30
-0.0000000000000029
 11
-74.2000000000000028
 21
0.0000000000000231
 31
0.0
210
0.0
220
1.0
230
-0.0000000000000002
  0
ARC
  5
13D05
  8
0
  6
VERDECKT
 62
     1
 10
71.0
 20
13.0000000000000195
 30
0.0
 40
3.200000000000002
210
0.0
220
-0.0000000000000002
230
-1.0
 50
0.0000000000000382
 51
67.0014524894131682
  0
ARC
  5
13D06
  8
0
  6
VERDECKT
 62
     1
 10
-71.0
 20
12.9999999999999805
 30
0.0
 40
3.2000000000000051
210
0.0
220
-0.0000000000000002
230
-1.0
 50
112.9985475105868034
 51
179.9999999999998863
  0
LINE
  5
13D07
  8
0
  6
VERDECKT
 62
     1
 10
61.5153103869780011
 20
20.5020439178021796
 30
-0.0000000000000046
 11
72.2502649372816705
 21
15.9456472271139198
 31
-0.0000000000000035
210
0.0
220
1.0
230
-0.0000000000000002
  0
LINE
  5
13D08
  8
0
  6
VERDECKT
 62
     1
 10
-61.5153103869779869
 20
20.5020439178022293
 30
-0.0000000000000046
 11
-72.2502649372816705
 21
15.9456472271139695
 31
-0.0000000000000035
210
0.0
220
1.0
230
-0.0000000000000002
  0
ARC
  5
13D09
  8
0
  6
VERDECKT
 62
     1
 10
63.0
 20
24.0000000000000497
 30
0.0
 40
3.8000000000000318
210
0.0
220
-0.0000000000000002
230
-1.0
 50
180.0000000000001137
 51
247.0014524894127987
  0
ARC
  5
13D0A
  8
0
  6
VERDECKT
 62
     1
 10
-62.9999999999999929
 20
24.0
 30
0.0
 40
3.8000000000000091
210
0.0
220
-0.0000000000000002
230
-1.0
 50
292.9985475105867749
 51
359.9999999999998863
  0
LINE
  5
13D0B
  8
0
  6
VERDECKT
 62
     1
 10
59.1999999999999886
 20
28.0
 30
-0.0000000000000062
 11
59.1999999999999886
 21
23.9999999999999893
 31
-0.0000000000000053
210
0.0
220
1.0
230
-0.0000000000000002
  0
LINE
  5
13D0C
  8
0
  6
VERDECKT
 62
     1
 10
-59.1999999999999815
 20
28.0000000000000284
 30
-0.0000000000000062
 11
-59.1999999999999815
 21
24.0000000000000391
 31
-0.0000000000000053
210
0.0
220
1.0
230
-0.0000000000000002
  0
ENDBLK
  5
13D0E
  8
0
  0
BLOCK
  8
0
  2
A$CA8738685
 70
     0
 10
0.0
 20
0.0
 30
0.0
  3
A$CA8738685
  1

  0
CIRCLE
  5
13D12
  8
0
  6
CONTINUOUS
 62
     3
 10
0.0000000000000148
 20
0.0
 30
0.0
 40
59.1999999999999886
  0
CIRCLE
  5
13D13
  8
0
  6
CONTINUOUS
 62
     3
 10
0.0000000000000148
 20
0.0
 30
0.0
 40
60.0
  0
CIRCLE
  5
13D14
  8
0
  6
CONTINUOUS
 62
     3
 10
0.0000000000000069
 20
0.0
 30
0.0
 40
75.0000000000000142
  0
CIRCLE
  5
13D15
  8
0
  6
VERDECKT
 62
     1
 10
0.0000000000000069
 20
0.0
 30
0.0
 40
74.1999999999999886
  0
ENDBLK
  5
13D17
  8
0
  0
ENDSEC
  0
SECTION
  2
ENTITIES
  0
INSERT
  5
712A
  8
ADSK_ASSOC_ENTITY_BACKUPS
  2
*S0
 10
0.0
 20
0.0
 30
0.0
  0
INSERT
  5
13D0F
  8
STEMPEL
  2
A$CB93696EA
 10
0.0
 20
0.0
 30
0.0
  0
INSERT
  5
13D18
  8
STEMPEL
  2
A$CA8738685
 10
0.0
 20
-100.0
 30
0.0
  0
VIEWPORT
  5
7108
 67
     1
  8
0
 10
148.2819990494992055
 20
209.770647885522493
 30
0.0
 40
795.3253672070990206
 41
422.1649484536084742
 68
     1
 69
     1
1001
ACAD
1000
MVIEW
1002
{
1070
    16
1010
0.0
1020
0.0
1030
0.0
1010
0.0
1020
0.0
1030
1.0
1040
0.0
1040
422.1649484536084742
1040
148.2819990494992055
1040
209.770647885522493
1040
50.0
1040
0.0
1040
0.0
1070
     0
1070
  1500
1070
     1
1070
     1
1070
     0
1070
     0
1070
     0
1070
     0
1040
0.0
1040
0.0
1040
0.0
1040
10.0
1040
10.0
1040
10.0
1040
10.0
1070
     0
1002
{
1002
}
1002
}
  0
ENDSEC
  0
EOF
