  0
SECTION
  2
HEADER
  9
$ACADVER
  1
AC1009
  9
$INSBASE
 10
0.0
 20
0.0
 30
0.0
  9
$EXTMIN
 10
-59.0000005916706414
 20
-159.0000008120223072
 30
-0.0000000107102167
  9
$EXTMAX
 10
58.9999998429282186
 20
22.9999991612210088
 30
-0.0000000107102167
  9
$LIMMIN
 10
0.0
 20
0.0
  9
$LIMMAX
 10
594.0
 20
840.0
  9
$ORTHOMODE
 70
     1
  9
$REGENMODE
 70
     1
  9
$FILLMODE
 70
     1
  9
$QTEXTMODE
 70
     0
  9
$MIRRTEXT
 70
     1
  9
$DRAGMODE
 70
     2
  9
$LTSCALE
 40
10.0
  9
$OSMODE
 70
  1535
  9
$ATTMODE
 70
     1
  9
$TEXTSIZE
 40
3.5
  9
$TRACEWID
 40
1.0
  9
$TEXTSTYLE
  7
STANDARD
  9
$CLAYER
  8
STEMPEL
  9
$CELTYPE
  6
BYLAYER
  9
$CECOLOR
 62
   256
  9
$DIMSCALE
 40
1.0
  9
$DIMASZ
 40
3.5
  9
$DIMEXO
 40
1.0
  9
$DIMDLI
 40
0.38
  9
$DIMRND
 40
0.0
  9
$DIMDLE
 40
0.0
  9
$DIMEXE
 40
1.0
  9
$DIMTP
 40
0.0
  9
$DIMTM
 40
0.000000001
  9
$DIMTXT
 40
3.5
  9
$DIMCEN
 40
0.09
  9
$DIMTSZ
 40
0.0
  9
$DIMTOL
 70
     0
  9
$DIMLIM
 70
     0
  9
$DIMTIH
 70
     0
  9
$DIMTOH
 70
     0
  9
$DIMSE1
 70
     0
  9
$DIMSE2
 70
     0
  9
$DIMTAD
 70
     1
  9
$DIMZIN
 70
     8
  9
$DIMBLK
  1

  9
$DIMASO
 70
     1
  9
$DIMSHO
 70
     0
  9
$DIMPOST
  1

  9
$DIMAPOST
  1

  9
$DIMALT
 70
     0
  9
$DIMALTD
 70
     2
  9
$DIMALTF
 40
25.3999999999999986
  9
$DIMLFAC
 40
1.0
  9
$DIMTOFL
 70
     1
  9
$DIMTVP
 40
0.0
  9
$DIMTIX
 70
     0
  9
$DIMSOXD
 70
     0
  9
$DIMSAH
 70
     0
  9
$DIMBLK1
  1

  9
$DIMBLK2
  1

  9
$DIMSTYLE
  2
LORO
  9
$DIMCLRD
 70
     0
  9
$DIMCLRE
 70
     0
  9
$DIMCLRT
 70
     1
  9
$DIMTFAC
 40
0.5
  9
$DIMGAP
 40
1.5
  9
$LUNITS
 70
     2
  9
$LUPREC
 70
     2
  9
$SKETCHINC
 40
1.0
  9
$FILLETRAD
 40
0.5
  9
$AUNITS
 70
     0
  9
$AUPREC
 70
     0
  9
$MENU
  1
ACAD
  9
$ELEVATION
 40
0.0
  9
$PELEVATION
 40
0.0
  9
$THICKNESS
 40
0.0
  9
$LIMCHECK
 70
     0
  9
$BLIPMODE
 70
     0
  9
$CHAMFERA
 40
0.0
  9
$CHAMFERB
 40
0.0
  9
$SKPOLY
 70
     0
  9
$TDCREATE
 40
2455397.867048610933125
  9
$TDUPDATE
 40
2460811.5784837962128222
  9
$TDINDWG
 40
1.8858859027999999
  9
$TDUSRTIMER
 40
1.8858859027999999
  9
$USRTIMER
 70
     1
  9
$ANGBASE
 50
0.0
  9
$ANGDIR
 70
     0
  9
$PDMODE
 70
     0
  9
$PDSIZE
 40
0.0
  9
$PLINEWID
 40
0.0
  9
$COORDS
 70
     1
  9
$SPLFRAME
 70
     0
  9
$SPLINETYPE
 70
     6
  9
$SPLINESEGS
 70
     8
  9
$ATTDIA
 70
     1
  9
$ATTREQ
 70
     1
  9
$HANDLING
 70
     1
  9
$HANDSEED
  5
13AAF
  9
$SURFTAB1
 70
     6
  9
$SURFTAB2
 70
     6
  9
$SURFTYPE
 70
     6
  9
$SURFU
 70
     6
  9
$SURFV
 70
     6
  9
$UCSNAME
  2

  9
$UCSORG
 10
0.0
 20
0.0
 30
0.0
  9
$UCSXDIR
 10
1.0
 20
0.0
 30
0.0
  9
$UCSYDIR
 10
0.0
 20
1.0
 30
0.0
  9
$PUCSNAME
  2

  9
$PUCSORG
 10
0.0
 20
0.0
 30
0.0
  9
$PUCSXDIR
 10
1.0
 20
0.0
 30
0.0
  9
$PUCSYDIR
 10
0.0
 20
1.0
 30
0.0
  9
$USERI1
 70
     0
  9
$USERI2
 70
     0
  9
$USERI3
 70
     0
  9
$USERI4
 70
     0
  9
$USERI5
 70
     0
  9
$USERR1
 40
0.0
  9
$USERR2
 40
0.0
  9
$USERR3
 40
0.0
  9
$USERR4
 40
0.0
  9
$USERR5
 40
0.0
  9
$WORLDVIEW
 70
     1
  9
$SHADEDGE
 70
     3
  9
$SHADEDIF
 70
    70
  9
$TILEMODE
 70
     1
  9
$MAXACTVP
 70
    16
  9
$PLIMCHECK
 70
     0
  9
$PEXTMIN
 10
1.0000000000000000E+20
 20
1.0000000000000000E+20
 30
1.0000000000000000E+20
  9
$PEXTMAX
 10
-1.0000000000000000E+20
 20
-1.0000000000000000E+20
 30
-1.0000000000000000E+20
  9
$PLIMMIN
 10
-0.2180014118636393
 20
-0.2290032499325605
  9
$PLIMMAX
 10
209.7819985881363891
 20
296.7709967500675248
  9
$UNITMODE
 70
     0
  9
$VISRETAIN
 70
     0
  9
$PLINEGEN
 70
     0
  9
$PSLTSCALE
 70
     0
  0
ENDSEC
  0
SECTION
  2
TABLES
  0
TABLE
  2
VPORT
 70
     1
  0
VPORT
  2
*ACTIVE
 70
     0
 10
0.0
 20
0.0
 11
1.0
 21
1.0
 12
-0.0000003743712114
 22
-68.0000008254006616
 13
0.0
 23
0.0
 14
1.0
 24
1.0
 15
10.0
 25
10.0
 16
-0.0000000000000968
 26
0.0
 36
435.9437945221968107
 17
0.0000000000000071
 27
0.0
 37
11.5
 40
182.9381443030023036
 41
1.8839208942390371
 42
50.0
 43
0.0
 44
0.0
 50
0.0
 51
0.0
 71
     0
 72
  1500
 73
     1
 74
     0
 75
     0
 76
     0
 77
     0
 78
     0
  0
ENDTAB
  0
TABLE
  2
LTYPE
 70
     3
  0
LTYPE
  2
CONTINUOUS
 70
     0
  3
Solid line
 72
    65
 73
     0
 40
0.0
  0
LTYPE
  2
STRICHPUNKT
 70
     0
  3
__ . __ . __ . __ . __ . __ . __ . __ . __ . __
 72
    65
 73
     4
 40
1.0
 49
0.5
 49
-0.25
 49
0.0
 49
-0.25
  0
LTYPE
  2
VERDECKT
 70
     0
  3
Verdeckt __ __ __ __ __ __ __ __ __ __ __ __ __
 72
    65
 73
     2
 40
0.375
 49
0.25
 49
-0.125
  0
ENDTAB
  0
TABLE
  2
LAYER
 70
     5
  0
LAYER
  2
0
 70
     0
 62
     7
  6
CONTINUOUS
  0
LAYER
  2
STEMPEL
 70
     0
 62
     3
  6
CONTINUOUS
  0
LAYER
  2
ADSK_ASSOC_ENTITY_BACKUPS
 70
     1
 62
    -7
  6
CONTINUOUS
  0
ENDTAB
  0
TABLE
  2
STYLE
 70
     1
  0
STYLE
  2
STANDARD
 70
     0
 40
0.0
 41
0.8
 50
0.0
 71
     0
 42
3.5
  3
simplex.shx
  4

  0
ENDTAB
  0
TABLE
  2
VIEW
 70
     2
  0
ENDTAB
  0
TABLE
  2
UCS
 70
     0
  0
ENDTAB
  0
TABLE
  2
APPID
 70
    31
  0
APPID
  2
ACAD
 70
     0
  0
APPID
  2
ACAECLAYERSTANDARD
 70
     0
  0
APPID
  2
ACCMTRANSPARENCY
 70
     0
  0
APPID
  2
ACAD_NAV_VCDISPLAY
 70
     0
  0
APPID
  2
ACAD_PSEXT
 70
     0
  0
APPID
  2
ACAD_STEPID
 70
     0
  0
APPID
  2
ACAD_EXEMPT_FROM_CAD_STANDARDS
 70
     0
  0
APPID
  2
ACSYNERGY
 70
     0
  0
APPID
  2
SYNERGY_BODY_TBR_ID
 70
     0
  0
APPID
  2
ACAD_VIEW_EDGE_ID
 70
     0
  0
APPID
  2
GRADIENTCOLOR1ACI
 70
     0
  0
APPID
  2
GRADIENTCOLOR2ACI
 70
     0
  0
APPID
  2
ACAD_DSTYLE_DIMRADIAL_EXTENSION
 70
     0
  0
APPID
  2
ACADANNOMONITORALERTICONDI
 70
     0
  0
APPID
  2
ACAD_MLEADERVER
 70
     0
  0
APPID
  2
ACSYNERGYSKETCH
 70
     0
  0
APPID
  2
ACAD_MODELDOC_XFORM
 70
     0
  0
APPID
  2
ACDBDYNAMICBLOCKGUID
 70
     0
  0
APPID
  2
ACAD_DSTYLE_DIMJAG
 70
     0
  0
APPID
  2
ACAD_DSTYLE_DIMBREAK
 70
     0
  0
APPID
  2
ACAD_DSTYLE_DIMTALN
 70
     0
  0
APPID
  2
ACADANNOPO
 70
     0
  0
APPID
  2
PLOTTRANSPARENCY
 70
     0
  0
APPID
  2
ACADANNOTATIVE
 70
     0
  0
APPID
  2
ACAD_DIMASSOC_CALC_DIMLFAC
 70
     0
  0
APPID
  2
ACAD_DIMASSOC_DIMLFAC
 70
     0
  0
APPID
  2
ACAD_DIMASSOC_OVERRIDDEN_D
 70
     0
  0
APPID
  2
ACADANNOAV
 70
     0
  0
APPID
  2
ACAUTHENVIRON
 70
     0
  0
APPID
  2
ACDBDYNAMICBLOCKTRUENAME
 70
     0
  0
APPID
  2
SYNERGY_EXCLUDED_FROM_SNAPSHOT
 70
     0
  0
ENDTAB
  0
TABLE
  2
DIMSTYLE
 70
     3
  0
DIMSTYLE
  2
LORO
 70
     0
  3

  4

  5

  6

  7

 40
1.0
 41
3.5
 42
1.0
 43
0.38
 44
1.0
 45
0.0
 46
0.0
 47
0.0
 48
0.000000001
140
3.5
141
0.09
142
0.0
143
25.3999999999999986
144
1.0
145
0.0
146
0.5
147
1.5
 71
     0
 72
     0
 73
     0
 74
     0
 75
     0
 76
     0
 77
     1
 78
     8
170
     0
171
     2
172
     1
173
     0
174
     0
175
     0
176
     0
177
     0
178
     1
  0
ENDTAB
  0
ENDSEC
  0
SECTION
  2
BLOCKS
  0
BLOCK
  8
0
  2
$MODEL_SPACE
 70
     0
 10
0.0
 20
0.0
 30
0.0
  3
$MODEL_SPACE
  1

  0
ENDBLK
  5
38
  8
0
  0
BLOCK
 67
     1
  8
0
  2
$PAPER_SPACE
 70
     0
 10
0.0
 20
0.0
 30
0.0
  3
$PAPER_SPACE
  1

  0
ENDBLK
  5
36
 67
     1
  8
0
  0
BLOCK
  8
0
  2
*S0
 70
     1
 10
0.0
 20
0.0
 30
0.0
  3
*S0
  1

  0
ENDBLK
  5
7128
  8
0
  0
BLOCK
  8
0
  2
A$C12F220C8
 70
     0
 10
0.0
 20
0.0
 30
0.0
  3
A$C12F220C8
  1

  0
LINE
  5
13A2C
  8
0
  6
CONTINUOUS
 62
     3
 10
59.0000000000000071
 20
0.0
 30
0.0
 11
-58.9999999999999929
 21
0.0
 31
0.0
210
0.0
220
1.0
230
-0.0000000000000002
  0
LINE
  5
13A2D
  8
0
  6
CONTINUOUS
 62
     3
 10
55.5000000000000071
 20
15.4999999999999893
 30
-0.0000000000000034
 11
-55.5000000000000071
 21
15.4999999999999893
 31
-0.0000000000000034
210
0.0
220
1.0
230
-0.0000000000000002
  0
LINE
  5
13A2E
  8
0
  6
CONTINUOUS
 62
     3
 10
50.0
 20
23.0000000000000107
 30
-0.0000000000000051
 11
-50.0
 21
23.0000000000000107
 31
-0.0000000000000051
210
0.0
220
1.0
230
-0.0000000000000002
  0
LINE
  5
13A2F
  8
0
  6
CONTINUOUS
 62
     3
 10
-59.0
 20
0.0
 30
0.0
 11
-59.0
 21
11.9999999999999893
 31
-0.0000000000000027
210
0.0
220
1.0
230
-0.0000000000000002
  0
LINE
  5
13A30
  8
0
  6
CONTINUOUS
 62
     3
 10
59.0
 20
0.0
 30
0.0
 11
59.0
 21
11.9999999999999893
 31
-0.0000000000000027
210
0.0
220
1.0
230
-0.0000000000000002
  0
ARC
  5
13A31
  8
0
  6
CONTINUOUS
 62
     3
 10
-55.5
 20
11.9999999999999893
 30
0.0
 40
3.5000000000000031
210
0.0
220
-0.0000000000000002
230
-1.0
 50
90.0000000000000995
 51
179.9999999999998863
  0
ARC
  5
13A32
  8
0
  6
CONTINUOUS
 62
     3
 10
55.5
 20
11.9999999999999893
 30
0.0
 40
3.5000000000000071
210
0.0
220
-0.0000000000000002
230
-1.0
 50
0.0
 51
89.9999999999998863
  0
ARC
  5
13A33
  8
0
  6
CONTINUOUS
 62
     3
 10
-54.5
 20
20.0
 30
0.0
 40
4.5000000000000027
210
0.0
220
-0.0000000000000002
230
-1.0
 50
270.0
 51
0.0
  0
ARC
  5
13A34
  8
0
  6
CONTINUOUS
 62
     3
 10
54.5
 20
20.0
 30
0.0
 40
4.5
210
0.0
220
-0.0000000000000002
230
-1.0
 50
180.0
 51
270.0
  0
LINE
  5
13A35
  8
0
  6
CONTINUOUS
 62
     3
 10
-50.0
 20
20.0
 30
-0.0000000000000044
 11
-50.0
 21
23.0000000000000107
 31
-0.0000000000000051
210
0.0
220
1.0
230
-0.0000000000000002
  0
LINE
  5
13A36
  8
0
  6
CONTINUOUS
 62
     3
 10
50.0
 20
20.0
 30
-0.0000000000000044
 11
50.0
 21
23.0000000000000107
 31
-0.0000000000000051
210
0.0
220
1.0
230
-0.0000000000000002
  0
LINE
  5
13A37
  8
0
  6
VERDECKT
 62
     1
 10
55.5000000000000071
 20
14.8499999999999908
 30
-0.0000000000000033
 11
-55.5000000000000071
 21
14.8499999999999908
 31
-0.0000000000000033
210
0.0
220
1.0
230
-0.0000000000000002
  0
ARC
  5
13A38
  8
0
  6
VERDECKT
 62
     1
 10
-55.5000000000000071
 20
11.9999999999999893
 30
0.0
 40
2.8499999999999961
210
0.0
220
-0.0000000000000002
230
-1.0
 50
90.0
 51
180.0
  0
ARC
  5
13A39
  8
0
  6
VERDECKT
 62
     1
 10
55.5000000000000071
 20
11.9999999999999893
 30
0.0
 40
2.8499999999999939
210
0.0
220
-0.0000000000000002
230
-1.0
 50
360.0
 51
90.0000000000000284
  0
LINE
  5
13A3A
  8
0
  6
VERDECKT
 62
     1
 10
-58.3500000000000014
 20
0.0
 30
0.0
 11
-58.3500000000000014
 21
11.9999999999999893
 31
-0.0000000000000027
210
0.0
220
1.0
230
-0.0000000000000002
  0
LINE
  5
13A3B
  8
0
  6
VERDECKT
 62
     1
 10
58.3500000000000014
 20
0.0
 30
0.0
 11
58.3500000000000014
 21
11.9999999999999893
 31
-0.0000000000000027
210
0.0
220
1.0
230
-0.0000000000000002
  0
LINE
  5
13A3C
  8
0
  6
VERDECKT
 62
     1
 10
-49.3499999999999801
 20
20.0
 30
-0.0000000000000044
 11
-49.3499999999999801
 21
23.0
 31
-0.0000000000000051
210
0.0
220
1.0
230
-0.0000000000000002
  0
LINE
  5
13A3D
  8
0
  6
VERDECKT
 62
     1
 10
49.3499999999999801
 20
20.0
 30
-0.0000000000000044
 11
49.3499999999999801
 21
23.0000000000000107
 31
-0.0000000000000051
210
0.0
220
1.0
230
-0.0000000000000002
  0
ARC
  5
13A3E
  8
0
  6
VERDECKT
 62
     1
 10
-54.5
 20
20.0
 30
0.0
 40
5.1500000000000066
210
0.0
220
-0.0000000000000002
230
-1.0
 50
270.0
 51
360.0
  0
ARC
  5
13A3F
  8
0
  6
VERDECKT
 62
     1
 10
54.4999999999999929
 20
20.0
 30
0.0
 40
5.1499999999999977
210
0.0
220
-0.0000000000000002
230
-1.0
 50
180.0
 51
270.0000000000001137
  0
ENDBLK
  5
13A41
  8
0
  0
BLOCK
  8
0
  2
A$CA909174B
 70
     0
 10
0.0
 20
0.0
 30
0.0
  3
A$CA909174B
  1

  0
CIRCLE
  5
13A45
  8
0
  6
CONTINUOUS
 62
     3
 10
0.0000000000000027
 20
0.0000000000000036
 30
0.0
 40
59.0000000000000213
  0
CIRCLE
  5
13A46
  8
0
  6
CONTINUOUS
 62
     3
 10
0.0000000000000051
 20
0.0000000000000036
 30
0.0
 40
50.0
  0
CIRCLE
  5
13A47
  8
0
  6
CONTINUOUS
 62
     3
 10
0.0000000000000051
 20
0.0000000000000036
 30
0.0
 40
49.3499999999999872
  0
CIRCLE
  5
13A48
  8
0
  6
VERDECKT
 62
     1
 10
0.0000000000000027
 20
0.0000000000000036
 30
0.0
 40
58.3500000000000014
  0
ENDBLK
  5
13A4A
  8
0
  0
ENDSEC
  0
SECTION
  2
ENTITIES
  0
INSERT
  5
712A
  8
ADSK_ASSOC_ENTITY_BACKUPS
  2
*S0
 10
0.0
 20
0.0
 30
0.0
  0
INSERT
  5
13A42
  8
STEMPEL
  2
A$C12F220C8
 10
0.0
 20
0.0
 30
0.0
  0
INSERT
  5
13A4B
  8
STEMPEL
  2
A$CA909174B
 10
0.0
 20
-100.0
 30
0.0
  0
VIEWPORT
  5
7108
 67
     1
  8
0
 10
104.7819985881364033
 20
148.2709967500674111
 30
0.0
 40
562.4086525250198747
 41
298.5309278350516138
 68
     1
 69
     1
1001
ACAD
1000
MVIEW
1002
{
1070
    16
1010
0.0
1020
0.0
1030
0.0
1010
0.0
1020
0.0
1030
1.0
1040
0.0
1040
298.5309278350516138
1040
104.7819985881364033
1040
148.2709967500674111
1040
50.0
1040
0.0
1040
0.0
1070
     0
1070
  1500
1070
     1
1070
     1
1070
     0
1070
     0
1070
     0
1070
     0
1040
0.0
1040
0.0
1040
0.0
1040
10.0
1040
10.0
1040
10.0
1040
10.0
1070
     0
1002
{
1002
}
1002
}
  0
ENDSEC
  0
EOF
