  0
SECTION
  2
HEADER
  9
$ACADVER
  1
AC1009
  9
$INSBASE
 10
0.0
 20
0.0
 30
0.0
  9
$EXTMIN
 10
-53.8500089133740403
 20
-153.850002660203188
 30
-0.0000018626469682
  9
$EXTMAX
 10
203.849998375881114
 20
3999.9999957897448439
 30
-0.0000018626469682
  9
$LIMMIN
 10
0.0
 20
0.0
  9
$LIMMAX
 10
1050.0
 20
1485.0
  9
$ORTHOMODE
 70
     1
  9
$REGENMODE
 70
     1
  9
$FILLMODE
 70
     1
  9
$QTEXTMODE
 70
     0
  9
$MIRRTEXT
 70
     1
  9
$DRAGMODE
 70
     2
  9
$LTSCALE
 40
50.0
  9
$OSMODE
 70
   447
  9
$ATTMODE
 70
     1
  9
$TEXTSIZE
 40
3.5
  9
$TRACEWID
 40
0.5
  9
$TEXTSTYLE
  7
STANDARD
  9
$CLAYER
  8
STEMPEL
  9
$CELTYPE
  6
BYLAYER
  9
$CECOLOR
 62
   256
  9
$DIMSCALE
 40
1.0
  9
$DIMASZ
 40
3.5
  9
$DIMEXO
 40
1.0
  9
$DIMDLI
 40
0.38
  9
$DIMRND
 40
0.0
  9
$DIMDLE
 40
0.0
  9
$DIMEXE
 40
1.0
  9
$DIMTP
 40
0.0
  9
$DIMTM
 40
0.000000001
  9
$DIMTXT
 40
3.5
  9
$DIMCEN
 40
0.09
  9
$DIMTSZ
 40
0.0
  9
$DIMTOL
 70
     0
  9
$DIMLIM
 70
     0
  9
$DIMTIH
 70
     0
  9
$DIMTOH
 70
     0
  9
$DIMSE1
 70
     0
  9
$DIMSE2
 70
     0
  9
$DIMTAD
 70
     1
  9
$DIMZIN
 70
     8
  9
$DIMBLK
  1

  9
$DIMASO
 70
     1
  9
$DIMSHO
 70
     0
  9
$DIMPOST
  1

  9
$DIMAPOST
  1

  9
$DIMALT
 70
     0
  9
$DIMALTD
 70
     2
  9
$DIMALTF
 40
25.3999999999999986
  9
$DIMLFAC
 40
2.0
  9
$DIMTOFL
 70
     1
  9
$DIMTVP
 40
0.0
  9
$DIMTIX
 70
     0
  9
$DIMSOXD
 70
     0
  9
$DIMSAH
 70
     0
  9
$DIMBLK1
  1

  9
$DIMBLK2
  1

  9
$DIMSTYLE
  2
LORO
  9
$DIMCLRD
 70
     0
  9
$DIMCLRE
 70
     0
  9
$DIMCLRT
 70
     1
  9
$DIMTFAC
 40
0.5
  9
$DIMGAP
 40
1.5
  9
$LUNITS
 70
     2
  9
$LUPREC
 70
     2
  9
$SKETCHINC
 40
1.0
  9
$FILLETRAD
 40
12.0
  9
$AUNITS
 70
     0
  9
$AUPREC
 70
     0
  9
$MENU
  1
ACAD
  9
$ELEVATION
 40
0.0
  9
$PELEVATION
 40
0.0
  9
$THICKNESS
 40
0.0
  9
$LIMCHECK
 70
     0
  9
$BLIPMODE
 70
     0
  9
$CHAMFERA
 40
0.0
  9
$CHAMFERB
 40
0.0
  9
$SKPOLY
 70
     0
  9
$TDCREATE
 40
2455397.8646990740671754
  9
$TDUPDATE
 40
2460983.426909722853452
  9
$TDINDWG
 40
0.7297308218
  9
$TDUSRTIMER
 40
0.7297308218
  9
$USRTIMER
 70
     1
  9
$ANGBASE
 50
0.0
  9
$ANGDIR
 70
     0
  9
$PDMODE
 70
     0
  9
$PDSIZE
 40
0.0
  9
$PLINEWID
 40
0.0
  9
$COORDS
 70
     1
  9
$SPLFRAME
 70
     0
  9
$SPLINETYPE
 70
     6
  9
$SPLINESEGS
 70
     8
  9
$ATTDIA
 70
     1
  9
$ATTREQ
 70
     1
  9
$HANDLING
 70
     1
  9
$HANDSEED
  5
6154
  9
$SURFTAB1
 70
     6
  9
$SURFTAB2
 70
     6
  9
$SURFTYPE
 70
     6
  9
$SURFU
 70
     6
  9
$SURFV
 70
     6
  9
$UCSNAME
  2

  9
$UCSORG
 10
0.0
 20
0.0
 30
0.0
  9
$UCSXDIR
 10
1.0
 20
0.0
 30
0.0
  9
$UCSYDIR
 10
0.0
 20
1.0
 30
0.0
  9
$PUCSNAME
  2

  9
$PUCSORG
 10
0.0
 20
0.0
 30
0.0
  9
$PUCSXDIR
 10
1.0
 20
0.0
 30
0.0
  9
$PUCSYDIR
 10
0.0
 20
1.0
 30
0.0
  9
$USERI1
 70
     0
  9
$USERI2
 70
     0
  9
$USERI3
 70
     0
  9
$USERI4
 70
     0
  9
$USERI5
 70
     0
  9
$USERR1
 40
0.0
  9
$USERR2
 40
0.0
  9
$USERR3
 40
0.0
  9
$USERR4
 40
0.0
  9
$USERR5
 40
0.0
  9
$WORLDVIEW
 70
     1
  9
$SHADEDGE
 70
     3
  9
$SHADEDIF
 70
    70
  9
$TILEMODE
 70
     1
  9
$MAXACTVP
 70
    16
  9
$PLIMCHECK
 70
     0
  9
$PEXTMIN
 10
1.0000000000000000E+20
 20
1.0000000000000000E+20
 30
1.0000000000000000E+20
  9
$PEXTMAX
 10
-1.0000000000000000E+20
 20
-1.0000000000000000E+20
 30
-1.0000000000000000E+20
  9
$PLIMMIN
 10
0.0
 20
0.0
  9
$PLIMMAX
 10
297.0
 20
420.0
  9
$UNITMODE
 70
     0
  9
$VISRETAIN
 70
     0
  9
$PLINEGEN
 70
     0
  9
$PSLTSCALE
 70
     0
  0
ENDSEC
  0
SECTION
  2
TABLES
  0
TABLE
  2
VPORT
 70
     1
  0
VPORT
  2
*ACTIVE
 70
     0
 10
0.0
 20
0.0
 11
1.0
 21
1.0
 12
74.9999947312535369
 22
-50.0000041981684191
 13
0.0
 23
0.0
 14
1.0
 24
1.0
 15
10.0
 25
10.0
 16
-0.0000000000024068
 26
0.0
 36
10839.4371101860506315
 17
0.0
 27
1973.0750007629389984
 37
-0.0000000000004335
 40
4176.7994459551955515
 41
1.9658986175115201
 42
49.9999999999998934
 43
0.0
 44
0.0
 50
0.0
 51
0.0
 71
     0
 72
  1500
 73
     1
 74
     3
 75
     0
 76
     0
 77
     0
 78
     0
  0
ENDTAB
  0
TABLE
  2
LTYPE
 70
     5
  0
LTYPE
  2
CONTINUOUS
 70
     0
  3
Solid line
 72
    65
 73
     0
 40
0.0
  0
LTYPE
  2
VERDECKT
 70
     0
  3
_ _ _ _ _ _ _ _ _ _ _ _ _ _ _ _ _ _ _ _ _ _ _
 72
    65
 73
     2
 40
0.375
 49
0.25
 49
-0.125
  0
ENDTAB
  0
TABLE
  2
LAYER
 70
    14
  0
LAYER
  2
0
 70
     0
 62
     7
  6
CONTINUOUS
  0
LAYER
  2
VOLL
 70
     0
 62
     1
  6
CONTINUOUS
  0
LAYER
  2
STEMPEL
 70
     0
 62
     3
  6
CONTINUOUS
  0
LAYER
  2
TEXT
 70
     0
 62
     7
  6
CONTINUOUS
  0
LAYER
  2
DEFPOINTS
 70
     0
 62
     7
  6
CONTINUOUS
  0
LAYER
  2
ADSK_ASSOC_ENTITY_BACKUPS
 70
     1
 62
    -7
  6
CONTINUOUS
  0
ENDTAB
  0
TABLE
  2
STYLE
 70
     4
  0
STYLE
  2
STANDARD
 70
     0
 40
0.0
 41
0.8
 50
0.0
 71
     0
 42
3.5
  3
simplex.shx
  4

  0
STYLE
  2
GREEKS
 70
     0
 40
0.0
 41
0.8
 50
0.0
 71
     0
 42
2.5
  3
SIMPLEX.shx
  4

  0
ENDTAB
  0
TABLE
  2
VIEW
 70
     1
  0
ENDTAB
  0
TABLE
  2
UCS
 70
     0
  0
ENDTAB
  0
TABLE
  2
APPID
 70
    23
  0
APPID
  2
ACAD
 70
     0
  0
APPID
  2
ACAD_NAV_VCDISPLAY
 70
     0
  0
APPID
  2
ACAD_STEPID
 70
     0
  0
APPID
  2
ACAD_PSEXT
 70
     0
  0
APPID
  2
ACAECLAYERSTANDARD
 70
     0
  0
APPID
  2
ACCMTRANSPARENCY
 70
     0
  0
APPID
  2
ACAD_DSTYLE_DIMJAG
 70
     0
  0
APPID
  2
ACAD_DSTYLE_DIMBREAK
 70
     0
  0
APPID
  2
ACAD_DSTYLE_DIMTALN
 70
     0
  0
APPID
  2
ACAD_DSTYLE_DIMRADIAL_EXTENSION
 70
     0
  0
APPID
  2
ACDBDYNAMICBLOCKGUID
 70
     0
  0
APPID
  2
ACAD_EXEMPT_FROM_CAD_STANDARDS
 70
     0
  0
APPID
  2
ACSYNERGY
 70
     0
  0
APPID
  2
SYNERGY_BODY_TBR_ID
 70
     0
  0
APPID
  2
ACAD_VIEW_EDGE_ID
 70
     0
  0
APPID
  2
ACSYNERGYSKETCH
 70
     0
  0
APPID
  2
ACAD_MODELDOC_XFORM
 70
     0
  0
APPID
  2
ACAD_DIMASSOC_CALC_DIMLFAC
 70
     0
  0
APPID
  2
ACAD_DIMASSOC_DIMLFAC
 70
     0
  0
APPID
  2
ACAD_DIMASSOC_OVERRIDDEN_D
 70
     0
  0
APPID
  2
ACAD_TC
 70
     0
  0
APPID
  2
ACADANNOMONITORALERTICONDI
 70
     0
  0
APPID
  2
ACAD_MLEADERVER
 70
     0
  0
ENDTAB
  0
TABLE
  2
DIMSTYLE
 70
     2
  0
DIMSTYLE
  2
STANDARD
 70
     0
  3

  4

  5

  6

  7

 40
1.0
 41
0.18
 42
0.0625
 43
0.38
 44
0.18
 45
0.0
 46
0.0
 47
0.0
 48
0.0
140
0.18
141
0.09
142
0.0
143
25.3999999999999986
144
1.0
145
0.0
146
1.0
147
0.09
 71
     0
 72
     0
 73
     1
 74
     1
 75
     0
 76
     0
 77
     0
 78
     0
170
     0
171
     2
172
     0
173
     0
174
     0
175
     0
176
     0
177
     0
178
     0
  0
DIMSTYLE
  2
LORO
 70
     0
  3

  4

  5

  6

  7

 40
1.0
 41
3.5
 42
1.0
 43
0.38
 44
1.0
 45
0.0
 46
0.0
 47
0.0
 48
0.000000001
140
3.5
141
0.09
142
0.0
143
25.3999999999999986
144
2.0
145
0.0
146
0.5
147
1.5
 71
     0
 72
     0
 73
     0
 74
     0
 75
     0
 76
     0
 77
     1
 78
     8
170
     0
171
     2
172
     1
173
     0
174
     0
175
     0
176
     0
177
     0
178
     1
  0
ENDTAB
  0
ENDSEC
  0
SECTION
  2
BLOCKS
  0
BLOCK
  8
0
  2
$MODEL_SPACE
 70
     0
 10
0.0
 20
0.0
 30
0.0
  3
$MODEL_SPACE
  1

  0
ENDBLK
  5
36
  8
0
  0
BLOCK
 67
     1
  8
0
  2
$PAPER_SPACE
 70
     0
 10
0.0
 20
0.0
 30
0.0
  3
$PAPER_SPACE
  1

  0
ENDBLK
  5
34
 67
     1
  8
0
  0
BLOCK
  8
0
  2
*S0
 70
     1
 10
0.0
 20
0.0
 30
0.0
  3
*S0
  1

  0
ENDBLK
  5
1C5A
  8
0
  0
BLOCK
  8
0
  2
A$CEB5B4F18
 70
     0
 10
0.0
 20
0.0
 30
0.0
  3
A$CEB5B4F18
  1

  0
LINE
  5
6096
  8
0
  6
CONTINUOUS
 62
     3
 10
-43.9999999999989129
 20
-47.2999999999990877
 30
0.0
 11
44.00000000000108
 21
-47.2999999999990877
 31
0.0000000000000195
  0
ARC
  5
6097
  8
0
  6
CONTINUOUS
 62
     3
 10
44.0000000000010871
 20
-43.9999999999990834
 30
0.0
 40
3.2999999999999972
 50
269.9999999999998863
 51
0.0
  0
ARC
  5
6098
  8
0
  6
CONTINUOUS
 62
     3
 10
-43.9999999999989129
 20
-43.9999999999990834
 30
0.0
 40
3.2999999999999972
 50
179.999999999999801
 51
270.0
  0
LINE
  5
6099
  8
0
  6
CONTINUOUS
 62
     3
 10
-47.29999999999891
 20
44.0000000000009095
 30
0.0
 11
-47.29999999999891
 21
-43.9999999999990834
 31
0.0
  0
LINE
  5
609A
  8
0
  6
CONTINUOUS
 62
     3
 10
51.1500000000011212
 20
47.8500000000009109
 30
0.0
 11
51.1500000000011212
 21
-47.849999999999099
 31
0.0
  0
ARC
  5
609B
  8
0
  6
CONTINUOUS
 62
     3
 10
47.850000000001117
 20
-47.8499999999991132
 30
0.0
 40
3.2999999999999972
 50
270.0
 51
0.0000000000001018
  0
LINE
  5
609C
  8
0
  6
CONTINUOUS
 62
     3
 10
47.850000000001117
 20
-51.1499999999991104
 30
0.0
 11
-47.8499999999988574
 21
-51.1499999999990891
 31
-0.0000000000000212
  0
ARC
  5
609D
  8
0
  6
CONTINUOUS
 62
     3
 10
-47.849999999998893
 20
-47.849999999999099
 30
0.0
 40
3.2999999999999892
 50
179.9999999999994884
 51
270.0
  0
LINE
  5
609E
  8
0
  6
CONTINUOUS
 62
     3
 10
-51.1499999999988688
 20
-47.849999999999099
 30
0.0
 11
-51.1499999999988688
 21
47.8500000000009109
 31
0.0
  0
ARC
  5
609F
  8
0
  6
CONTINUOUS
 62
     3
 10
-47.8499999999988717
 20
47.8500000000009109
 30
0.0
 40
3.2999999999999972
 50
90.0
 51
180.0
  0
LINE
  5
60A0
  8
0
  6
CONTINUOUS
 62
     3
 10
-47.8499999999988717
 20
51.1500000000009081
 30
0.0
 11
47.850000000001117
 21
51.1500000000009081
 31
0.0000000000000212
  0
ARC
  5
60A1
  8
0
  6
CONTINUOUS
 62
     3
 10
47.850000000001117
 20
47.8500000000009109
 30
0.0
 40
3.2999999999999972
 50
359.9999999999998863
 51
90.0000000000001137
  0
LINE
  5
60A2
  8
0
  6
CONTINUOUS
 62
     3
 10
47.850000000001117
 20
53.8500000000009109
 30
0.0
 11
-47.8499999999989001
 21
53.8500000000009109
 31
-0.0000000000000212
  0
ARC
  5
60A3
  8
0
  6
CONTINUOUS
 62
     3
 10
-47.849999999998893
 20
47.8500000000008967
 30
0.0
 40
6.0000000000000071
 50
90.0000000000000568
 51
179.9999999999998863
  0
LINE
  5
60A4
  8
0
  6
CONTINUOUS
 62
     3
 10
-53.8499999999989001
 20
47.8500000000009109
 30
0.0
 11
-53.8499999999988788
 21
-47.849999999999099
 31
0.0
  0
ARC
  5
60A5
  8
0
  6
CONTINUOUS
 62
     3
 10
-47.8499999999988503
 20
-47.8499999999990777
 30
0.0
 40
6.0000000000000284
 50
180.0000000000001137
 51
269.9999999999997158
  0
LINE
  5
60A6
  8
0
  6
CONTINUOUS
 62
     3
 10
-47.849999999998893
 20
-53.849999999999099
 30
0.0
 11
47.850000000001117
 21
-53.849999999999099
 31
0.0000000000000212
  0
ARC
  5
60A7
  8
0
  6
CONTINUOUS
 62
     3
 10
47.8500000000011099
 20
-47.849999999999099
 30
0.0
 40
5.999999999999992
 50
270.0
 51
0.0
  0
LINE
  5
60A8
  8
0
  6
CONTINUOUS
 62
     3
 10
53.8500000000011099
 20
-47.849999999999099
 30
0.0
 11
53.8500000000011099
 21
47.8500000000009109
 31
0.0
  0
ARC
  5
60A9
  8
0
  6
CONTINUOUS
 62
     3
 10
47.8500000000011099
 20
47.8500000000008967
 30
0.0
 40
6.0000000000000071
 50
0.0000000000000763
 51
89.9999999999999432
  0
ARC
  5
60AA
  8
0
  6
CONTINUOUS
 62
     3
 10
-43.9999999999989129
 20
44.0000000000009024
 30
0.0
 40
3.2999999999999972
 50
89.9999999999998721
 51
180.0
  0
LINE
  5
60AB
  8
0
  6
CONTINUOUS
 62
     3
 10
44.0000000000011013
 20
47.3000000000009067
 30
0.0
 11
-43.9999999999988987
 21
47.3000000000009067
 31
-0.0000000000000195
  0
ARC
  5
60AC
  8
0
  6
CONTINUOUS
 62
     3
 10
44.0000000000010871
 20
44.0000000000009024
 30
0.0
 40
3.2999999999999972
 50
359.9999999999998863
 51
90.0
  0
LINE
  5
60AD
  8
0
  6
CONTINUOUS
 62
     3
 10
47.3000000000010914
 20
-43.9999999999990905
 30
0.0
 11
47.3000000000010914
 21
44.0000000000009024
 31
0.0
  0
ARC
  5
60AE
  8
0
  6
VERDECKT
 62
     1
 10
44.0000000000010729
 20
-43.9999999999990692
 30
0.0
 40
6.0000000000000213
 50
270.0000000000002274
 51
359.9999999999998863
  0
LINE
  5
60AF
  8
0
  6
VERDECKT
 62
     1
 10
50.0000000000011013
 20
-43.9999999999990905
 30
0.0
 11
50.0000000000011013
 21
44.0000000000009024
 31
0.0
  0
ARC
  5
60B0
  8
0
  6
VERDECKT
 62
     1
 10
44.0000000000010729
 20
44.0000000000008882
 30
0.0
 40
6.0000000000000213
 50
0.0000000000001272
 51
89.9999999999998437
  0
LINE
  5
60B1
  8
0
  6
VERDECKT
 62
     1
 10
44.0000000000011013
 20
50.0000000000009095
 30
0.0
 11
-43.9999999999988987
 21
50.0000000000009095
 31
-0.0000000000000195
  0
ARC
  5
60B2
  8
0
  6
VERDECKT
 62
     1
 10
-43.9999999999988773
 20
44.0000000000009024
 30
0.0
 40
6.0000000000000213
 50
90.0000000000002558
 51
180.0
  0
LINE
  5
60B3
  8
0
  6
VERDECKT
 62
     1
 10
-43.9999999999989129
 20
-49.9999999999990905
 30
0.0
 11
44.00000000000108
 21
-49.9999999999990905
 31
0.0000000000000195
  0
ARC
  5
60B4
  8
0
  6
VERDECKT
 62
     1
 10
-43.9999999999988916
 20
-43.9999999999990692
 30
0.0
 40
6.0000000000000213
 50
180.0000000000001137
 51
269.9999999999998863
  0
LINE
  5
60B5
  8
0
  6
VERDECKT
 62
     1
 10
-49.9999999999988987
 20
44.0000000000009095
 30
0.0
 11
-49.9999999999988987
 21
-43.9999999999990834
 31
0.0
  0
ENDBLK
  5
60B7
  8
0
  0
BLOCK
  8
0
  2
A$C5AB9CC88
 70
     0
 10
0.0
 20
0.0
 30
0.0
  3
A$C5AB9CC88
  1

  0
LINE
  5
60BB
  8
0
  6
CONTINUOUS
 62
     3
 10
44.0000000000002203
 20
0.0
 30
0.0
 11
50.0000000000002274
 21
0.0
 31
0.0
210
0.0
220
1.0
230
-0.0000000000000002
  0
LINE
  5
60BC
  8
0
  6
CONTINUOUS
 62
     3
 10
44.0000000000002203
 20
0.0
 30
0.0
 11
-43.9999999999997726
 21
0.0
 31
0.0
210
0.0
220
1.0
230
-0.0000000000000002
  0
LINE
  5
60BD
  8
0
  6
CONTINUOUS
 62
     3
 10
-49.9999999999997726
 20
0.0
 30
0.0
 11
-43.9999999999997726
 21
0.0
 31
0.0
210
0.0
220
1.0
230
-0.0000000000000002
  0
LINE
  5
60BE
  8
0
  6
CONTINUOUS
 62
     3
 10
50.0000000000002274
 20
0.0
 30
0.0
 11
50.0000000000002274
 21
3914.656182182241082
 31
-0.0000000000008692
210
0.0
220
1.0
230
-0.0000000000000002
  0
LINE
  5
60BF
  8
0
  6
CONTINUOUS
 62
     3
 10
-47.8499999999997669
 20
4000.0
 30
-0.0000000000008882
 11
-53.8499999999997669
 21
4000.0
 31
-0.0000000000008882
210
0.0
220
1.0
230
-0.0000000000000002
  0
LINE
  5
60C0
  8
0
  6
CONTINUOUS
 62
     3
 10
-47.8499999999997669
 20
4000.0
 30
-0.0000000000008882
 11
47.8500000000002288
 21
4000.0
 31
-0.0000000000008882
210
0.0
220
1.0
230
-0.0000000000000002
  0
LINE
  5
60C1
  8
0
  6
CONTINUOUS
 62
     3
 10
53.8500000000002075
 20
4000.0
 30
-0.0000000000008882
 11
47.8500000000002288
 21
4000.0
 31
-0.0000000000008882
210
0.0
220
1.0
230
-0.0000000000000002
  0
ARC
  5
60C2
  8
0
  6
CONTINUOUS
 62
     3
 10
-65.0000000000002274
 20
3914.656182182241082
 30
0.0
 40
15.0000000000000107
210
0.0
220
-0.0000000000000002
230
-1.0
 50
0.0
 51
28.171492371299319
  0
ARC
  5
60C3
  8
0
  6
CONTINUOUS
 62
     3
 10
36.350000000000243
 20
3929.9998290759881456
 30
-0.0000000000008726
 40
17.5
 50
331.82850762870072
 51
0.0
  0
LINE
  5
60C4
  8
0
  6
CONTINUOUS
 62
     3
 10
53.8500000000002217
 20
3929.9998290759881456
 30
-0.0000000000008726
 11
53.8500000000002217
 21
4000.0
 31
-0.0000000000008882
210
0.0
220
1.0
230
-0.0000000000000002
  0
LINE
  5
60C5
  8
0
  6
CONTINUOUS
 62
     3
 10
-49.9999999999997726
 20
0.0
 30
0.0
 11
-49.9999999999997726
 21
3914.656182182241082
 31
-0.0000000000008692
210
0.0
220
1.0
230
-0.0000000000000002
  0
ARC
  5
60C6
  8
0
  6
CONTINUOUS
 62
     3
 10
64.9999999999997726
 20
3914.656182182241082
 30
0.0
 40
15.0000000000000107
210
0.0
220
-0.0000000000000002
230
-1.0
 50
151.8285076287006916
 51
180.0
  0
ARC
  5
60C7
  8
0
  6
CONTINUOUS
 62
     3
 10
-36.3499999999997812
 20
3929.9998290759881456
 30
-0.0000000000008726
 40
17.5
 50
180.0
 51
208.1714923712991947
  0
LINE
  5
60C8
  8
0
  6
CONTINUOUS
 62
     3
 10
-53.8499999999997669
 20
3929.9998290759881456
 30
-0.0000000000008726
 11
-53.8499999999997669
 21
4000.0
 31
-0.0000000000008882
210
0.0
220
1.0
230
-0.0000000000000002
  0
LINE
  5
60C9
  8
0
  6
VERDECKT
 62
     1
 10
47.3000000000002316
 20
0.0
 30
0.0
 11
47.3000000000002316
 21
3914.656182182241082
 31
-0.0000000000008692
210
0.0
220
1.0
230
-0.0000000000000002
  0
LINE
  5
60CA
  8
0
  6
VERDECKT
 62
     1
 10
-47.2999999999997769
 20
3914.656182182241082
 30
-0.0000000000008692
 11
-47.2999999999997769
 21
0.0
 31
0.0
210
0.0
220
1.0
230
-0.0000000000000002
  0
ARC
  5
60CB
  8
0
  6
VERDECKT
 62
     1
 10
-65.0000000000002274
 20
3914.656182182241082
 30
0.0
 40
17.7000000000000206
210
0.0
220
-0.0000000000000002
230
-1.0
 50
0.0
 51
28.1714923714230991
  0
ARC
  5
60CC
  8
0
  6
VERDECKT
 62
     1
 10
36.350000000000243
 20
3929.9998290759881456
 30
-0.0000000000008726
 40
14.8000000000000007
 50
331.82850762870072
 51
0.0
  0
LINE
  5
60CD
  8
0
  6
VERDECKT
 62
     1
 10
51.1500000000002331
 20
3929.9998290759881456
 30
-0.0000000000008726
 11
51.1500000000002331
 21
4000.0
 31
-0.0000000000008882
210
0.0
220
1.0
230
-0.0000000000000002
  0
ARC
  5
60CE
  8
0
  6
VERDECKT
 62
     1
 10
64.9999999999997726
 20
3914.656182182241082
 30
0.0
 40
17.7000000000000206
210
0.0
220
-0.0000000000000002
230
-1.0
 50
151.8285076285768866
 51
180.0
  0
ARC
  5
60CF
  8
0
  6
VERDECKT
 62
     1
 10
-36.3499999999997812
 20
3929.9998290759881456
 30
-0.0000000000008726
 40
14.8000000000000007
 50
180.0
 51
208.1714923712991947
  0
LINE
  5
60D0
  8
0
  6
VERDECKT
 62
     1
 10
-51.1499999999997712
 20
3929.9998290759881456
 30
-0.0000000000008726
 11
-51.1499999999997712
 21
4000.0
 31
-0.0000000000008882
210
0.0
220
1.0
230
-0.0000000000000002
  0
ENDBLK
  5
60D2
  8
0
  0
BLOCK
  8
0
  2
A$CADD0A084
 70
     0
 10
0.0
 20
0.0
 30
0.0
  3
A$CADD0A084
  1

  0
LINE
  5
60D6
  8
0
  6
CONTINUOUS
 62
     3
 10
43.9999999999990905
 20
0.0000000000000098
 30
0.0
 11
-44.0000000000009095
 21
-0.0000000000000098
 31
0.0
210
-0.0000000000000002
220
1.0
230
-0.0000000000000002
  0
LINE
  5
60D7
  8
0
  6
CONTINUOUS
 62
     3
 10
-50.0000000000009166
 20
-0.0000000000000111
 30
0.0
 11
-44.0000000000009095
 21
-0.0000000000000098
 31
0.0
210
-0.0000000000000002
220
1.0
230
-0.0000000000000002
  0
LINE
  5
60D8
  8
0
  6
CONTINUOUS
 62
     3
 10
43.9999999999990905
 20
0.0000000000000098
 30
0.0
 11
49.9999999999991118
 21
0.0000000000000111
 31
0.0
210
-0.0000000000000002
220
1.0
230
-0.0000000000000002
  0
LINE
  5
60D9
  8
0
  6
CONTINUOUS
 62
     3
 10
-50.0000000000017906
 20
3914.656182182242901
 30
-0.0000000000008692
 11
-50.0000000000009166
 21
-0.0000000000000111
 31
0.0
210
-0.0000000000000002
220
1.0
230
-0.0000000000000002
  0
LINE
  5
60DA
  8
0
  6
CONTINUOUS
 62
     3
 10
-47.8500000000017991
 20
4000.000000000001819
 30
-0.0000000000008882
 11
-53.8500000000018133
 21
4000.000000000001819
 31
-0.0000000000008882
210
-0.0000000000000002
220
1.0
230
-0.0000000000000002
  0
LINE
  5
60DB
  8
0
  6
CONTINUOUS
 62
     3
 10
-47.8500000000017991
 20
4000.000000000001819
 30
-0.0000000000008882
 11
47.849999999998218
 21
4000.000000000001819
 31
-0.0000000000008882
210
-0.0000000000000002
220
1.0
230
-0.0000000000000002
  0
LINE
  5
60DC
  8
0
  6
CONTINUOUS
 62
     3
 10
53.8499999999982322
 20
4000.000000000001819
 30
-0.0000000000008882
 11
47.8499999999982109
 21
4000.000000000001819
 31
-0.0000000000008882
210
-0.0000000000000002
220
1.0
230
-0.0000000000000002
  0
ARC
  5
60DD
  8
0
  6
CONTINUOUS
 62
     3
 10
65.0000000000017906
 20
3914.6561821822419915
 30
0.0
 40
15.0000000000000195
210
0.0
220
-0.0000000000000002
230
-1.0
 50
151.8285076287006063
 51
180.0
  0
ARC
  5
60DE
  8
0
  6
CONTINUOUS
 62
     3
 10
-36.3500000000017991
 20
3929.9998290759899646
 30
-0.0000000000008726
 40
17.5000000000000107
 50
180.0
 51
208.1714923712991947
  0
LINE
  5
60DF
  8
0
  6
CONTINUOUS
 62
     3
 10
-53.8500000000018204
 20
4000.000000000001819
 30
-0.0000000000008882
 11
-53.8500000000017991
 21
3929.9998290759899646
 31
-0.0000000000008726
210
-0.0000000000000002
220
1.0
230
-0.0000000000000002
  0
LINE
  5
60E0
  8
0
  6
CONTINUOUS
 62
     3
 10
49.9999999999991118
 20
0.0000000000000111
 30
0.0
 11
49.9999999999982379
 21
3914.6561821822419915
 31
-0.0000000000008692
210
-0.0000000000000002
220
1.0
230
-0.0000000000000002
  0
ARC
  5
60E1
  8
0
  6
CONTINUOUS
 62
     3
 10
-64.9999999999982379
 20
3914.6561821822419915
 30
0.0
 40
15.0000000000000195
210
0.0
220
-0.0000000000000002
230
-1.0
 50
0.0
 51
28.1714923712993013
  0
ARC
  5
60E2
  8
0
  6
CONTINUOUS
 62
     3
 10
36.3499999999982322
 20
3929.9998290759899646
 30
-0.0000000000008726
 40
17.5
 50
331.82850762870072
 51
0.0000000000000127
  0
LINE
  5
60E3
  8
0
  6
CONTINUOUS
 62
     3
 10
53.8499999999982393
 20
3929.9998290759899646
 30
-0.0000000000008726
 11
53.8499999999982322
 21
4000.000000000001819
 31
-0.0000000000008882
210
-0.0000000000000002
220
1.0
230
-0.0000000000000002
  0
LINE
  5
60E4
  8
0
  6
VERDECKT
 62
     1
 10
47.2999999999991019
 20
0.0000000000000105
 30
0.0
 11
47.2999999999982279
 21
3914.6561821822419915
 31
-0.0000000000008692
210
-0.0000000000000002
220
1.0
230
-0.0000000000000002
  0
LINE
  5
60E5
  8
0
  6
VERDECKT
 62
     1
 10
-47.3000000000017806
 20
3914.6561821822419915
 30
-0.0000000000008692
 11
-47.3000000000009067
 21
-0.0000000000000105
 31
0.0
210
-0.0000000000000002
220
1.0
230
-0.0000000000000002
  0
ARC
  5
60E6
  8
0
  6
VERDECKT
 62
     1
 10
65.0000000000017906
 20
3914.6561821822419915
 30
0.0
 40
17.7000000000000206
210
0.0
220
-0.0000000000000002
230
-1.0
 50
151.8285076285768866
 51
180.0
  0
ARC
  5
60E7
  8
0
  6
VERDECKT
 62
     1
 10
-36.3500000000017991
 20
3929.9998290759899646
 30
-0.0000000000008726
 40
14.8000000000000007
 50
180.0
 51
208.1714923712991947
  0
LINE
  5
60E8
  8
0
  6
VERDECKT
 62
     1
 10
-51.1500000000018034
 20
3929.9998290759899646
 30
-0.0000000000008726
 11
-51.1500000000018176
 21
4000.000000000001819
 31
-0.0000000000008882
210
-0.0000000000000002
220
1.0
230
-0.0000000000000002
  0
ARC
  5
60E9
  8
0
  6
VERDECKT
 62
     1
 10
-64.9999999999982379
 20
3914.6561821822419915
 30
0.0
 40
17.7000000000000206
210
0.0
220
-0.0000000000000002
230
-1.0
 50
0.0
 51
28.1714923714230814
  0
ARC
  5
60EA
  8
0
  6
VERDECKT
 62
     1
 10
36.3499999999982322
 20
3929.9998290759899646
 30
-0.0000000000008726
 40
14.8000000000000096
 50
331.8285076287007769
 51
0.0000000000000127
  0
LINE
  5
60EB
  8
0
  6
VERDECKT
 62
     1
 10
51.1499999999982435
 20
3929.9998290759899646
 30
-0.0000000000008726
 11
51.1499999999982222
 21
4000.000000000001819
 31
-0.0000000000008882
210
-0.0000000000000002
220
1.0
230
-0.0000000000000002
  0
ENDBLK
  5
60ED
  8
0
  0
ENDSEC
  0
SECTION
  2
ENTITIES
  0
TEXT
  5
8F
  8
VOLL
 10
78.076754716981128
 20
31.025947764705851
 30
0.0
 40
1.8
  1

  7
GREEKS
  0
TEXT
  5
79F
  8
TEXT
 62
     1
 10
922.8891515269277761
 20
156.0281960787337141
 30
0.0
 40
17.5
  1

 41
0.8
  7
GREEKS
 72
     1
 11
922.8891515269277761
 21
156.0281960787337141
 31
0.0
  0
INSERT
  5
1C5C
  8
ADSK_ASSOC_ENTITY_BACKUPS
  2
*S0
 10
0.0
 20
0.0
 30
0.0
  0
INSERT
  5
60B8
  8
STEMPEL
  2
A$CEB5B4F18
 10
0.0
 20
-100.0
 30
0.0
  0
INSERT
  5
60D3
  8
STEMPEL
  2
A$C5AB9CC88
 10
0.0
 20
0.0
 30
0.0
  0
INSERT
  5
60EE
  8
STEMPEL
  2
A$CADD0A084
 10
150.0
 20
0.0
 30
0.0
  0
VIEWPORT
  5
1AF3
 67
     1
  8
0
 10
148.5
 20
210.0
 30
0.0
 40
830.2391730529317329
 41
422.3204419889502219
 68
     1
 69
     1
1001
ACAD
1000
MVIEW
1002
{
1070
    16
1010
0.0
1020
0.0
1030
0.0
1010
0.0
1020
0.0
1030
1.0
1040
0.0
1040
422.3204419889502219
1040
148.5
1040
210.0
1040
50.0
1040
0.0
1040
0.0
1070
     0
1070
  1500
1070
     1
1070
     1
1070
     0
1070
     0
1070
     0
1070
     0
1040
0.0
1040
0.0
1040
0.0
1040
10.0
1040
10.0
1040
10.0
1040
10.0
1070
     0
1002
{
1002
}
1002
}
  0
ENDSEC
  0
EOF
