  0
SECTION
  2
HEADER
  9
$ACADVER
  1
AC1009
  9
$INSBASE
 10
0.0
 20
0.0
 30
0.0
  9
$EXTMIN
 10
76.9857835012580836
 20
72.0596048588754456
 30
-206.1440798458129109
  9
$EXTMAX
 10
164.7170798373207958
 20
72.0828695470297589
 30
34.8641447342383799
  9
$LIMMIN
 10
0.0
 20
0.0
  9
$LIMMAX
 10
210.0
 20
297.0
  9
$ORTHOMODE
 70
     1
  9
$REGENMODE
 70
     1
  9
$FILLMODE
 70
     1
  9
$QTEXTMODE
 70
     0
  9
$MIRRTEXT
 70
     1
  9
$DRAGMODE
 70
     2
  9
$LTSCALE
 40
10.0
  9
$OSMODE
 70
  1327
  9
$ATTMODE
 70
     1
  9
$TEXTSIZE
 40
3.5
  9
$TRACEWID
 40
0.5
  9
$TEXTSTYLE
  7
STANDARD
  9
$CLAYER
  8
DEFPOINTS
  9
$CELTYPE
  6
BYLAYER
  9
$CECOLOR
 62
   256
  9
$DIMSCALE
 40
1.0
  9
$DIMASZ
 40
3.5
  9
$DIMEXO
 40
1.0
  9
$DIMDLI
 40
7.0
  9
$DIMRND
 40
0.0
  9
$DIMDLE
 40
0.0
  9
$DIMEXE
 40
1.0
  9
$DIMTP
 40
0.0
  9
$DIMTM
 40
0.0
  9
$DIMTXT
 40
3.5
  9
$DIMCEN
 40
1.5
  9
$DIMTSZ
 40
0.0
  9
$DIMTOL
 70
     0
  9
$DIMLIM
 70
     0
  9
$DIMTIH
 70
     0
  9
$DIMTOH
 70
     0
  9
$DIMSE1
 70
     0
  9
$DIMSE2
 70
     0
  9
$DIMTAD
 70
     1
  9
$DIMZIN
 70
     8
  9
$DIMBLK
  1

  9
$DIMASO
 70
     1
  9
$DIMSHO
 70
     0
  9
$DIMPOST
  1

  9
$DIMAPOST
  1

  9
$DIMALT
 70
     0
  9
$DIMALTD
 70
     2
  9
$DIMALTF
 40
25.3999999999999986
  9
$DIMLFAC
 40
1.0
  9
$DIMTOFL
 70
     1
  9
$DIMTVP
 40
0.0
  9
$DIMTIX
 70
     0
  9
$DIMSOXD
 70
     0
  9
$DIMSAH
 70
     0
  9
$DIMBLK1
  1

  9
$DIMBLK2
  1

  9
$DIMSTYLE
  2
STANDARD
  9
$DIMCLRD
 70
     0
  9
$DIMCLRE
 70
     0
  9
$DIMCLRT
 70
     1
  9
$DIMTFAC
 40
0.5142857142857143
  9
$DIMGAP
 40
1.5
  9
$LUNITS
 70
     2
  9
$LUPREC
 70
     2
  9
$SKETCHINC
 40
1.0
  9
$FILLETRAD
 40
0.0
  9
$AUNITS
 70
     0
  9
$AUPREC
 70
     0
  9
$MENU
  1
ACAD
  9
$ELEVATION
 40
0.0
  9
$PELEVATION
 40
0.0
  9
$THICKNESS
 40
0.0
  9
$LIMCHECK
 70
     0
  9
$BLIPMODE
 70
     0
  9
$CHAMFERA
 40
0.0
  9
$CHAMFERB
 40
0.0
  9
$SKPOLY
 70
     0
  9
$TDCREATE
 40
2455397.8646990740671754
  9
$TDUPDATE
 40
2458374.3301388891413808
  9
$TDINDWG
 40
0.0877422222
  9
$TDUSRTIMER
 40
0.0877422222
  9
$USRTIMER
 70
     1
  9
$ANGBASE
 50
0.0
  9
$ANGDIR
 70
     0
  9
$PDMODE
 70
     0
  9
$PDSIZE
 40
0.0
  9
$PLINEWID
 40
0.0
  9
$COORDS
 70
     1
  9
$SPLFRAME
 70
     0
  9
$SPLINETYPE
 70
     6
  9
$SPLINESEGS
 70
     8
  9
$ATTDIA
 70
     0
  9
$ATTREQ
 70
     0
  9
$HANDLING
 70
     1
  9
$HANDSEED
  5
9FB
  9
$SURFTAB1
 70
     6
  9
$SURFTAB2
 70
     6
  9
$SURFTYPE
 70
     6
  9
$SURFU
 70
     6
  9
$SURFV
 70
     6
  9
$UCSNAME
  2

  9
$UCSORG
 10
0.0
 20
0.0
 30
0.0
  9
$UCSXDIR
 10
1.0
 20
0.0
 30
0.0
  9
$UCSYDIR
 10
0.0
 20
1.0
 30
0.0
  9
$PUCSNAME
  2

  9
$PUCSORG
 10
0.0
 20
0.0
 30
0.0
  9
$PUCSXDIR
 10
1.0
 20
0.0
 30
0.0
  9
$PUCSYDIR
 10
0.0
 20
1.0
 30
0.0
  9
$USERI1
 70
     0
  9
$USERI2
 70
     0
  9
$USERI3
 70
     0
  9
$USERI4
 70
     0
  9
$USERI5
 70
     0
  9
$USERR1
 40
0.0
  9
$USERR2
 40
0.0
  9
$USERR3
 40
0.0
  9
$USERR4
 40
0.0
  9
$USERR5
 40
0.0
  9
$WORLDVIEW
 70
     1
  9
$SHADEDGE
 70
     3
  9
$SHADEDIF
 70
    70
  9
$TILEMODE
 70
     1
  9
$MAXACTVP
 70
    16
  9
$PLIMCHECK
 70
     0
  9
$PEXTMIN
 10
1.129416638471948
 20
0.7870833686017616
 30
0.0
  9
$PEXTMAX
 10
10.1647497462475407
 20
7.0837503174158529
 30
0.0
  9
$PLIMMIN
 10
-0.1979161059762549
 20
-0.1979166503966324
  9
$PLIMMAX
 10
11.4920836921751999
 20
8.0687497919938682
  9
$UNITMODE
 70
     0
  9
$VISRETAIN
 70
     0
  9
$PLINEGEN
 70
     0
  9
$PSLTSCALE
 70
     1
  0
ENDSEC
  0
SECTION
  2
TABLES
  0
TABLE
  2
VPORT
 70
     1
  0
VPORT
  2
*ACTIVE
 70
     0
 10
0.0
 20
0.0
 11
1.0
 21
1.0
 12
60.5584795953367916
 22
-12.3263502341768696
 13
0.0
 23
0.0
 14
1.0
 24
1.0
 15
10.0
 25
10.0
 16
0.0
 26
-894.0356063031166514
 36
0.0
 17
60.2929520739526765
 27
59.4999990463256765
 37
-73.3136173216104083
 40
242.8112786292786041
 41
1.8826466916354549
 42
50.0
 43
0.0
 44
0.0
 50
0.0
 51
0.0
 71
     0
 72
  1500
 73
     1
 74
     0
 75
     0
 76
     0
 77
     0
 78
     0
  0
ENDTAB
  0
TABLE
  2
LTYPE
 70
     4
  0
LTYPE
  2
CONTINUOUS
 70
     0
  3
Solid line
 72
    65
 73
     0
 40
0.0
  0
LTYPE
  2
VERDECKT
 70
     0
  3
Verdeckt __ __ __ __ __ __ __ __ __ __ __ __ __
 72
    65
 73
     2
 40
0.375
 49
0.25
 49
-0.125
  0
ENDTAB
  0
TABLE
  2
LAYER
 70
     9
  0
LAYER
  2
0
 70
     0
 62
     7
  6
CONTINUOUS
  0
LAYER
  2
VOLL
 70
     0
 62
     1
  6
CONTINUOUS
  0
LAYER
  2
DEFPOINTS
 70
     0
 62
     7
  6
CONTINUOUS
  0
ENDTAB
  0
TABLE
  2
STYLE
 70
     4
  0
STYLE
  2
STANDARD
 70
     0
 40
0.0
 41
0.8
 50
0.0
 71
     0
 42
3.5
  3
simplex.shx
  4

  0
STYLE
  2
GREEKS
 70
     0
 40
0.0
 41
0.8
 50
0.0
 71
     0
 42
2.5
  3
SIMPLEX.shx
  4

  0
ENDTAB
  0
TABLE
  2
VIEW
 70
     5
  0
ENDTAB
  0
TABLE
  2
UCS
 70
     0
  0
ENDTAB
  0
TABLE
  2
APPID
 70
    15
  0
APPID
  2
ACAD
 70
     0
  0
APPID
  2
MCAD_NO_VIS
 70
     0
  0
APPID
  2
ACAD_TEMP_GRAPHIC
 70
     0
  0
APPID
  2
AD_DRAW
 70
     0
  0
APPID
  2
ACATTRIBSERVICES
 70
     0
  0
APPID
  2
DESIGNERASSEMBLIES
 70
     0
  0
APPID
  2
ACADM_DIM_EDIT
 70
     0
  0
APPID
  2
AMDT_DM_ADJ
 70
     0
  0
APPID
  2
ACAECLAYERSTANDARD
 70
     0
  0
APPID
  2
ACCMTRANSPARENCY
 70
     0
  0
APPID
  2
ACAD_NAV_VCDISPLAY
 70
     0
  0
APPID
  2
ACAD_PSEXT
 70
     0
  0
APPID
  2
ACAD_EXEMPT_FROM_CAD_STANDARDS
 70
     0
  0
APPID
  2
ACAD_MLEADERVER
 70
     0
  0
APPID
  2
ACAD_OBJECT_CHANGE_GUID
 70
     0
  0
ENDTAB
  0
TABLE
  2
DIMSTYLE
 70
     2
  0
DIMSTYLE
  2
STANDARD
 70
     0
  3

  4

  5

  6

  7

 40
1.0
 41
0.18
 42
0.0625
 43
0.38
 44
0.18
 45
0.0
 46
0.0
 47
0.0
 48
0.0
140
0.18
141
0.09
142
0.0
143
25.3999999999999986
144
1.0
145
0.0
146
1.0
147
0.09
 71
     0
 72
     0
 73
     1
 74
     1
 75
     0
 76
     0
 77
     0
 78
     0
170
     0
171
     2
172
     0
173
     0
174
     0
175
     0
176
     0
177
     0
178
     0
  0
ENDTAB
  0
ENDSEC
  0
SECTION
  2
BLOCKS
  0
BLOCK
  8
0
  2
$MODEL_SPACE
 70
     0
 10
0.0
 20
0.0
 30
0.0
  3
$MODEL_SPACE
  1

  0
ENDBLK
  5
36
  8
0
  0
BLOCK
 67
     1
  8
0
  2
$PAPER_SPACE
 70
     0
 10
0.0
 20
0.0
 30
0.0
  3
$PAPER_SPACE
  1

  0
ENDBLK
  5
840
 67
     1
  8
0
  0
BLOCK
  8
0
  2
A$C6D8D0F64
 70
     0
 10
0.0
 20
0.0
 30
0.0
  3
A$C6D8D0F64
  1

  0
LINE
  5
95B
  8
0
  6
CONTINUOUS
 62
     3
 10
-75.174610476055193
 20
-46.9395722751751592
 30
0.0000000000000132
 11
7.8253895239449198
 21
-46.9395722751751592
 31
0.0000000000000132
210
0.0
220
1.0
230
-0.0000000000000002
  0
LINE
  5
95C
  8
0
  6
CONTINUOUS
 62
     3
 10
-73.3296594906015571
 20
72.0604277248247769
 30
-0.0000000000000132
 11
5.9804385384911711
 21
72.0604277248247769
 31
-0.0000000000000132
210
0.0
220
1.0
230
-0.0000000000000002
  0
LINE
  5
95D
  8
0
  6
CONTINUOUS
 62
     3
 10
8.3253865353950687
 20
61.5115053177059465
 30
-0.0000000000000109
 11
8.3253865353950687
 21
52.5007212229635414
 31
-0.0000000000000089
210
0.0
220
1.0
230
-0.0000000000000002
  0
LINE
  5
95E
  8
0
  6
CONTINUOUS
 62
     3
 10
-75.6746074875054546
 20
61.5115053177059323
 30
-0.0000000000000109
 11
-75.6746074875054546
 21
52.5007212229634916
 31
-0.0000000000000089
210
0.0
220
1.0
230
-0.0000000000000002
  0
ARC
  5
95F
  8
0
  6
CONTINUOUS
 62
     3
 10
50.7746104760629109
 20
52.430427724823339
 30
-0.0000000000000028
 40
24.9000932431180892
210
0.0
220
-0.0000000000000002
230
-1.0
 50
338.8168456069615786
 51
0.1617474312588533
  0
ARC
  5
960
  8
0
  6
CONTINUOUS
 62
     3
 10
16.5746104760474395
 20
52.4304277248233603
 30
-0.0000000000000028
 40
24.9000932431180608
210
0.0
220
-0.0000000000000002
230
-1.0
 50
179.8382525687410123
 51
201.1831543930383077
  0
ARC
  5
961
  8
0
  6
CONTINUOUS
 62
     3
 10
85.2746104760550452
 20
39.0604277248245992
 30
-0.0000000000000028
 40
12.0999999999998504
210
0.0
220
-0.0000000000000002
230
-1.0
 50
158.8168456069624028
 51
179.9999999999992042
  0
ARC
  5
962
  8
0
  6
CONTINUOUS
 62
     3
 10
-17.9253895239443004
 20
39.0604277248247129
 30
-0.0000000000000028
 40
12.0999999999995094
210
0.0
220
-0.0000000000000002
230
-1.0
 50
0.0000000000004071
 51
21.1831543930379382
  0
LINE
  5
963
  8
0
  6
CONTINUOUS
 62
     3
 10
5.825389523944799
 20
39.0604277248247982
 30
-0.0000000000000059
 11
5.8253895239448141
 21
22.4440927710959706
 31
-0.0000000000000022
210
0.0
220
1.0
230
-0.0000000000000002
  0
LINE
  5
964
  8
0
  6
CONTINUOUS
 62
     3
 10
-73.174610476055193
 20
39.0604277248247485
 30
-0.0000000000000059
 11
-73.174610476055193
 21
22.4440927710959315
 31
-0.0000000000000022
210
0.0
220
1.0
230
-0.0000000000000002
  0
ARC
  5
965
  8
0
  6
CONTINUOUS
 62
     3
 10
61.2746104760530272
 20
22.4440927710964999
 30
-0.0000000000000028
 40
11.9000000000021409
210
0.0
220
-0.0000000000000002
230
-1.0
 50
328.1297797402311858
 51
359.9999999999973284
  0
ARC
  5
966
  8
0
  6
CONTINUOUS
 62
     3
 10
6.0746104760573401
 20
22.4440927710965212
 30
-0.0000000000000028
 40
11.9000000000021195
210
0.0
220
-0.0000000000000002
230
-1.0
 50
180.0000000000025864
 51
211.8702202597687005
  0
ARC
  5
967
  8
0
  6
CONTINUOUS
 62
     3
 10
78.1746104760558751
 20
11.9369523418449397
 30
-0.0000000000000028
 40
8.0000000000005826
210
0.0
220
-0.0000000000000002
230
-1.0
 50
148.1297797402316974
 51
179.9999999999998863
  0
ARC
  5
968
  8
0
  6
CONTINUOUS
 62
     3
 10
-10.8253895239454199
 20
11.9369523418450001
 30
-0.0000000000000028
 40
8.0000000000005116
210
0.0
220
-0.0000000000000002
230
-1.0
 50
0.0
 51
31.8702202597686508
  0
LINE
  5
969
  8
0
  6
CONTINUOUS
 62
     3
 10
2.8253895239449198
 20
11.9369523418450001
 30
0.0000000000000001
 11
2.8253895239449198
 21
6.2891842801477909
 31
0.0000000000000014
210
0.0
220
1.0
230
-0.0000000000000002
  0
LINE
  5
96A
  8
0
  6
CONTINUOUS
 62
     3
 10
-70.1746104760553067
 20
11.9369523418449504
 30
0.0000000000000001
 11
-70.1746104760553067
 21
6.2891842801477473
 31
0.0000000000000014
210
0.0
220
1.0
230
-0.0000000000000002
  0
ARC
  5
96B
  8
0
  6
CONTINUOUS
 62
     3
 10
78.1746104760545393
 20
6.2891842801474613
 30
-0.0000000000000028
 40
7.9999999999993241
210
0.0
220
-0.0000000000000002
230
-1.0
 50
179.9999999999978968
 51
221.4096221092721919
  0
ARC
  5
96C
  8
0
  6
CONTINUOUS
 62
     3
 10
-10.8253895239441
 20
6.2891842801474764
 30
-0.0000000000000028
 40
7.999999999999261
210
0.0
220
-0.0000000000000002
230
-1.0
 50
318.5903778907268133
 51
0.0000000000022391
  0
ARC
  5
96D
  8
0
  6
CONTINUOUS
 62
     3
 10
63.1746104760550296
 20
-6.9395722751753786
 30
-0.0000000000000028
 40
12.0000000000002007
210
0.0
220
-0.0000000000000002
230
-1.0
 50
0.0
 51
41.4096221092701668
  0
ARC
  5
96E
  8
0
  6
CONTINUOUS
 62
     3
 10
4.1746104760552276
 20
-6.939572275175343
 30
-0.0000000000000028
 40
12.0000000000001794
210
0.0
220
-0.0000000000000002
230
-1.0
 50
138.5903778907290018
 51
179.9999999999992042
  0
LINE
  5
96F
  8
0
  6
CONTINUOUS
 62
     3
 10
7.8253895239449127
 20
-6.939572275175184
 30
0.0000000000000043
 11
7.8253895239449269
 21
-46.9395722751751876
 31
0.0000000000000132
210
0.0
220
1.0
230
-0.0000000000000002
  0
LINE
  5
970
  8
0
  6
CONTINUOUS
 62
     3
 10
-75.174610476055193
 20
-6.9395722751752009
 30
0.0000000000000043
 11
-75.174610476055193
 21
-46.9395722751752089
 31
0.0000000000000132
210
0.0
220
1.0
230
-0.0000000000000002
  0
ARC
  5
971
  8
0
  6
CONTINUOUS
 62
     3
 10
50.7746847780189086
 20
61.5115218345079882
 30
-0.0000000000000028
 40
24.8999256980418089
210
0.0
220
-0.0000000000000002
230
-1.0
 50
359.9999619941416995
 51
25.0653757210440808
  0
ARC
  5
972
  8
0
  6
CONTINUOUS
 62
     3
 10
16.5745361740914703
 20
61.5115218345080024
 30
-0.0000000000000028
 40
24.8999256980418089
210
0.0
220
-0.0000000000000002
230
-1.0
 50
154.9346242789557948
 51
180.0000380058583005
  0
LINE
  5
973
  8
0
  6
VERDECKT
 62
     1
 10
6.3253895239449127
 20
-6.939572275175184
 30
0.0000000000000043
 11
6.3253895239449269
 21
-46.9395722751751876
 31
0.0000000000000132
210
0.0
220
1.0
230
-0.0000000000000002
  0
LINE
  5
974
  8
0
  6
VERDECKT
 62
     1
 10
-73.674610476055193
 20
-6.9395722751752009
 30
0.0000000000000043
 11
-73.674610476055193
 21
-46.9395722751752089
 31
0.0000000000000132
210
0.0
220
1.0
230
-0.0000000000000002
  0
ARC
  5
975
  8
0
  6
VERDECKT
 62
     1
 10
63.1746104760540135
 20
-6.9395722751758298
 30
-0.0000000000000028
 40
10.5000000000012701
210
0.0
220
-0.0000000000000002
230
-1.0
 50
0.0000000000034604
 51
41.4096221092691579
  0
ARC
  5
976
  8
0
  6
VERDECKT
 62
     1
 10
4.1746104760563076
 20
-6.9395722751758164
 30
-0.0000000000000028
 40
10.5000000000013198
210
0.0
220
-0.0000000000000002
230
-1.0
 50
138.5903778907303945
 51
179.9999999999965041
  0
ARC
  5
977
  8
0
  6
VERDECKT
 62
     1
 10
78.1746104760541414
 20
6.2891842801475022
 30
-0.0000000000000028
 40
9.4999999999989271
210
0.0
220
-0.0000000000000002
230
-1.0
 50
179.9999999999984084
 51
221.4096221092738119
  0
ARC
  5
978
  8
0
  6
VERDECKT
 62
     1
 10
-10.8253895239438496
 20
6.2891842801475706
 30
-0.0000000000000028
 40
9.4999999999990266
210
0.0
220
-0.0000000000000002
230
-1.0
 50
318.5903778907261881
 51
0.0000000000013231
  0
LINE
  5
979
  8
0
  6
VERDECKT
 62
     1
 10
1.325389523944863
 20
11.9369523418449095
 30
0.0000000000000001
 11
1.325389523944863
 21
6.2891842801477909
 31
0.0000000000000014
210
0.0
220
1.0
230
-0.0000000000000002
  0
LINE
  5
97A
  8
0
  6
VERDECKT
 62
     1
 10
-68.6746104760552498
 20
11.9369523418449006
 30
0.0000000000000001
 11
-68.6746104760552498
 21
6.2891842801477473
 31
0.0000000000000014
210
0.0
220
1.0
230
-0.0000000000000002
  0
ARC
  5
97B
  8
0
  6
VERDECKT
 62
     1
 10
78.1746104760556619
 20
11.9369523418448704
 30
-0.0000000000000028
 40
9.5000000000004334
210
0.0
220
-0.0000000000000002
230
-1.0
 50
148.1297797402301057
 51
179.9999999999998863
  0
ARC
  5
97C
  8
0
  6
VERDECKT
 62
     1
 10
-10.8253895239453204
 20
11.9369523418449006
 30
-0.0000000000000028
 40
9.5000000000004761
210
0.0
220
-0.0000000000000002
230
-1.0
 50
0.0000000000001018
 51
31.8702202597699014
  0
ARC
  5
97D
  8
0
  6
VERDECKT
 62
     1
 10
61.2746104760534891
 20
22.4440927710963685
 30
-0.0000000000000028
 40
10.4000000000016808
210
0.0
220
-0.0000000000000002
230
-1.0
 50
328.1297797402310152
 51
359.9999999999976126
  0
ARC
  5
97E
  8
0
  6
VERDECKT
 62
     1
 10
6.0746104760570674
 20
22.4440927710964395
 30
-0.0000000000000028
 40
10.4000000000018495
210
0.0
220
-0.0000000000000002
230
-1.0
 50
180.0000000000025011
 51
211.8702202597685869
  0
LINE
  5
97F
  8
0
  6
VERDECKT
 62
     1
 10
4.325389523944799
 20
39.0604277248247982
 30
-0.0000000000000059
 11
4.3253895239448141
 21
22.4440927710959706
 31
-0.0000000000000022
210
0.0
220
1.0
230
-0.0000000000000002
  0
LINE
  5
980
  8
0
  6
VERDECKT
 62
     1
 10
-71.674610476055193
 20
39.0604277248247485
 30
-0.0000000000000059
 11
-71.674610476055193
 21
22.4440927710959315
 31
-0.0000000000000022
210
0.0
220
1.0
230
-0.0000000000000002
  0
ARC
  5
981
  8
0
  6
VERDECKT
 62
     1
 10
85.274610476055372
 20
39.0604277248245566
 30
-0.0000000000000028
 40
13.6000000000001897
210
0.0
220
-0.0000000000000002
230
-1.0
 50
158.8168456069631134
 51
179.9999999999992042
  0
ARC
  5
982
  8
0
  6
VERDECKT
 62
     1
 10
-17.9253895239450003
 20
39.0604277248246134
 30
-0.0000000000000028
 40
13.6000000000002004
210
0.0
220
-0.0000000000000002
230
-1.0
 50
0.0000000000008142
 51
21.1831543930369399
  0
ARC
  5
983
  8
0
  6
VERDECKT
 62
     1
 10
50.7746104760345673
 20
52.4304277248268065
 30
-0.0000000000000028
 40
23.4000932431463902
210
0.0
220
-0.0000000000000002
230
-1.0
 50
338.8168456069785179
 51
0.1617474312510165
  0
ARC
  5
984
  8
0
  6
VERDECKT
 62
     1
 10
16.5746104760758115
 20
52.4304277248268207
 30
-0.0000000000000028
 40
23.4000932431463902
210
0.0
220
-0.0000000000000002
230
-1.0
 50
179.8382525687489135
 51
201.1831543930213115
  0
LINE
  5
985
  8
0
  6
VERDECKT
 62
     1
 10
6.825389523944863
 20
61.5115053177061171
 30
-0.0000000000000109
 11
6.825389523944863
 21
52.4964866907401984
 31
-0.0000000000000089
210
0.0
220
1.0
230
-0.0000000000000002
  0
LINE
  5
986
  8
0
  6
VERDECKT
 62
     1
 10
-74.1746104760552498
 20
61.5115053177061029
 30
-0.0000000000000109
 11
-74.1746104760552498
 21
52.4964866907401628
 31
-0.0000000000000089
210
0.0
220
1.0
230
-0.0000000000000002
  0
ARC
  5
987
  8
0
  6
VERDECKT
 62
     1
 10
50.7746104760546402
 20
61.5115053177060673
 30
-0.0000000000000028
 40
23.400000000000599
210
0.0
220
-0.0000000000000002
230
-1.0
 50
0.0000000000001018
 51
26.7955779312316906
  0
ARC
  5
988
  8
0
  6
VERDECKT
 62
     1
 10
16.5746104760555113
 20
61.51150531770611
 30
-0.0000000000000028
 40
23.4000000000003787
210
0.0
220
-0.0000000000000002
230
-1.0
 50
153.2044220687681104
 51
179.9999999999998863
  0
ENDBLK
  5
98A
  8
0
  0
BLOCK
  8
0
  2
A$C45574312
 70
     0
 10
0.0
 20
0.0
 30
0.0
  3
A$C45574312
  1

  0
CIRCLE
  5
98E
  8
0
  6
CONTINUOUS
 62
     3
 10
-0.000000000000057
 20
59.4999999999999503
 30
0.0
 40
35.0000000000000284
  0
CIRCLE
  5
98F
  8
0
  6
CONTINUOUS
 62
     3
 10
-0.0000000000000438
 20
59.4999999999999503
 30
0.0
 40
37.9873223762308498
  0
CIRCLE
  5
990
  8
0
  6
CONTINUOUS
 62
     3
 10
-0.0000000000000438
 20
59.4999999999999503
 30
0.0
 40
39.655049014546357
  0
CIRCLE
  5
991
  8
0
  6
CONTINUOUS
 62
     3
 10
-0.0000000000000481
 20
59.4999999999999503
 30
0.0
 40
42.0000932431257965
  0
CIRCLE
  5
992
  8
0
  6
CONTINUOUS
 62
     3
 10
-0.0000000000000461
 20
59.4999999999999503
 30
0.0
 40
42.0000000000055067
  0
CIRCLE
  5
993
  8
0
  6
VERDECKT
 62
     1
 10
-0.0000000000000481
 20
59.4999999999999503
 30
0.0
 40
41.9999940229004523
  0
CIRCLE
  5
994
  8
0
  6
VERDECKT
 62
     1
 10
-0.000000000000051
 20
59.4999999999999503
 30
0.0
 40
39.4999999999999929
  0
CIRCLE
  5
995
  8
0
  6
VERDECKT
 62
     1
 10
-0.000000000000057
 20
59.4999999999999503
 30
0.0
 40
36.5000000000001492
  0
CIRCLE
  5
996
  8
0
  6
VERDECKT
 62
     1
 10
-0.0000000000000043
 20
59.4999999999999503
 30
0.0
 40
41.5000000000000782
  0
CIRCLE
  5
997
  8
0
  6
VERDECKT
 62
     1
 10
-0.0000000000000043
 20
59.4999999999999503
 30
0.0
 40
40.0000000000000213
  0
CIRCLE
  5
998
  8
0
  6
VERDECKT
 62
     1
 10
-0.000000000000051
 20
59.4999999999999503
 30
0.0
 40
37.9999999999999929
  0
CIRCLE
  5
999
  8
0
  6
VERDECKT
 62
     1
 10
-0.0000000000000461
 20
59.4999999999999503
 30
0.0
 40
40.5000000000000568
  0
CIRCLE
  5
99A
  8
0
  6
VERDECKT
 62
     1
 10
-0.0000000000000481
 20
59.4999999999999503
 30
0.0
 40
40.500093243125761
  0
ENDBLK
  5
99C
  8
0
  0
ENDSEC
  0
SECTION
  2
ENTITIES
  0
TEXT
  5
8F
  8
VOLL
 10
78.076754716981128
 20
31.025947764705851
 30
0.0
 40
1.8
  1

  7
GREEKS
  0
INSERT
  5
98B
  8
DEFPOINTS
  2
A$C6D8D0F64
 10
154.2605146239604892
 20
-37.1963083793982321
 30
-72.0604267711504747
210
0.0
220
-1.0
230
0.0000000000000001
  0
INSERT
  5
9A5
  8
DEFPOINTS
  2
A$C45574312
 10
120.5859041479052962
 20
-223.6358806545734126
 30
-72.0604267711504747
210
0.0
220
-1.0
230
0.0000000000000001
  0
VIEWPORT
  5
844
 67
     1
  8
0
 10
5.6470837930994708
 20
3.9354165707986182
 30
0.0
 40
16.4658785378803003
 41
8.7461330960491512
 68
     1
 69
     1
1001
ACAD
1000
MVIEW
1002
{
1070
    16
1010
0.0
1020
0.0
1030
0.0
1010
0.0
1020
0.0
1030
1.0
1040
0.0
1040
8.7461330960491512
1040
5.6470837930994708
1040
3.9354165707986182
1040
50.0
1040
0.0
1040
0.0
1070
     0
1070
  1500
1070
     1
1070
     1
1070
     0
1070
     0
1070
     0
1070
     0
1040
0.0
1040
0.0
1040
0.0
1040
10.0
1040
10.0
1040
10.0
1040
10.0
1070
     0
1002
{
1002
}
1002
}
  0
ENDSEC
  0
EOF
