  0
SECTION
  2
HEADER
  9
$ACADVER
  1
AC1009
  9
$INSBASE
 10
0.0
 20
0.0
 30
0.0
  9
$EXTMIN
 10
571.30306651474837
 20
68.479171414345501
 30
-271.37794951240659
  9
$EXTMAX
 10
947.31860853857336
 20
625.93410321850911
 30
0.0000000000000018
  9
$LIMMIN
 10
0.0
 20
0.0
  9
$LIMMAX
 10
419.99999999999989
 20
594.0
  9
$ORTHOMODE
 70
     1
  9
$REGENMODE
 70
     1
  9
$FILLMODE
 70
     1
  9
$QTEXTMODE
 70
     0
  9
$MIRRTEXT
 70
     1
  9
$DRAGMODE
 70
     2
  9
$LTSCALE
 40
20.0
  9
$OSMODE
 70
   311
  9
$ATTMODE
 70
     1
  9
$TEXTSIZE
 40
3.5
  9
$TRACEWID
 40
0.5
  9
$TEXTSTYLE
  7
STANDARD
  9
$CLAYER
  8
0
  9
$CELTYPE
  6
BYLAYER
  9
$CECOLOR
 62
   256
  9
$DIMSCALE
 40
2.0
  9
$DIMASZ
 40
3.5
  9
$DIMEXO
 40
1.0
  9
$DIMDLI
 40
7.0
  9
$DIMRND
 40
0.0
  9
$DIMDLE
 40
0.0
  9
$DIMEXE
 40
1.0
  9
$DIMTP
 40
0.0
  9
$DIMTM
 40
0.0
  9
$DIMTXT
 40
3.5
  9
$DIMCEN
 40
1.5
  9
$DIMTSZ
 40
0.0
  9
$DIMTOL
 70
     0
  9
$DIMLIM
 70
     0
  9
$DIMTIH
 70
     0
  9
$DIMTOH
 70
     0
  9
$DIMSE1
 70
     0
  9
$DIMSE2
 70
     0
  9
$DIMTAD
 70
     1
  9
$DIMZIN
 70
     8
  9
$DIMBLK
  1

  9
$DIMASO
 70
     1
  9
$DIMSHO
 70
     0
  9
$DIMPOST
  1

  9
$DIMAPOST
  1

  9
$DIMALT
 70
     0
  9
$DIMALTD
 70
     2
  9
$DIMALTF
 40
25.399999999999999
  9
$DIMLFAC
 40
1.0
  9
$DIMTOFL
 70
     1
  9
$DIMTVP
 40
0.0
  9
$DIMTIX
 70
     0
  9
$DIMSOXD
 70
     0
  9
$DIMSAH
 70
     0
  9
$DIMBLK1
  1

  9
$DIMBLK2
  1

  9
$DIMSTYLE
  2
STANDARD
  9
$DIMCLRD
 70
     0
  9
$DIMCLRE
 70
     0
  9
$DIMCLRT
 70
     1
  9
$DIMTFAC
 40
0.5142857142857144
  9
$DIMGAP
 40
1.5
  9
$LUNITS
 70
     2
  9
$LUPREC
 70
     2
  9
$SKETCHINC
 40
1.0
  9
$FILLETRAD
 40
0.0
  9
$AUNITS
 70
     1
  9
$AUPREC
 70
     3
  9
$MENU
  1
ACAD
  9
$ELEVATION
 40
0.0
  9
$PELEVATION
 40
0.0
  9
$THICKNESS
 40
0.0
  9
$LIMCHECK
 70
     0
  9
$BLIPMODE
 70
     0
  9
$CHAMFERA
 40
0.0
  9
$CHAMFERB
 40
0.0
  9
$SKPOLY
 70
     0
  9
$TDCREATE
 40
2452040.637099653
  9
$TDUPDATE
 40
2458407.586221192
  9
$TDINDWG
 40
0.4266384838
  9
$TDUSRTIMER
 40
0.4266384838
  9
$USRTIMER
 70
     1
  9
$ANGBASE
 50
0.0
  9
$ANGDIR
 70
     0
  9
$PDMODE
 70
     0
  9
$PDSIZE
 40
0.0
  9
$PLINEWID
 40
0.0
  9
$COORDS
 70
     1
  9
$SPLFRAME
 70
     0
  9
$SPLINETYPE
 70
     6
  9
$SPLINESEGS
 70
     8
  9
$ATTDIA
 70
     0
  9
$ATTREQ
 70
     0
  9
$HANDLING
 70
     1
  9
$HANDSEED
  5
1DF8
  9
$SURFTAB1
 70
     6
  9
$SURFTAB2
 70
     6
  9
$SURFTYPE
 70
     6
  9
$SURFU
 70
     6
  9
$SURFV
 70
     6
  9
$UCSNAME
  2

  9
$UCSORG
 10
0.0
 20
0.0
 30
0.0
  9
$UCSXDIR
 10
1.0
 20
0.0
 30
0.0
  9
$UCSYDIR
 10
0.0
 20
1.0
 30
0.0
  9
$PUCSNAME
  2

  9
$PUCSORG
 10
0.0
 20
0.0
 30
0.0
  9
$PUCSXDIR
 10
1.0
 20
0.0
 30
0.0
  9
$PUCSYDIR
 10
0.0
 20
1.0
 30
0.0
  9
$USERI1
 70
     0
  9
$USERI2
 70
     0
  9
$USERI3
 70
     0
  9
$USERI4
 70
     0
  9
$USERI5
 70
     0
  9
$USERR1
 40
0.0
  9
$USERR2
 40
0.0
  9
$USERR3
 40
0.0
  9
$USERR4
 40
0.0
  9
$USERR5
 40
0.0
  9
$WORLDVIEW
 70
     1
  9
$SHADEDGE
 70
     3
  9
$SHADEDIF
 70
    70
  9
$TILEMODE
 70
     1
  9
$MAXACTVP
 70
    16
  9
$PLIMCHECK
 70
     0
  9
$PEXTMIN
 10
1.049999952316284
 20
0.0931145854695679
 30
0.0
  9
$PEXTMAX
 10
5.8341172105787598
 20
6.6291659431338061
 30
0.0
  9
$PLIMMIN
 10
-0.2500002402958907
 20
-0.2499999962453767
  9
$PLIMMAX
 10
10.74999951940822
 20
8.2499997634587334
  9
$UNITMODE
 70
     0
  9
$VISRETAIN
 70
     0
  9
$PLINEGEN
 70
     0
  9
$PSLTSCALE
 70
     0
  0
ENDSEC
  0
SECTION
  2
TABLES
  0
TABLE
  2
VPORT
 70
     1
  0
VPORT
  2
*ACTIVE
 70
     0
 10
0.0
 20
0.0
 11
1.0
 21
1.0
 12
209.60093680991741
 22
733.9123897210518
 13
0.0
 23
0.0
 14
1.0
 24
1.0
 15
10.0
 25
10.0
 16
0.0
 26
0.0
 36
1.0
 17
926.57417291327488
 27
-392.73455245804979
 37
204.807429309029
 40
899.02135628043629
 41
2.1217510259917911
 42
50.0
 43
0.0
 44
0.0
 50
0.0
 51
0.0
 71
     0
 72
  1500
 73
     1
 74
     1
 75
     0
 76
     0
 77
     0
 78
     0
  0
ENDTAB
  0
TABLE
  2
LTYPE
 70
     4
  0
LTYPE
  2
CONTINUOUS
 70
     0
  3
Solid line
 72
    65
 73
     0
 40
0.0
  0
LTYPE
  2
PHANTOM2
 70
     0
  3
Phantom (.5x) ___ _ _ ___ _ _ ___ _ _ ___ _ _
 72
    65
 73
     6
 40
1.25
 49
0.625
 49
-0.125
 49
0.125
 49
-0.125
 49
0.125
 49
-0.125
  0
LTYPE
  2
VERDECKT
 70
     0
  3
Verdeckt __ __ __ __ __ __ __ __ __ __ __ __ __
 72
    65
 73
     2
 40
0.375
 49
0.25
 49
-0.125
  0
ENDTAB
  0
TABLE
  2
LAYER
 70
    10
  0
LAYER
  2
0
 70
     0
 62
     7
  6
CONTINUOUS
  0
LAYER
  2
VOLL
 70
     0
 62
     1
  6
CONTINUOUS
  0
LAYER
  2
DEFPOINTS
 70
     0
 62
     7
  6
CONTINUOUS
  0
ENDTAB
  0
TABLE
  2
STYLE
 70
     3
  0
STYLE
  2
STANDARD
 70
     0
 40
0.0
 41
0.8
 50
0.0
 71
     0
 42
3.5
  3
simplex.shx
  4

  0
STYLE
  2
GREEKS
 70
     0
 40
0.0
 41
0.8
 50
0.0
 71
     0
 42
2.5
  3
SIMPLEX.shx
  4

  0
ENDTAB
  0
TABLE
  2
VIEW
 70
     5
  0
ENDTAB
  0
TABLE
  2
UCS
 70
     0
  0
ENDTAB
  0
TABLE
  2
APPID
 70
     9
  0
APPID
  2
ACAD
 70
     0
  0
APPID
  2
AVE_RENDER
 70
     0
  0
APPID
  2
ACAD_EXEMPT_FROM_CAD_STANDARDS
 70
     0
  0
APPID
  2
ACAD_NAV_VCDISPLAY
 70
     0
  0
APPID
  2
ACAECLAYERSTANDARD
 70
     0
  0
APPID
  2
ACCMTRANSPARENCY
 70
     0
  0
APPID
  2
ACAD_PSEXT
 70
     0
  0
APPID
  2
ACAD_MLEADERVER
 70
     0
  0
APPID
  2
ACAD_OBJECT_CHANGE_GUID
 70
     0
  0
ENDTAB
  0
TABLE
  2
DIMSTYLE
 70
     1
  0
DIMSTYLE
  2
STANDARD
 70
     0
  3

  4

  5

  6

  7

 40
1.0
 41
0.18
 42
0.0625
 43
0.38
 44
0.18
 45
0.0
 46
0.0
 47
0.0
 48
0.0
140
0.18
141
0.09
142
0.0
143
25.399999999999999
144
1.0
145
0.0
146
1.0
147
0.09
 71
     0
 72
     0
 73
     1
 74
     1
 75
     0
 76
     0
 77
     0
 78
     0
170
     0
171
     2
172
     0
173
     0
174
     0
175
     0
176
     0
177
     0
178
     0
  0
ENDTAB
  0
ENDSEC
  0
SECTION
  2
BLOCKS
  0
BLOCK
  8
0
  2
$MODEL_SPACE
 70
     0
 10
0.0
 20
0.0
 30
0.0
  3
$MODEL_SPACE
  1

  0
ENDBLK
  5
44
  8
0
  0
BLOCK
 67
     1
  8
0
  2
$PAPER_SPACE
 70
     0
 10
0.0
 20
0.0
 30
0.0
  3
$PAPER_SPACE
  1

  0
ENDBLK
  5
42
 67
     1
  8
0
  0
BLOCK
  8
0
  2
A$C57D11A1E
 70
     0
 10
0.0
 20
0.0
 30
0.0
  3
A$C57D11A1E
  1

  0
CIRCLE
  5
1D32
  8
0
  6
CONTINUOUS
 62
     3
 10
-646.63413439855856
 20
-201.0631922575154
 30
0.0
 40
35.299999999999962
210
0.0
220
0.0
230
-1.0
  0
CIRCLE
  5
1D33
  8
0
  6
CONTINUOUS
 62
     3
 10
-646.6341343985589
 20
-201.0631922575154
 30
0.0
 40
34.85797287731851
210
0.0
220
0.0
230
-1.0
  0
CIRCLE
  5
1D34
  8
0
  6
CONTINUOUS
 62
     3
 10
-646.63413439855856
 20
-201.0631922575154
 30
0.0
 40
54.659782918723181
210
0.0
220
0.0
230
-1.0
  0
CIRCLE
  5
1D35
  8
0
  6
CONTINUOUS
 62
     3
 10
-646.63413439855856
 20
-201.0631922575154
 30
0.0
 40
53.199999999999932
210
0.0
220
0.0
230
-1.0
  0
CIRCLE
  5
1D36
  8
0
  6
CONTINUOUS
 62
     3
 10
-646.63413439855856
 20
-201.0631922575154
 30
0.0
 40
57.899999999999856
210
0.0
220
0.0
230
-1.0
  0
CIRCLE
  5
1D37
  8
0
  6
CONTINUOUS
 62
     3
 10
-646.63413439855856
 20
-201.0631922575154
 30
0.0
 40
40.940507774947257
210
0.0
220
0.0
230
-1.0
  0
CIRCLE
  5
1D38
  8
0
  6
CONTINUOUS
 62
     3
 10
-646.63413439855856
 20
-201.0631922575154
 30
0.0
 40
49.599999999999909
210
0.0
220
0.0
230
-1.0
  0
CIRCLE
  5
1D39
  8
0
  6
CONTINUOUS
 62
     3
 10
-646.63413439855856
 20
-201.0631922575154
 30
0.0
 40
52.699999999999811
210
0.0
220
0.0
230
-1.0
  0
CIRCLE
  5
1D3A
  8
0
  6
VERDECKT
 62
     1
 10
-646.63413439855856
 20
-201.0631922575154
 30
0.0
 40
42.500000000000107
210
0.0
220
0.0
230
-1.0
  0
CIRCLE
  5
1D3B
  8
0
  6
VERDECKT
 62
     1
 10
-646.63413439855856
 20
-201.0631922575154
 30
0.0
 40
41.313478667523661
210
0.0
220
0.0
230
-1.0
  0
CIRCLE
  5
1D3C
  8
0
  6
VERDECKT
 62
     1
 10
-646.63413439855856
 20
-201.0631922575154
 30
0.0
 40
44.601247240540708
210
0.0
220
0.0
230
-1.0
  0
CIRCLE
  5
1D3D
  8
0
  6
VERDECKT
 62
     1
 10
-646.63413439855856
 20
-201.0631922575154
 30
0.0
 40
44.864619981659203
210
0.0
220
0.0
230
-1.0
  0
CIRCLE
  5
1D3E
  8
0
  6
VERDECKT
 62
     1
 10
-646.63413439855856
 20
-201.0631922575154
 30
0.0
 40
41.207560446287623
210
0.0
220
0.0
230
-1.0
  0
CIRCLE
  5
1D3F
  8
0
  6
VERDECKT
 62
     1
 10
-646.63413439855856
 20
-201.0631922575154
 30
0.0
 40
42.5
210
0.0
220
0.0
230
-1.0
  0
CIRCLE
  5
1D40
  8
0
  6
VERDECKT
 62
     1
 10
-646.63413439855856
 20
-201.0631922575154
 30
0.0
 40
36.5
210
0.0
220
0.0
230
-1.0
  0
CIRCLE
  5
1D41
  8
0
  6
VERDECKT
 62
     1
 10
-646.6341343985589
 20
-201.0631922575154
 30
0.0
 40
36.062556682370428
210
0.0
220
0.0
230
-1.0
  0
CIRCLE
  5
1D42
  8
0
  6
VERDECKT
 62
     1
 10
-646.63413439855856
 20
-201.0631922575154
 30
0.0
 40
53.899999999999856
210
0.0
220
0.0
230
-1.0
  0
CIRCLE
  5
1D43
  8
0
  6
VERDECKT
 62
     1
 10
-646.63413439855856
 20
-201.0631922575154
 30
0.0
 40
50.799999999999947
210
0.0
220
0.0
230
-1.0
  0
CIRCLE
  5
1D44
  8
0
  6
VERDECKT
 62
     1
 10
-646.63413439855856
 20
-201.0631922575154
 30
0.0
 40
42.5
210
0.0
220
0.0
230
-1.0
  0
CIRCLE
  5
1D45
  8
0
  6
VERDECKT
 62
     1
 10
-646.63413439855856
 20
-201.0631922575154
 30
0.0
 40
56.699999999999818
210
0.0
220
0.0
230
-1.0
  0
CIRCLE
  5
1D46
  8
0
  6
VERDECKT
 62
     1
 10
-646.63413439855856
 20
-201.0631922575154
 30
0.0
 40
53.900244747906299
210
0.0
220
0.0
230
-1.0
  0
CIRCLE
  5
1D47
  8
0
  6
VERDECKT
 62
     1
 10
-646.63413439855856
 20
-201.0631922575154
 30
0.0
 40
52.700267341969102
210
0.0
220
0.0
230
-1.0
  0
ENDBLK
  5
1D49
  8
0
  0
BLOCK
  8
0
  2
A$C270912FA
 70
     0
 10
0.0
 20
0.0
 30
0.0
  3
A$C270912FA
  1

  0
LINE
  5
1D4D
  8
0
  6
CONTINUOUS
 62
     3
 10
597.54487098829895
 20
381.97783270167213
 30
-0.0000000000000229
 11
680.17182832334618
 21
381.97783270167213
 31
-0.0000000000000229
210
0.0000000000000002
220
1.0
230
0.0000000000000002
  0
LINE
  5
1D4E
  8
0
  6
CONTINUOUS
 62
     3
 10
594.25710241528191
 20
387.47575921423783
 30
-0.0000000000000216
 11
683.45959689636334
 21
387.47575921423783
 31
-0.0000000000000216
210
0.0000000000000002
220
1.0
230
0.0000000000000002
  0
ARC
  5
1D4F
  8
0
  6
CONTINUOUS
 62
     3
 10
-598.08336886039581
 20
386.03186387019002
 30
0.0000000000001077
 40
4.0896391862323886
210
0.0
220
0.0000000000000002
230
-1.0
 50
277.56631902813558
 51
20.67470282658913
  0
ARC
  5
1D50
  8
0
  6
CONTINUOUS
 62
     3
 10
-679.63333045124955
 20
386.03186387019002
 30
0.0000000000001077
 40
4.0896391862323327
210
0.0
220
0.0000000000000002
230
-1.0
 50
159.32529717340779
 51
262.43368097186442
  0
LINE
  5
1D51
  8
0
  6
CONTINUOUS
 62
     3
 10
602.79579297345219
 20
269.94413603286301
 30
-0.0000000000000477
 11
638.85834965582262
 21
269.94413603286301
 31
-0.0000000000000477
210
0.0000000000000002
220
1.0
230
0.0000000000000002
  0
LINE
  5
1D52
  8
0
  6
CONTINUOUS
 62
     3
 10
638.85834965582274
 20
269.94413603286301
 30
-0.0000000000000477
 11
674.92090633819316
 21
269.94413603286301
 31
-0.0000000000000477
210
0.0000000000000002
220
1.0
230
0.0000000000000002
  0
LINE
  5
1D53
  8
0
  6
CONTINUOUS
 62
     3
 10
600.9278834735278
 20
373.5203014886003
 30
-0.0000000000000247
 11
597.54487098829907
 21
381.97783270167213
 31
-0.0000000000000229
210
0.0000000000000002
220
1.0
230
0.0000000000000002
  0
LINE
  5
1D54
  8
0
  6
CONTINUOUS
 62
     3
 10
676.78881583811744
 20
373.5203014886003
 30
-0.0000000000000247
 11
680.17182832334595
 21
381.97783270167213
 31
-0.0000000000000229
210
0.0000000000000002
220
1.0
230
0.0000000000000002
  0
ARC
  5
1D55
  8
0
  6
CONTINUOUS
 62
     3
 10
-582.3583496558241
 20
366.0924879615186
 30
0.0000000000001077
 40
19.999999999998401
210
0.0
220
0.0000000000000002
230
-1.0
 50
158.19859051364631
 51
180.0
  0
ARC
  5
1D56
  8
0
  6
CONTINUOUS
 62
     3
 10
-695.35834965582387
 20
366.09248796151792
 30
0.0000000000001077
 40
20.000000000001361
210
0.0
220
0.0000000000000002
230
-1.0
 50
0.0
 51
21.801409486353631
  0
LINE
  5
1D57
  8
0
  6
CONTINUOUS
 62
     3
 10
675.35834965582251
 20
366.0924879615182
 30
-0.0000000000000264
 11
675.35834965582228
 21
274.94413603286301
 31
-0.0000000000000466
210
0.0000000000000002
220
1.0
230
0.0000000000000002
  0
LINE
  5
1D58
  8
0
  6
CONTINUOUS
 62
     3
 10
602.35834965582274
 20
366.0924879615182
 30
-0.0000000000000264
 11
602.35834965582274
 21
274.94413603286301
 31
-0.0000000000000466
210
0.0000000000000002
220
1.0
230
0.0000000000000002
  0
LINE
  5
1D59
  8
0
  6
CONTINUOUS
 62
     3
 10
602.79579297345208
 20
269.94413603286301
 30
-0.0000000000000477
 11
602.35834965582262
 21
274.94413603286301
 31
-0.0000000000000466
210
0.0000000000000002
220
1.0
230
0.0000000000000002
  0
LINE
  5
1D5A
  8
0
  6
CONTINUOUS
 62
     3
 10
674.92090633819305
 20
269.94413603286301
 30
-0.0000000000000477
 11
675.35834965582262
 21
274.94413603286301
 31
-0.0000000000000466
210
0.0000000000000002
220
1.0
230
0.0000000000000002
  0
LINE
  5
1D5B
  8
0
  6
CONTINUOUS
 62
     3
 10
584.19856673709955
 20
484.94413603286353
 30
0.0
 11
638.85834965582262
 21
484.94413603286353
 31
0.0
210
0.0000000000000002
220
1.0
230
0.0000000000000002
  0
LINE
  5
1D5C
  8
0
  6
CONTINUOUS
 62
     3
 10
638.85834965582262
 20
484.94413603286353
 30
0.0
 11
693.51813257454569
 21
484.94413603286353
 31
0.0
210
0.0000000000000002
220
1.0
230
0.0000000000000002
  0
ARC
  5
1D5D
  8
0
  6
CONTINUOUS
 62
     3
 10
-605.53216720249554
 20
472.74782511521261
 30
0.0000000000001077
 40
24.573817546672789
210
0.0
220
0.0000000000000002
230
-1.0
 50
0.0
 51
29.756383968867119
  0
ARC
  5
1D5E
  8
0
  6
CONTINUOUS
 62
     3
 10
-672.18453210915106
 20
472.74782511521278
 30
0.0000000000001077
 40
24.573817546671251
210
0.0
220
0.0000000000000002
230
-1.0
 50
150.24361603113289
 51
180.0
  0
LINE
  5
1D5F
  8
0
  6
CONTINUOUS
 62
     3
 10
696.75834965582249
 20
472.74782511521289
 30
-0.0000000000000027
 11
696.75834965582249
 21
454.17413603286332
 31
-0.0000000000000068
210
0.0000000000000002
220
1.0
230
0.0000000000000002
  0
LINE
  5
1D60
  8
0
  6
CONTINUOUS
 62
     3
 10
580.95834965582264
 20
472.74782511521289
 30
-0.0000000000000027
 11
580.95834965582264
 21
454.17413603286332
 31
-0.0000000000000068
210
0.0000000000000002
220
1.0
230
0.0000000000000002
  0
ARC
  5
1D61
  8
0
  6
CONTINUOUS
 62
     3
 10
-605.1583496558186
 20
454.17413603286241
 30
0.0000000000001077
 40
24.199999999995839
210
0.0
220
0.0000000000000002
230
-1.0
 50
333.11195238227538
 51
0.0000000000032569
  0
ARC
  5
1D62
  8
0
  6
CONTINUOUS
 62
     3
 10
-672.55834965582653
 20
454.17413603286269
 30
0.0000000000001077
 40
24.19999999999607
210
0.0
220
0.0000000000000002
230
-1.0
 50
180.0
 51
206.88804761772749
  0
ARC
  5
1D63
  8
0
  6
CONTINUOUS
 62
     3
 10
-572.1583496558236
 20
437.44093550218201
 30
0.0000000000001077
 40
12.79999999999916
210
0.0
220
0.0000000000000002
230
-1.0
 50
153.11195238227529
 51
180.0
  0
ARC
  5
1D64
  8
0
  6
CONTINUOUS
 62
     3
 10
-705.55834965582176
 20
437.44093550218201
 30
0.0000000000001077
 40
12.799999999999271
210
0.0
220
0.0000000000000002
230
-1.0
 50
0.0
 51
26.888047617724631
  0
LINE
  5
1D65
  8
0
  6
CONTINUOUS
 62
     3
 10
692.75834965582249
 20
437.44093550218179
 30
-0.0000000000000105
 11
692.75834965582249
 21
421.71604360274648
 31
-0.000000000000014
210
0.0000000000000002
220
1.0
230
0.0000000000000002
  0
LINE
  5
1D66
  8
0
  6
CONTINUOUS
 62
     3
 10
584.95834965582264
 20
437.44093550218179
 30
-0.0000000000000105
 11
584.95834965582264
 21
421.71604360274648
 31
-0.000000000000014
210
0.0000000000000002
220
1.0
230
0.0000000000000002
  0
ARC
  5
1D67
  8
0
  6
CONTINUOUS
 62
     3
 10
-598.85665907964199
 20
421.63356194316248
 30
0.0000000000001077
 40
13.89855417172568
210
0.0
220
0.0000000000000002
230
-1.0
 50
329.14041890938222
 51
0.3400266432970494
  0
ARC
  5
1D68
  8
0
  6
CONTINUOUS
 62
     3
 10
-678.86004023200428
 20
421.63356194316202
 30
0.0000000000001077
 40
13.89855417172449
210
0.0
220
0.0000000000000002
230
-1.0
 50
179.65997335669971
 51
210.85958109061781
  0
ARC
  5
1D69
  8
0
  6
CONTINUOUS
 62
     3
 10
-580.05834965582153
 20
410.40100935622303
 30
0.0000000000001077
 40
8.0000000000012559
210
0.0
220
0.0000000000000002
230
-1.0
 50
149.14041890938219
 51
180.0
  0
ARC
  5
1D6A
  8
0
  6
CONTINUOUS
 62
     3
 10
-697.6583496558236
 20
410.40100935622303
 30
0.0000000000001077
 40
8.0000000000011937
210
0.0
220
0.0000000000000002
230
-1.0
 50
0.0
 51
30.859581090617809
  0
LINE
  5
1D6B
  8
0
  6
CONTINUOUS
 62
     3
 10
689.65834965582235
 20
410.40100935622308
 30
-0.0000000000000166
 11
689.65834965582235
 21
399.27536766000469
 31
-0.000000000000019
210
0.0000000000000002
220
1.0
230
0.0000000000000002
  0
LINE
  5
1D6C
  8
0
  6
CONTINUOUS
 62
     3
 10
588.05834965582267
 20
410.40100935622308
 30
-0.0000000000000166
 11
588.05834965582267
 21
399.27536766000469
 31
-0.000000000000019
210
0.0000000000000002
220
1.0
230
0.0000000000000002
  0
ARC
  5
1D6D
  8
0
  6
CONTINUOUS
 62
     3
 10
-600.0583496558221
 20
399.27536766000452
 30
0.0000000000001077
 40
11.999999999999311
210
0.0
220
0.0000000000000002
230
-1.0
 50
320.3073268493327
 51
0.0
  0
ARC
  5
1D6E
  8
0
  6
CONTINUOUS
 62
     3
 10
-677.65834965582269
 20
399.27536766000458
 30
0.0000000000001077
 40
11.9999999999996
210
0.0
220
0.0000000000000002
230
-1.0
 50
180.0
 51
219.69267315066719
  0
LINE
  5
1D6F
  8
0
  6
CONTINUOUS
 62
     3
 10
594.25710241528191
 20
387.47575921423771
 30
-0.0000000000000216
 11
590.82457486126555
 21
391.6113345805224
 31
-0.0000000000000207
210
0.0000000000000002
220
1.0
230
0.0000000000000002
  0
LINE
  5
1D70
  8
0
  6
CONTINUOUS
 62
     3
 10
683.45959689636334
 20
387.47575921423771
 30
-0.0000000000000216
 11
686.8921244503797
 21
391.6113345805224
 31
-0.0000000000000207
210
0.0000000000000002
220
1.0
230
0.0000000000000002
  0
LINE
  5
1D71
  8
0
  6
VERDECKT
 62
     1
 10
596.35834965582251
 20
384.9441360328633
 30
-0.0000000000000222
 11
681.35834965582274
 21
384.9441360328633
 31
-0.0000000000000222
210
0.0000000000000002
220
1.0
230
0.0000000000000002
  0
LINE
  5
1D72
  8
0
  6
VERDECKT
 62
     1
 10
597.54487098829895
 20
381.97783270167213
 30
-0.0000000000000229
 11
596.35834965582251
 21
384.9441360328633
 31
-0.0000000000000222
210
0.0000000000000002
220
1.0
230
0.0000000000000002
  0
LINE
  5
1D73
  8
0
  6
VERDECKT
 62
     1
 10
680.17182832334618
 20
381.97783270167213
 30
-0.0000000000000229
 11
681.35834965582285
 21
384.9441360328633
 31
-0.0000000000000222
210
0.0000000000000002
220
1.0
230
0.0000000000000002
  0
LINE
  5
1D74
  8
0
  6
VERDECKT
 62
     1
 10
596.35834965582251
 20
384.9441360328633
 30
-0.0000000000000222
 11
594.25710241528191
 21
387.47575921423783
 31
-0.0000000000000216
210
0.0000000000000002
220
1.0
230
0.0000000000000002
  0
LINE
  5
1D75
  8
0
  6
VERDECKT
 62
     1
 10
681.35834965582262
 20
384.94413603286341
 30
-0.0000000000000222
 11
683.45959689636334
 21
387.47575921423783
 31
-0.0000000000000216
210
0.0000000000000002
220
1.0
230
0.0000000000000002
  0
LINE
  5
1D76
  8
0
  6
VERDECKT
 62
     1
 10
596.35834965582262
 20
384.94413603286341
 30
-0.0000000000000222
 11
638.85834965582262
 21
384.9441360328633
 31
-0.0000000000000222
210
0.0000000000000002
220
1.0
230
0.0000000000000002
  0
LINE
  5
1D77
  8
0
  6
VERDECKT
 62
     1
 10
638.85834965582274
 20
384.9441360328633
 30
-0.0000000000000222
 11
681.35834965582262
 21
384.94413603286341
 31
-0.0000000000000222
210
0.0000000000000002
220
1.0
230
0.0000000000000002
  0
ARC
  5
1D78
  8
0
  6
VERDECKT
 62
     1
 10
-582.35834965582069
 20
366.09248796151797
 30
0.0000000000001077
 40
21.200000000001982
210
0.0
220
0.0000000000000002
230
-1.0
 50
158.19859051364631
 51
180.0
  0
ARC
  5
1D79
  8
0
  6
VERDECKT
 62
     1
 10
-695.35834965582148
 20
366.0924879615186
 30
0.0000000000001077
 40
21.199999999998902
210
0.0
220
0.0000000000000002
230
-1.0
 50
0.0
 51
21.801409486353631
  0
LINE
  5
1D7A
  8
0
  6
VERDECKT
 62
     1
 10
602.04205550259019
 20
373.96597030022519
 30
-0.0000000000000246
 11
597.65078920953499
 21
384.94413603286341
 31
-0.0000000000000222
210
0.0000000000000002
220
1.0
230
0.0000000000000002
  0
LINE
  5
1D7B
  8
0
  6
VERDECKT
 62
     1
 10
675.67464380905506
 20
373.96597030022519
 30
-0.0000000000000246
 11
680.06591010211025
 21
384.94413603286341
 31
-0.0000000000000222
210
0.0000000000000002
220
1.0
230
0.0000000000000002
  0
LINE
  5
1D7C
  8
0
  6
VERDECKT
 62
     1
 10
597.54487098829907
 20
381.97783270167213
 30
-0.0000000000000229
 11
596.35834965582262
 21
384.94413603286341
 31
-0.0000000000000222
210
0.0000000000000002
220
1.0
230
0.0000000000000002
  0
LINE
  5
1D7D
  8
0
  6
VERDECKT
 62
     1
 10
680.17182832334595
 20
381.97783270167213
 30
-0.0000000000000229
 11
681.35834965582262
 21
384.94413603286341
 31
-0.0000000000000222
210
0.0000000000000002
220
1.0
230
0.0000000000000002
  0
LINE
  5
1D7E
  8
0
  6
VERDECKT
 62
     1
 10
604.00037677850401
 20
269.94413603286301
 30
-0.0000000000000477
 11
603.55834965582255
 21
274.99652916435213
 31
-0.0000000000000466
210
0.0000000000000002
220
1.0
230
0.0000000000000002
  0
LINE
  5
1D7F
  8
0
  6
VERDECKT
 62
     1
 10
673.71632253314112
 20
269.94413603286301
 30
-0.0000000000000477
 11
674.15834965582246
 21
274.99652916435213
 31
-0.0000000000000466
210
0.0000000000000002
220
1.0
230
0.0000000000000002
  0
LINE
  5
1D80
  8
0
  6
VERDECKT
 62
     1
 10
674.15834965582246
 20
366.0924879615182
 30
-0.0000000000000264
 11
674.15834965582235
 21
274.99652916435213
 31
-0.0000000000000466
210
0.0000000000000002
220
1.0
230
0.0000000000000002
  0
LINE
  5
1D81
  8
0
  6
VERDECKT
 62
     1
 10
603.55834965582278
 20
366.0924879615182
 30
-0.0000000000000264
 11
603.55834965582278
 21
274.99652916435213
 31
-0.0000000000000466
210
0.0000000000000002
220
1.0
230
0.0000000000000002
  0
LINE
  5
1D82
  8
0
  6
VERDECKT
 62
     1
 10
596.35834965582262
 20
384.94413603286341
 30
-0.0000000000000222
 11
638.85834965582262
 21
384.94413603286341
 31
-0.0000000000000222
210
0.0000000000000002
220
1.0
230
0.0000000000000002
  0
LINE
  5
1D83
  8
0
  6
VERDECKT
 62
     1
 10
638.85834965582274
 20
384.94413603286341
 30
-0.0000000000000222
 11
681.35834965582262
 21
384.94413603286341
 31
-0.0000000000000222
210
0.0000000000000002
220
1.0
230
0.0000000000000002
  0
LINE
  5
1D84
  8
0
  6
VERDECKT
 62
     1
 10
596.35834965582262
 20
384.9441360328633
 30
-0.0000000000000222
 11
594.25710241528191
 21
387.47575921423771
 31
-0.0000000000000216
210
0.0000000000000002
220
1.0
230
0.0000000000000002
  0
LINE
  5
1D85
  8
0
  6
VERDECKT
 62
     1
 10
681.35834965582262
 20
384.9441360328633
 30
-0.0000000000000222
 11
683.45959689636334
 21
387.47575921423771
 31
-0.0000000000000216
210
0.0000000000000002
220
1.0
230
0.0000000000000002
  0
LINE
  5
1D86
  8
0
  6
VERDECKT
 62
     1
 10
597.91784188087536
 20
384.94413603286318
 30
-0.0000000000000222
 11
591.74795234072144
 21
392.37773788847062
 31
-0.0000000000000206
210
0.0000000000000002
220
1.0
230
0.0000000000000002
  0
LINE
  5
1D87
  8
0
  6
VERDECKT
 62
     1
 10
679.79885743076989
 20
384.9441360328633
 30
-0.0000000000000222
 11
685.96874697092369
 21
392.37773788847062
 31
-0.0000000000000206
210
0.0000000000000002
220
1.0
230
0.0000000000000002
  0
ARC
  5
1D88
  8
0
  6
VERDECKT
 62
     1
 10
-600.05834965582437
 20
399.27536766000532
 30
0.0000000000001077
 40
10.800000000001519
210
0.0
220
0.0000000000000002
230
-1.0
 50
320.3073268493327
 51
359.99999999999682
  0
ARC
  5
1D89
  8
0
  6
VERDECKT
 62
     1
 10
-677.65834965582224
 20
399.2753676600048
 30
0.0000000000001077
 40
10.80000000000018
210
0.0
220
0.0000000000000002
230
-1.0
 50
180.0
 51
219.69267315066719
  0
LINE
  5
1D8A
  8
0
  6
VERDECKT
 62
     1
 10
688.4583496558223
 20
410.40100935622308
 30
-0.0000000000000166
 11
688.4583496558223
 21
399.27536766000458
 31
-0.000000000000019
210
0.0000000000000002
220
1.0
230
0.0000000000000002
  0
LINE
  5
1D8B
  8
0
  6
VERDECKT
 62
     1
 10
589.25834965582283
 20
410.40100935622308
 30
-0.0000000000000166
 11
589.25834965582283
 21
399.27536766000458
 31
-0.000000000000019
210
0.0000000000000002
220
1.0
230
0.0000000000000002
  0
ARC
  5
1D8C
  8
0
  6
VERDECKT
 62
     1
 10
-580.05834965582358
 20
410.4010093562236
 30
0.0000000000001077
 40
9.1999999999990276
210
0.0
220
0.0000000000000002
230
-1.0
 50
149.14041890937941
 51
180.00000000000321
  0
ARC
  5
1D8D
  8
0
  6
VERDECKT
 62
     1
 10
-697.6583496558244
 20
410.4010093562228
 30
0.0000000000001077
 40
9.2000000000018076
210
0.0
220
0.0000000000000002
230
-1.0
 50
0.0000000000032569
 51
30.859581090617809
  0
ARC
  5
1D8E
  8
0
  6
VERDECKT
 62
     1
 10
-598.85679607855946
 20
421.63364380411718
 30
0.0000000000001077
 40
12.698713764705991
210
0.0
220
0.0000000000000002
230
-1.0
 50
329.14041890938222
 51
0.3717851991131184
  0
ARC
  5
1D8F
  8
0
  6
VERDECKT
 62
     1
 10
-678.85990323308533
 20
421.63364380411741
 30
0.0000000000001077
 40
12.69871376470638
210
0.0
220
0.0000000000000002
230
-1.0
 50
179.62821480088689
 51
210.85958109061781
  0
LINE
  5
1D90
  8
0
  6
VERDECKT
 62
     1
 10
691.55834965582255
 20
437.44093550218179
 30
-0.0000000000000105
 11
691.55834965582255
 21
421.71604360274648
 31
-0.000000000000014
210
0.0000000000000002
220
1.0
230
0.0000000000000002
  0
LINE
  5
1D91
  8
0
  6
VERDECKT
 62
     1
 10
586.15834965582258
 20
437.44093550218179
 30
-0.0000000000000105
 11
586.15834965582258
 21
421.71604360274648
 31
-0.000000000000014
210
0.0000000000000002
220
1.0
230
0.0000000000000002
  0
ARC
  5
1D92
  8
0
  6
VERDECKT
 62
     1
 10
-572.1583496558253
 20
437.44093550218241
 30
0.0000000000001077
 40
13.999999999997501
210
0.0
220
0.0000000000000002
230
-1.0
 50
153.11195238227251
 51
180.00000000000321
  0
ARC
  5
1D93
  8
0
  6
VERDECKT
 62
     1
 10
-705.55834965582176
 20
437.4409355021819
 30
0.0000000000001077
 40
13.99999999999943
210
0.0
220
0.0000000000000002
230
-1.0
 50
0.0
 51
26.888047617724631
  0
ARC
  5
1D94
  8
0
  6
VERDECKT
 62
     1
 10
-605.15834965581871
 20
454.17413603286252
 30
0.0000000000001077
 40
22.999999999996021
210
0.0
220
0.0000000000000002
230
-1.0
 50
333.11195238227248
 51
0.0000000000032569
  0
ARC
  5
1D95
  8
0
  6
VERDECKT
 62
     1
 10
-672.55834965582756
 20
454.17413603286218
 30
0.0000000000001077
 40
22.999999999994891
210
0.0
220
0.0000000000000002
230
-1.0
 50
179.9999999999967
 51
206.88804761772749
  0
LINE
  5
1D96
  8
0
  6
VERDECKT
 62
     1
 10
695.55834965582255
 20
472.74782511521289
 30
-0.0000000000000027
 11
695.55834965582255
 21
454.17413603286332
 31
-0.0000000000000068
210
0.0000000000000002
220
1.0
230
0.0000000000000002
  0
LINE
  5
1D97
  8
0
  6
VERDECKT
 62
     1
 10
582.15834965582258
 20
472.74782511521289
 30
-0.0000000000000027
 11
582.15834965582258
 21
454.17413603286332
 31
-0.0000000000000068
210
0.0000000000000002
220
1.0
230
0.0000000000000002
  0
ARC
  5
1D98
  8
0
  6
VERDECKT
 62
     1
 10
-605.15834965582565
 20
472.74782511521232
 30
0.0000000000001077
 40
23.00000000000307
210
0.0
220
0.0000000000000002
230
-1.0
 50
0.0
 51
32.023995974615978
  0
ARC
  5
1D99
  8
0
  6
VERDECKT
 62
     1
 10
-672.55834965582085
 20
472.74782511521272
 30
0.0000000000001077
 40
23.000000000001702
210
0.0
220
0.0000000000000002
230
-1.0
 50
147.9760040253812
 51
180.0
  0
ENDBLK
  5
1D9B
  8
0
  0
ENDSEC
  0
SECTION
  2
ENTITIES
  0
TEXT
  5
1033
  8
VOLL
 10
1002.145396436767
 20
231.0125615344574
 30
0.0
 40
1.8
  1

  7
GREEKS
  0
TEXT
  5
1521
  8
VOLL
 10
483.06173049486938
 20
329.20685794647392
 30
0.0
 40
1.8
  1

  7
GREEKS
  0
INSERT
  5
1D4A
  8
0
  2
A$C57D11A1E
 10
239.9715006774334
 20
506.75536678477943
 30
-271.37794951240659
  0
INSERT
  5
1D9C
  8
0
  2
A$C270912FA
 10
247.7472854201697
 20
140.9899671856451
 30
-271.37794951240647
  0
VIEWPORT
  5
1908
 67
     1
  8
0
 10
4.4527864856081596
 20
3.3611984449219872
 30
0.0
 40
13.97011526518018
 41
6.584238722660678
 68
     1
 69
     1
1001
ACAD
1000
MVIEW
1002
{
1070
    16
1010
0.0
1020
0.0
1030
0.0
1010
0.0
1020
0.0
1030
1.0
1040
0.0
1040
6.584238722660678
1040
4.4527864856081596
1040
3.3611984449219872
1040
50.0
1040
0.0
1040
0.0
1070
     0
1070
  1500
1070
     1
1070
     1
1070
     0
1070
     0
1070
     0
1070
     0
1040
0.0
1040
0.0
1040
0.0
1040
10.0
1040
10.0
1040
10.0
1040
10.0
1070
     0
1002
{
1002
}
1002
}
  0
ENDSEC
  0
EOF
