  0
SECTION
  2
HEADER
  9
$ACADVER
  1
AC1009
  9
$INSBASE
 10
0.0
 20
0.0
 30
0.0
  9
$EXTMIN
 10
-109.5000000000002984
 20
-319.0000000000005116
 30
-0.0000000000000699
  9
$EXTMAX
 10
111.2929540696568012
 20
314.9999999999997158
 30
0.0
  9
$LIMMIN
 10
0.0
 20
0.0
  9
$LIMMAX
 10
419.9999999999998863
 20
594.0
  9
$ORTHOMODE
 70
     1
  9
$REGENMODE
 70
     1
  9
$FILLMODE
 70
     1
  9
$QTEXTMODE
 70
     0
  9
$MIRRTEXT
 70
     1
  9
$DRAGMODE
 70
     2
  9
$LTSCALE
 40
20.0
  9
$OSMODE
 70
  2559
  9
$ATTMODE
 70
     1
  9
$TEXTSIZE
 40
3.5
  9
$TRACEWID
 40
0.5
  9
$TEXTSTYLE
  7
STANDARD
  9
$CLAYER
  8
STEMPEL
  9
$CELTYPE
  6
BYLAYER
  9
$CECOLOR
 62
   256
  9
$DIMSCALE
 40
2.0
  9
$DIMASZ
 40
3.5
  9
$DIMEXO
 40
1.0
  9
$DIMDLI
 40
7.0
  9
$DIMRND
 40
0.0
  9
$DIMDLE
 40
0.0
  9
$DIMEXE
 40
1.0
  9
$DIMTP
 40
0.0
  9
$DIMTM
 40
0.0
  9
$DIMTXT
 40
3.5
  9
$DIMCEN
 40
1.5
  9
$DIMTSZ
 40
0.0
  9
$DIMTOL
 70
     0
  9
$DIMLIM
 70
     0
  9
$DIMTIH
 70
     0
  9
$DIMTOH
 70
     0
  9
$DIMSE1
 70
     0
  9
$DIMSE2
 70
     0
  9
$DIMTAD
 70
     1
  9
$DIMZIN
 70
     8
  9
$DIMBLK
  1

  9
$DIMASO
 70
     1
  9
$DIMSHO
 70
     0
  9
$DIMPOST
  1

  9
$DIMAPOST
  1

  9
$DIMALT
 70
     0
  9
$DIMALTD
 70
     2
  9
$DIMALTF
 40
25.3999999999999986
  9
$DIMLFAC
 40
1.0
  9
$DIMTOFL
 70
     1
  9
$DIMTVP
 40
0.0
  9
$DIMTIX
 70
     0
  9
$DIMSOXD
 70
     0
  9
$DIMSAH
 70
     0
  9
$DIMBLK1
  1

  9
$DIMBLK2
  1

  9
$DIMSTYLE
  2
STANDARD
  9
$DIMCLRD
 70
     0
  9
$DIMCLRE
 70
     0
  9
$DIMCLRT
 70
     1
  9
$DIMTFAC
 40
0.5142857142857143
  9
$DIMGAP
 40
1.5
  9
$LUNITS
 70
     2
  9
$LUPREC
 70
     2
  9
$SKETCHINC
 40
1.0
  9
$FILLETRAD
 40
0.0
  9
$AUNITS
 70
     0
  9
$AUPREC
 70
     0
  9
$MENU
  1
ACAD
  9
$ELEVATION
 40
0.0
  9
$PELEVATION
 40
0.0
  9
$THICKNESS
 40
0.0
  9
$LIMCHECK
 70
     0
  9
$BLIPMODE
 70
     0
  9
$CHAMFERA
 40
0.0
  9
$CHAMFERB
 40
0.0
  9
$SKPOLY
 70
     0
  9
$TDCREATE
 40
2455397.8646990740671754
  9
$TDUPDATE
 40
2458374.3250347222201526
  9
$TDINDWG
 40
0.2319073843
  9
$TDUSRTIMER
 40
0.2319073843
  9
$USRTIMER
 70
     1
  9
$ANGBASE
 50
0.0
  9
$ANGDIR
 70
     0
  9
$PDMODE
 70
     0
  9
$PDSIZE
 40
0.0
  9
$PLINEWID
 40
0.0
  9
$COORDS
 70
     1
  9
$SPLFRAME
 70
     0
  9
$SPLINETYPE
 70
     6
  9
$SPLINESEGS
 70
     8
  9
$ATTDIA
 70
     1
  9
$ATTREQ
 70
     1
  9
$HANDLING
 70
     1
  9
$HANDSEED
  5
432C
  9
$SURFTAB1
 70
     6
  9
$SURFTAB2
 70
     6
  9
$SURFTYPE
 70
     6
  9
$SURFU
 70
     6
  9
$SURFV
 70
     6
  9
$UCSNAME
  2

  9
$UCSORG
 10
0.0
 20
0.0
 30
0.0
  9
$UCSXDIR
 10
1.0
 20
0.0
 30
0.0
  9
$UCSYDIR
 10
0.0
 20
1.0
 30
0.0
  9
$PUCSNAME
  2

  9
$PUCSORG
 10
0.0
 20
0.0
 30
0.0
  9
$PUCSXDIR
 10
1.0
 20
0.0
 30
0.0
  9
$PUCSYDIR
 10
0.0
 20
1.0
 30
0.0
  9
$USERI1
 70
     0
  9
$USERI2
 70
     0
  9
$USERI3
 70
     0
  9
$USERI4
 70
     0
  9
$USERI5
 70
     0
  9
$USERR1
 40
0.0
  9
$USERR2
 40
0.0
  9
$USERR3
 40
0.0
  9
$USERR4
 40
0.0
  9
$USERR5
 40
0.0
  9
$WORLDVIEW
 70
     1
  9
$SHADEDGE
 70
     3
  9
$SHADEDIF
 70
    70
  9
$TILEMODE
 70
     1
  9
$MAXACTVP
 70
    16
  9
$PLIMCHECK
 70
     0
  9
$PEXTMIN
 10
-0.1378786349720507
 20
-0.1351809361763649
 30
-0.0000000000000058
  9
$PEXTMAX
 10
7.886031708741287
 20
10.9312925170277708
 30
0.0000000000000104
  9
$PLIMMIN
 10
-0.2500002402958907
 20
-0.2499999962453767
  9
$PLIMMAX
 10
10.7499995194082203
 20
8.2499997634587334
  9
$UNITMODE
 70
     0
  9
$VISRETAIN
 70
     0
  9
$PLINEGEN
 70
     0
  9
$PSLTSCALE
 70
     0
  0
ENDSEC
  0
SECTION
  2
TABLES
  0
TABLE
  2
VPORT
 70
     1
  0
VPORT
  2
*ACTIVE
 70
     0
 10
0.0
 20
0.0
 11
1.0
 21
1.0
 12
0.890603164956417
 22
-2.00253185420604
 13
0.0
 23
0.0
 14
1.0
 24
1.0
 15
10.0
 25
10.0
 16
-0.0000000000002523
 26
0.0
 36
1136.0570223207319032
 17
-0.0000000000001137
 27
0.0
 37
157.5
 40
637.2708391758829976
 41
1.868197278911564
 42
50.0
 43
0.0
 44
0.0
 50
0.0
 51
0.0
 71
     0
 72
  1500
 73
     1
 74
     0
 75
     0
 76
     0
 77
     0
 78
     0
  0
ENDTAB
  0
TABLE
  2
LTYPE
 70
     3
  0
LTYPE
  2
CONTINUOUS
 70
     0
  3
Solid line
 72
    65
 73
     0
 40
0.0
  0
LTYPE
  2
STRICHPUNKT
 70
     0
  3
__ . __ . __ . __ . __ . __ . __ . __ . __ . __
 72
    65
 73
     4
 40
1.0
 49
0.5
 49
-0.25
 49
0.0
 49
-0.25
  0
LTYPE
  2
AUSGEZOGEN
 70
     0
  3
Ausgezogene Linie
 72
    65
 73
     0
 40
0.0
  0
ENDTAB
  0
TABLE
  2
LAYER
 70
     5
  0
LAYER
  2
0
 70
     0
 62
     7
  6
CONTINUOUS
  0
LAYER
  2
STEMPEL
 70
     0
 62
     3
  6
CONTINUOUS
  0
LAYER
  2
VOLL
 70
     0
 62
     1
  6
CONTINUOUS
  0
LAYER
  2
TEXT
 70
     0
 62
     7
  6
CONTINUOUS
  0
LAYER
  2
DEFPOINTS
 70
     0
 62
     7
  6
AUSGEZOGEN
  0
ENDTAB
  0
TABLE
  2
STYLE
 70
     3
  0
STYLE
  2
STANDARD
 70
     0
 40
0.0
 41
0.8
 50
0.0
 71
     0
 42
3.5
  3
simplex.shx
  4

  0
STYLE
  2
ANNOTATIVE
 70
     0
 40
0.0
 41
1.0
 50
0.0
 71
     0
 42
0.2
  3
txt
  4

  0
STYLE
  2
GREEKS
 70
     0
 40
0.0
 41
0.8
 50
0.0
 71
     0
 42
2.5
  3
SIMPLEX.shx
  4

  0
ENDTAB
  0
TABLE
  2
VIEW
 70
     0
  0
ENDTAB
  0
TABLE
  2
UCS
 70
     0
  0
ENDTAB
  0
TABLE
  2
APPID
 70
    18
  0
APPID
  2
ACAD
 70
     0
  0
APPID
  2
ACADANNOTATIVE
 70
     0
  0
APPID
  2
ACAD_NAV_VCDISPLAY
 70
     0
  0
APPID
  2
GRADIENTCOLOR1ACI
 70
     0
  0
APPID
  2
GRADIENTCOLOR2ACI
 70
     0
  0
APPID
  2
ACAD_EXEMPT_FROM_CAD_STANDARDS
 70
     0
  0
APPID
  2
ACADANNOMONITORALERTICONDI
 70
     0
  0
APPID
  2
ACAD_DSTYLE_DIMJAG
 70
     0
  0
APPID
  2
ACAD_DSTYLE_DIMTALN
 70
     0
  0
APPID
  2
ACAD_DSTYLE_DIMRADIAL_EXTENSION
 70
     0
  0
APPID
  2
ACAD_MLEADERVER
 70
     0
  0
APPID
  2
ACAD_PSEXT
 70
     0
  0
APPID
  2
ACAECLAYERSTANDARD
 70
     0
  0
APPID
  2
ACCMTRANSPARENCY
 70
     0
  0
APPID
  2
ACAD_OBJECT_CHANGE_GUID
 70
     0
  0
APPID
  2
ACAUTHENVIRON
 70
     0
  0
APPID
  2
ACDBDYNAMICBLOCKTRUENAME
 70
     0
  0
APPID
  2
ACDBDYNAMICBLOCKGUID
 70
     0
  0
ENDTAB
  0
TABLE
  2
DIMSTYLE
 70
     2
  0
DIMSTYLE
  2
STANDARD
 70
     0
  3

  4

  5

  6

  7

 40
1.0
 41
0.18
 42
0.0625
 43
0.38
 44
0.18
 45
0.0
 46
0.0
 47
0.0
 48
0.0
140
0.18
141
0.09
142
0.0
143
25.3999999999999986
144
1.0
145
0.0
146
1.0
147
0.09
 71
     0
 72
     0
 73
     1
 74
     1
 75
     0
 76
     0
 77
     0
 78
     0
170
     0
171
     2
172
     0
173
     0
174
     0
175
     0
176
     0
177
     0
178
     0
  0
DIMSTYLE
  2
ANNOTATIVE
 70
     0
  3

  4

  5

  6

  7

 40
1.0
 41
0.18
 42
0.0625
 43
0.38
 44
0.18
 45
0.0
 46
0.0
 47
0.0
 48
0.0
140
0.18
141
0.09
142
0.0
143
25.3999999999999986
144
1.0
145
0.0
146
1.0
147
0.09
 71
     0
 72
     0
 73
     1
 74
     1
 75
     0
 76
     0
 77
     0
 78
     0
170
     0
171
     2
172
     0
173
     0
174
     0
175
     0
176
     0
177
     0
178
     0
  0
ENDTAB
  0
ENDSEC
  0
SECTION
  2
BLOCKS
  0
BLOCK
  8
0
  2
$MODEL_SPACE
 70
     0
 10
0.0
 20
0.0
 30
0.0
  3
$MODEL_SPACE
  1

  0
ENDBLK
  5
4254
  8
0
  0
BLOCK
 67
     1
  8
0
  2
$PAPER_SPACE
 70
     0
 10
0.0
 20
0.0
 30
0.0
  3
$PAPER_SPACE
  1

  0
ENDBLK
  5
4250
 67
     1
  8
0
  0
BLOCK
  8
0
  2
A$C408D6CD0
 70
     0
 10
0.0
 20
0.0
 30
0.0
  3
A$C408D6CD0
  1

  0
LINE
  5
4100
  8
0
  6
CONTINUOUS
 62
     3
 10
-86.2067558379248737
 20
314.9999999999997158
 30
-0.0000000000000699
 11
86.2067558379248737
 21
314.9999999999997158
 31
-0.0000000000000699
210
0.0
220
1.0
230
-0.0000000000000002
  0
LINE
  5
4101
  8
0
  6
CONTINUOUS
 62
     3
 10
-88.0000000000003268
 20
176.999999999999801
 30
-0.0000000000000393
 11
88.0000000000003268
 21
176.999999999999801
 31
-0.0000000000000393
210
0.0
220
1.0
230
-0.0000000000000002
  0
LINE
  5
4102
  8
0
  6
CONTINUOUS
 62
     3
 10
86.2067558379249306
 20
314.9999999999997158
 30
-0.0000000000000699
 11
86.7676186527667141
 21
313.7972258121150162
 31
-0.0000000000000697
210
0.0
220
1.0
230
-0.0000000000000002
  0
LINE
  5
4103
  8
0
  6
CONTINUOUS
 62
     3
 10
-86.2067558379249306
 20
314.9999999999997158
 30
-0.0000000000000699
 11
-86.7676186527667141
 21
313.7972258121150162
 31
-0.0000000000000697
210
0.0
220
1.0
230
-0.0000000000000002
  0
ARC
  5
4104
  8
0
  6
CONTINUOUS
 62
     3
 10
55.5000000000004619
 20
299.2168957820661035
 30
0.0
 40
34.4999999999994316
210
0.0
220
-0.0000000000000002
230
-1.0
 50
0.0
 51
24.9999999999908908
  0
ARC
  5
4105
  8
0
  6
CONTINUOUS
 62
     3
 10
-55.5000000000001776
 20
299.2168957820661035
 30
0.0
 40
34.4999999999996874
210
0.0
220
-0.0000000000000002
230
-1.0
 50
155.0000000000092086
 51
180.0
  0
LINE
  5
4106
  8
0
  6
CONTINUOUS
 62
     3
 10
89.9999999999998721
 20
299.2168957820661035
 30
-0.0000000000000664
 11
89.9999999999998721
 21
283.3662001593482955
 31
-0.0000000000000629
210
0.0
220
1.0
230
-0.0000000000000002
  0
LINE
  5
4107
  8
0
  6
CONTINUOUS
 62
     3
 10
-89.9999999999998721
 20
299.2168957820661035
 30
-0.0000000000000664
 11
-89.9999999999998721
 21
283.3662001593482955
 31
-0.0000000000000629
210
0.0
220
1.0
230
-0.0000000000000002
  0
ARC
  5
4108
  8
0
  6
CONTINUOUS
 62
     3
 10
56.8763892487041574
 20
282.6709860062085795
 30
0.0
 40
33.1309056912436404
210
0.0
220
-0.0000000000000002
230
-1.0
 50
332.0857523520512018
 51
1.202374634641137
  0
ARC
  5
4109
  8
0
  6
CONTINUOUS
 62
     3
 10
-56.8763892487045908
 20
282.6709860062085795
 30
0.0
 40
33.1309056912432212
210
0.0
220
-0.0000000000000002
230
-1.0
 50
178.797625365358698
 51
207.9142476479491108
  0
ARC
  5
410A
  8
0
  6
CONTINUOUS
 62
     3
 10
102.5000000000007958
 20
258.4999999999993747
 30
0.0
 40
18.5000000000009308
210
0.0
220
-0.0000000000000002
230
-1.0
 50
152.0857523520523102
 51
179.9999999999988063
  0
ARC
  5
410B
  8
0
  6
CONTINUOUS
 62
     3
 10
-102.5000000000007958
 20
258.4999999999993747
 30
0.0
 40
18.5000000000009308
210
0.0
220
-0.0000000000000002
230
-1.0
 50
0.0000000000012341
 51
27.9142476479477217
  0
LINE
  5
410C
  8
0
  6
CONTINUOUS
 62
     3
 10
83.9999999999998721
 20
258.4999999999997158
 30
-0.0000000000000574
 11
83.9999999999998721
 21
243.4409715080668093
 31
-0.0000000000000541
210
0.0
220
1.0
230
-0.0000000000000002
  0
LINE
  5
410D
  8
0
  6
CONTINUOUS
 62
     3
 10
-83.9999999999998721
 20
258.4999999999997158
 30
-0.0000000000000574
 11
-83.9999999999998721
 21
243.4409715080668093
 31
-0.0000000000000541
210
0.0
220
1.0
230
-0.0000000000000002
  0
ARC
  5
410E
  8
0
  6
CONTINUOUS
 62
     3
 10
66.4999999999968452
 20
243.4409715080678041
 30
0.0
 40
17.5000000000030305
210
0.0
220
-0.0000000000000002
230
-1.0
 50
327.0647695028450244
 51
359.9999999999968736
  0
ARC
  5
410F
  8
0
  6
CONTINUOUS
 62
     3
 10
-66.4999999999968452
 20
243.4409715080678041
 30
0.0
 40
17.5000000000030091
210
0.0
220
-0.0000000000000002
230
-1.0
 50
180.0000000000030127
 51
212.9352304971548051
  0
ARC
  5
4110
  8
0
  6
CONTINUOUS
 62
     3
 10
90.0000000000008242
 20
228.2176341604283891
 30
0.0
 40
10.5000000000009504
210
0.0
220
-0.0000000000000002
230
-1.0
 50
147.0647695028469002
 51
179.9999999999988063
  0
ARC
  5
4111
  8
0
  6
CONTINUOUS
 62
     3
 10
-90.0000000000008242
 20
228.2176341604283891
 30
0.0
 40
10.5000000000009308
210
0.0
220
-0.0000000000000002
230
-1.0
 50
0.0000000000010941
 51
32.9352304971530785
  0
LINE
  5
4112
  8
0
  6
CONTINUOUS
 62
     3
 10
79.5000000000001137
 20
228.2176341604285028
 30
-0.0000000000000507
 11
79.5000000000001137
 21
194.9002956890153087
 31
-0.0000000000000433
210
0.0
220
1.0
230
-0.0000000000000002
  0
LINE
  5
4113
  8
0
  6
CONTINUOUS
 62
     3
 10
-79.5000000000001137
 20
228.2176341604285028
 30
-0.0000000000000507
 11
-79.5000000000001137
 21
194.9002956890153087
 31
-0.0000000000000433
210
0.0
220
1.0
230
-0.0000000000000002
  0
ARC
  5
4114
  8
0
  6
CONTINUOUS
 62
     3
 10
89.4999999999991331
 20
194.9002956890151097
 30
0.0
 40
9.9999999999989466
210
0.0
220
-0.0000000000000002
230
-1.0
 50
179.9999999999982094
 51
209.0377541417875875
  0
ARC
  5
4115
  8
0
  6
CONTINUOUS
 62
     3
 10
-89.4999999999995595
 20
194.900295689015195
 30
0.0
 40
9.9999999999993427
210
0.0
220
-0.0000000000000002
230
-1.0
 50
330.9622458582130093
 51
0.0000000000012977
  0
LINE
  5
4116
  8
0
  6
CONTINUOUS
 62
     3
 10
80.7569994029616964
 20
190.0464373721517859
 30
-0.0000000000000422
 11
88.0000000000003268
 21
176.999999999999801
 31
-0.0000000000000393
210
0.0
220
1.0
230
-0.0000000000000002
  0
LINE
  5
4117
  8
0
  6
CONTINUOUS
 62
     3
 10
-80.7569994029616964
 20
190.0464373721517859
 30
-0.0000000000000422
 11
-88.0000000000003268
 21
176.999999999999801
 31
-0.0000000000000393
210
0.0
220
1.0
230
-0.0000000000000002
  0
LINE
  5
4118
  8
0
  6
CONTINUOUS
 62
     3
 10
108.6251133647405993
 20
-0.0000000000000853
 30
0.0
 11
-108.6251133647405993
 21
0.0000000000000284
 31
0.0
210
0.0
220
1.0
230
-0.0000000000000002
  0
LINE
  5
4119
  8
0
  6
CONTINUOUS
 62
     3
 10
88.0000000000004547
 20
176.999999999999801
 30
-0.0000000000000393
 11
-88.000000000000199
 21
177.0
 31
-0.0000000000000393
210
0.0
220
1.0
230
-0.0000000000000002
  0
LINE
  5
411A
  8
0
  6
CONTINUOUS
 62
     3
 10
-108.6251133647407983
 20
0.0000000000000231
 30
0.0
 11
-109.5000000000002984
 21
10.0000000000003908
 31
-0.0000000000000022
210
0.0
220
1.0
230
-0.0000000000000002
  0
LINE
  5
411B
  8
0
  6
CONTINUOUS
 62
     3
 10
108.6251133647407983
 20
-0.0000000000000444
 30
0.0
 11
109.5000000000002984
 21
10.0000000000003304
 31
-0.0000000000000022
210
0.0
220
1.0
230
-0.0000000000000002
  0
LINE
  5
411C
  8
0
  6
CONTINUOUS
 62
     3
 10
-109.500000000000199
 20
10.0000000000003997
 30
-0.0000000000000022
 11
-109.500000000000199
 21
131.136773045890493
 31
-0.0000000000000291
210
0.0
220
1.0
230
-0.0000000000000002
  0
LINE
  5
411D
  8
0
  6
CONTINUOUS
 62
     3
 10
109.500000000000199
 20
10.0000000000003304
 30
-0.0000000000000022
 11
109.500000000000199
 21
131.136773045890493
 31
-0.0000000000000291
210
0.0
220
1.0
230
-0.0000000000000002
  0
ARC
  5
411E
  8
0
  6
CONTINUOUS
 62
     3
 10
-91.4999999999993889
 20
131.1367730458902088
 30
0.0
 40
18.0000000000008491
210
0.0
220
-0.0000000000000002
230
-1.0
 50
152.598502009343008
 51
179.9999999999992895
  0
ARC
  5
411F
  8
0
  6
CONTINUOUS
 62
     3
 10
91.4999999999993605
 20
131.1367730458904077
 30
0.0
 40
18.0000000000008917
210
0.0
220
-0.0000000000000002
230
-1.0
 50
0.0
 51
27.4014979906562814
  0
LINE
  5
4120
  8
0
  6
CONTINUOUS
 62
     3
 10
88.0000000000002558
 20
176.999999999999801
 30
-0.0000000000000393
 11
107.4804603534569054
 21
139.420786981875807
 31
-0.000000000000031
210
0.0
220
1.0
230
-0.0000000000000002
  0
LINE
  5
4121
  8
0
  6
CONTINUOUS
 62
     3
 10
-88.000000000000199
 20
176.999999999999801
 30
-0.0000000000000393
 11
-107.4804603534569054
 21
139.420786981875807
 31
-0.000000000000031
210
0.0
220
1.0
230
-0.0000000000000002
  0
LINE
  5
4122
  8
0
  6
STRICHPUNKT
 62
     1
 10
79.008399283554013
 20
189.0756657087792121
 30
-0.000000000000042
 11
85.7124558350400321
 21
176.999999999999801
 31
-0.0000000000000393
210
0.0
220
1.0
230
-0.0000000000000002
  0
LINE
  5
4123
  8
0
  6
STRICHPUNKT
 62
     1
 10
-79.008399283554013
 20
189.0756657087792121
 30
-0.000000000000042
 11
-85.7124558350400321
 21
176.999999999999801
 31
-0.0000000000000393
210
0.0
220
1.0
230
-0.0000000000000002
  0
ARC
  5
4124
  8
0
  6
STRICHPUNKT
 62
     1
 10
89.4999999999991047
 20
194.9002956890157066
 30
0.0
 40
11.9999999999992308
210
0.0
220
-0.0000000000000002
230
-1.0
 50
180.0000000000015064
 51
209.0377541417902876
  0
ARC
  5
4125
  8
0
  6
STRICHPUNKT
 62
     1
 10
-89.4999999999991047
 20
194.9002956890157066
 30
0.0
 40
11.9999999999992308
210
0.0
220
-0.0000000000000002
230
-1.0
 50
330.9622458582097124
 51
359.9999999999984084
  0
LINE
  5
4126
  8
0
  6
STRICHPUNKT
 62
     1
 10
77.4999999999998721
 20
227.70577445755589
 30
-0.0000000000000506
 11
77.4999999999998721
 21
194.9002956890153087
 31
-0.0000000000000433
210
0.0
220
1.0
230
-0.0000000000000002
  0
LINE
  5
4127
  8
0
  6
STRICHPUNKT
 62
     1
 10
-77.4999999999998721
 20
227.70577445755589
 30
-0.0000000000000506
 11
-77.4999999999998721
 21
194.9002956890153087
 31
-0.0000000000000433
210
0.0
220
1.0
230
-0.0000000000000002
  0
ARC
  5
4128
  8
0
  6
STRICHPUNKT
 62
     1
 10
90.0480699219364453
 20
228.1864943886025969
 30
0.0
 40
12.5572748006051693
210
0.0
220
-0.0000000000000002
230
-1.0
 50
147.0647695028430917
 51
182.1939437979530112
  0
ARC
  5
4129
  8
0
  6
STRICHPUNKT
 62
     1
 10
-90.0480699219365732
 20
228.1864943886025969
 30
0.0
 40
12.5572748006053292
210
0.0
220
-0.0000000000000002
230
-1.0
 50
357.8060562020472162
 51
32.9352304971566525
  0
ARC
  5
412A
  8
0
  6
STRICHPUNKT
 62
     1
 10
66.4999999999998437
 20
243.4409715080668093
 30
0.0
 40
15.5000000000000302
210
0.0
220
-0.0000000000000002
230
-1.0
 50
327.0647695028441149
 51
359.9999999999997158
  0
ARC
  5
412B
  8
0
  6
STRICHPUNKT
 62
     1
 10
-66.4999999999998437
 20
243.4409715080668093
 30
0.0
 40
15.5000000000000409
210
0.0
220
-0.0000000000000002
230
-1.0
 50
180.0000000000001137
 51
212.9352304971557999
  0
LINE
  5
412C
  8
0
  6
STRICHPUNKT
 62
     1
 10
81.9999999999998579
 20
258.4999999999997158
 30
-0.0000000000000574
 11
81.9999999999998579
 21
243.4409715080668093
 31
-0.0000000000000541
210
0.0
220
1.0
230
-0.0000000000000002
  0
LINE
  5
412D
  8
0
  6
STRICHPUNKT
 62
     1
 10
-81.9999999999998579
 20
258.4999999999997158
 30
-0.0000000000000574
 11
-81.9999999999998579
 21
243.4409715080668093
 31
-0.0000000000000541
210
0.0
220
1.0
230
-0.0000000000000002
  0
ARC
  5
412E
  8
0
  6
STRICHPUNKT
 62
     1
 10
103.3670751972941986
 20
258.2847434141110057
 30
0.0
 40
21.3681594407334217
210
0.0
220
-0.0000000000000002
230
-1.0
 50
152.6928769931884062
 51
179.4228093194545011
  0
ARC
  5
412F
  8
0
  6
STRICHPUNKT
 62
     1
 10
-103.3670751972941986
 20
258.2847434141110057
 30
0.0
 40
21.368159440733411
210
0.0
220
-0.0000000000000002
230
-1.0
 50
0.5771906805454332
 51
27.3071230068115689
  0
ARC
  5
4130
  8
0
  6
STRICHPUNKT
 62
     1
 10
55.5019723202408173
 20
282.997301519282189
 30
0.0
 40
32.5000000000009521
210
0.0
220
-0.0000000000000002
230
-1.0
 50
332.6928769931894863
 51
0.0069680778714238
  0
ARC
  5
4131
  8
0
  6
STRICHPUNKT
 62
     1
 10
-55.5019723202411015
 20
282.9973015192820753
 30
0.0
 40
32.5000000000006608
210
0.0
220
-0.0000000000000002
230
-1.0
 50
179.9930319221282957
 51
207.3071230068105137
  0
LINE
  5
4132
  8
0
  6
STRICHPUNKT
 62
     1
 10
87.9999999999998153
 20
299.2168957820661035
 30
-0.0000000000000664
 11
88.0019720798972287
 21
283.001254036067678
 31
-0.0000000000000628
210
0.0
220
1.0
230
-0.0000000000000002
  0
LINE
  5
4133
  8
0
  6
STRICHPUNKT
 62
     1
 10
-87.9999999999998153
 20
299.2168957820661035
 30
-0.0000000000000664
 11
-88.0019720798972287
 21
283.001254036067678
 31
-0.0000000000000628
210
0.0
220
1.0
230
-0.0000000000000002
  0
ARC
  5
4134
  8
0
  6
STRICHPUNKT
 62
     1
 10
55.5000000000262332
 20
299.2168957820719015
 30
0.0
 40
32.4999999999736175
210
0.0
220
-0.0000000000000002
230
-1.0
 50
359.9999999999897113
 51
25.0000000000008313
  0
ARC
  5
4135
  8
0
  6
STRICHPUNKT
 62
     1
 10
-55.5000000000262332
 20
299.2168957820719015
 30
0.0
 40
32.4999999999736318
210
0.0
220
-0.0000000000000002
230
-1.0
 50
154.9999999999992042
 51
180.0000000000102887
  0
LINE
  5
4136
  8
0
  6
STRICHPUNKT
 62
     1
 10
83.9999999999998721
 20
314.9999999999997158
 30
-0.0000000000000699
 11
84.9550030786932666
 21
312.9519892886339107
 31
-0.0000000000000695
210
0.0
220
1.0
230
-0.0000000000000002
  0
LINE
  5
4137
  8
0
  6
STRICHPUNKT
 62
     1
 10
-83.9999999999998721
 20
314.9999999999997158
 30
-0.0000000000000699
 11
-84.9550030786932666
 21
312.9519892886339107
 31
-0.0000000000000695
210
0.0
220
1.0
230
-0.0000000000000002
  0
LINE
  5
4138
  8
0
  6
STRICHPUNKT
 62
     1
 10
85.7472488774574231
 20
176.999999999999801
 30
-0.0000000000000393
 11
105.7048536475171971
 21
138.500340988988512
 31
-0.0000000000000308
210
0.0
220
1.0
230
-0.0000000000000002
  0
LINE
  5
4139
  8
0
  6
STRICHPUNKT
 62
     1
 10
-85.7472488774573947
 20
176.999999999999801
 30
-0.0000000000000393
 11
-105.7048536475172966
 21
138.5003409889885972
 31
-0.0000000000000308
210
0.0
220
1.0
230
-0.0000000000000002
  0
ARC
  5
413A
  8
0
  6
STRICHPUNKT
 62
     1
 10
-91.5000000000012363
 20
131.1367730458906919
 30
0.0
 40
15.9999999999990195
210
0.0
220
-0.0000000000000002
230
-1.0
 50
152.5985020093415017
 51
180.0000000000007105
  0
ARC
  5
413B
  8
0
  6
STRICHPUNKT
 62
     1
 10
91.5000000000010232
 20
131.1367730458906919
 30
0.0
 40
15.9999999999992504
210
0.0
220
-0.0000000000000002
230
-1.0
 50
0.0
 51
27.4014979906588394
  0
LINE
  5
413C
  8
0
  6
STRICHPUNKT
 62
     1
 10
-107.5000000000000995
 20
10.0873218858165501
 30
-0.0000000000000022
 11
-107.5000000000000995
 21
131.136773045890493
 31
-0.0000000000000291
210
0.0
220
1.0
230
-0.0000000000000002
  0
LINE
  5
413D
  8
0
  6
STRICHPUNKT
 62
     1
 10
107.5000000000000995
 20
10.0873218858164808
 30
-0.0000000000000022
 11
107.5000000000000995
 21
131.136773045890493
 31
-0.0000000000000291
210
0.0
220
1.0
230
-0.0000000000000002
  0
LINE
  5
413E
  8
0
  6
STRICHPUNKT
 62
     1
 10
-106.6174736896541049
 20
0.000000000000024
 30
0.0
 11
-107.5
 21
10.0873218858165501
 31
-0.0000000000000022
210
0.0
220
1.0
230
-0.0000000000000002
  0
LINE
  5
413F
  8
0
  6
STRICHPUNKT
 62
     1
 10
106.6174736896541049
 20
-0.0000000000000426
 30
0.0
 11
107.5
 21
10.0873218858164808
 31
-0.0000000000000022
210
0.0
220
1.0
230
-0.0000000000000002
  0
ENDBLK
  5
4141
  8
0
  0
BLOCK
  8
0
  2
A$C53364FEC
 70
     0
 10
0.0
 20
0.0
 30
0.0
  3
A$C53364FEC
  1

  0
CIRCLE
  5
415C
  8
0
  6
CONTINUOUS
 62
     3
 10
0.0
 20
0.0
 30
0.0
 40
81.9999999999998579
  0
CIRCLE
  5
415D
  8
0
  6
CONTINUOUS
 62
     3
 10
0.0
 20
0.0
 30
0.0
 40
83.9999999999998721
  0
CIRCLE
  5
415E
  8
0
  6
CONTINUOUS
 62
     3
 10
0.0
 20
0.0
 30
0.0
 40
86.2067558379248737
  0
CIRCLE
  5
415F
  8
0
  6
CONTINUOUS
 62
     3
 10
0.0
 20
0.0
 30
0.0
 40
89.9999999999998721
  0
CIRCLE
  5
4160
  8
0
  6
CONTINUOUS
 62
     3
 10
0.0
 20
0.0
 30
0.0
 40
77.49079512133126
  0
CIRCLE
  5
4161
  8
0
  6
CONTINUOUS
 62
     3
 10
0.0
 20
0.0
 30
0.0
 40
90.0072949399477835
  0
CIRCLE
  5
4162
  8
0
  6
CONTINUOUS
 62
     3
 10
0.0
 20
0.0
 30
0.0
 40
109.500000000000199
  0
CIRCLE
  5
4163
  8
0
  6
STRICHPUNKT
 62
     1
 10
0.0
 20
0.0
 30
0.0
 40
85.7124558350400321
  0
CIRCLE
  5
4164
  8
0
  6
STRICHPUNKT
 62
     1
 10
0.0
 20
0.0
 30
0.0
 40
77.4999999999998721
  0
CIRCLE
  5
4165
  8
0
  6
STRICHPUNKT
 62
     1
 10
0.0
 20
0.0
 30
0.0
 40
79.4999999999998721
  0
CIRCLE
  5
4166
  8
0
  6
STRICHPUNKT
 62
     1
 10
0.0
 20
0.0
 30
0.0
 40
88.0000000000003268
  0
CIRCLE
  5
4167
  8
0
  6
STRICHPUNKT
 62
     1
 10
0.0
 20
0.0
 30
0.0
 40
88.0019723202417339
  0
CIRCLE
  5
4168
  8
0
  6
STRICHPUNKT
 62
     1
 10
0.0
 20
0.0
 30
0.0
 40
108.6251133647405993
  0
CIRCLE
  5
4169
  8
0
  6
STRICHPUNKT
 62
     1
 10
0.0
 20
0.0
 30
0.0
 40
88.0000000000002842
  0
CIRCLE
  5
416A
  8
0
  6
STRICHPUNKT
 62
     1
 10
0.0
 20
0.0
 30
0.0
 40
85.7472488774574799
  0
CIRCLE
  5
416B
  8
0
  6
STRICHPUNKT
 62
     1
 10
0.0
 20
0.0
 30
0.0
 40
107.500000000000199
  0
CIRCLE
  5
416C
  8
0
  6
STRICHPUNKT
 62
     1
 10
0.0
 20
0.0
 30
0.0
 40
106.6174736896540054
  0
ENDBLK
  5
4157
  8
0
  0
ENDSEC
  0
SECTION
  2
ENTITIES
  0
TEXT
  5
8F
  8
VOLL
 10
78.076754716981128
 20
31.025947764705851
 30
0.0
 40
1.8
  1

  7
GREEKS
  0
TEXT
  5
39AC
  8
TEXT
 62
     1
 10
371.1516896065722904
 20
62.7748753421460606
 30
0.0
 40
7.0
  1

 41
0.8
  7
GREEKS
 72
     1
 11
371.1516896065722904
 21
62.7748753421460606
 31
0.0
  0
TEXT
  5
3BFB
  8
VOLL
 10
750.2303646338516501
 20
454.1898948186029088
 30
0.0
 40
1.8
  1

  7
GREEKS
  0
TEXT
  5
3BFC
  8
TEXT
 62
     1
 10
1039.4013273711370857
 20
485.7707773720313753
 30
0.0
 40
7.0
  1

 41
0.8
  7
GREEKS
 72
     1
 11
1039.4013273711370857
 21
485.7707773720313753
 31
0.0
  0
INSERT
  5
4142
  8
STEMPEL
  2
A$C408D6CD0
 10
0.0
 20
0.0
 30
0.0
  0
INSERT
  5
4158
  8
STEMPEL
  2
A$C53364FEC
 10
-0.0000000000000067
 20
-209.500000000000199
 30
0.0
  0
VIEWPORT
  5
3DCE
 67
     1
  8
0
 10
3.8736877696049481
 20
5.3977890234647647
 30
0.0
 40
19.63313763401203
 41
11.14630323843312
 68
     1
 69
     1
1001
ACAD
1000
MVIEW
1002
{
1070
    16
1010
0.0
1020
0.0
1030
0.0
1010
0.0
1020
0.0
1030
1.0
1040
0.0
1040
11.14630323843312
1040
3.8736877696049481
1040
5.3977890234647647
1040
50.0
1040
0.0
1040
0.0
1070
     0
1070
  1500
1070
     1
1070
     1
1070
     0
1070
     0
1070
     0
1070
     0
1040
0.0
1040
0.0
1040
0.0
1040
10.0
1040
10.0
1040
10.0
1040
10.0
1070
     0
1002
{
1002
}
1002
}
  0
VIEWPORT
  5
3DD2
 67
     1
  8
DEFPOINTS
 10
3.8740125670676719
 20
5.3977455595720141
 30
0.0
 40
8.0235448446172484
 41
11.0655308618355104
 68
     2
 69
     2
1001
ACAD
1000
MVIEW
1002
{
1070
    16
1010
856.7189522577934895
1020
395.6913594155956275
1030
-26.5686011763615184
1010
0.0
1020
0.0
1030
1.0
1040
0.0
1040
620.079155812203453
1040
-642.7616275318260932
1040
-95.8622860720828669
1040
50.0
1040
0.0
1040
0.0
1070
     0
1070
  1500
1070
     1
1070
     0
1070
     0
1070
     0
1070
     0
1070
     0
1040
0.0
1040
0.0
1040
0.0
1040
1.0
1040
1.0
1040
10.0
1040
10.0
1070
     0
1002
{
1002
}
1002
}
  0
VIEWPORT
  5
3DD6
 67
     1
  8
DEFPOINTS
 10
4.2163009107999763
 20
3.0312013977963441
 30
0.0
 40
1.6151675787160471
 41
1.7575605416275251
 68
     3
 69
     3
1001
ACAD
1000
MVIEW
1002
{
1070
    16
1010
710.7586015995892694
1020
358.0723930537416209
1030
-23.8002420937986301
1010
0.0
1020
137.1592224482683946
1030
828.2438997212898357
1040
3.1501267244120581
1040
390.1140729360856767
1040
0.0
1040
0.0
1040
50.0
1040
0.0
1040
0.0
1070
     0
1070
  1500
1070
     1
1070
     0
1070
     0
1070
     0
1070
     0
1070
     0
1040
0.0
1040
0.0
1040
0.0
1040
1.0
1040
1.0
1040
10.0
1040
10.0
1070
     0
1002
{
1002
}
1002
}
  0
ENDSEC
  0
EOF
