  0
SECTION
  2
HEADER
  9
$ACADVER
  1
AC1009
  9
$INSBASE
 10
214.1896305907800127
 20
83.9878893283155321
 30
0.0
  9
$EXTMIN
 10
-50.8000000000000469
 20
-150.8000000000000114
 30
-0.0000000000000433
  9
$EXTMAX
 10
50.8000000000000824
 20
195.0
 30
0.0
  9
$LIMMIN
 10
0.0
 20
0.0
  9
$LIMMAX
 10
594.0
 20
840.0000000000002274
  9
$ORTHOMODE
 70
     1
  9
$REGENMODE
 70
     1
  9
$FILLMODE
 70
     1
  9
$QTEXTMODE
 70
     0
  9
$MIRRTEXT
 70
     1
  9
$DRAGMODE
 70
     2
  9
$LTSCALE
 40
20.0
  9
$OSMODE
 70
   511
  9
$ATTMODE
 70
     1
  9
$TEXTSIZE
 40
3.5
  9
$TRACEWID
 40
1.0
  9
$TEXTSTYLE
  7
STANDARD
  9
$CLAYER
  8
STEMPEL
  9
$CELTYPE
  6
BYLAYER
  9
$CECOLOR
 62
   256
  9
$DIMSCALE
 40
1.0
  9
$DIMASZ
 40
3.5
  9
$DIMEXO
 40
1.0
  9
$DIMDLI
 40
0.38
  9
$DIMRND
 40
0.0
  9
$DIMDLE
 40
0.0
  9
$DIMEXE
 40
1.0
  9
$DIMTP
 40
0.0
  9
$DIMTM
 40
0.000000001
  9
$DIMTXT
 40
3.5
  9
$DIMCEN
 40
0.09
  9
$DIMTSZ
 40
0.0
  9
$DIMTOL
 70
     0
  9
$DIMLIM
 70
     0
  9
$DIMTIH
 70
     0
  9
$DIMTOH
 70
     0
  9
$DIMSE1
 70
     0
  9
$DIMSE2
 70
     0
  9
$DIMTAD
 70
     1
  9
$DIMZIN
 70
     8
  9
$DIMBLK
  1

  9
$DIMASO
 70
     1
  9
$DIMSHO
 70
     0
  9
$DIMPOST
  1

  9
$DIMAPOST
  1

  9
$DIMALT
 70
     0
  9
$DIMALTD
 70
     2
  9
$DIMALTF
 40
25.3999999999999986
  9
$DIMLFAC
 40
2.0
  9
$DIMTOFL
 70
     1
  9
$DIMTVP
 40
0.0
  9
$DIMTIX
 70
     0
  9
$DIMSOXD
 70
     0
  9
$DIMSAH
 70
     0
  9
$DIMBLK1
  1

  9
$DIMBLK2
  1

  9
$DIMSTYLE
  2
LORO
  9
$DIMCLRD
 70
     0
  9
$DIMCLRE
 70
     0
  9
$DIMCLRT
 70
     1
  9
$DIMTFAC
 40
0.5
  9
$DIMGAP
 40
1.5
  9
$LUNITS
 70
     2
  9
$LUPREC
 70
     2
  9
$SKETCHINC
 40
1.0
  9
$FILLETRAD
 40
1.5
  9
$AUNITS
 70
     0
  9
$AUPREC
 70
     0
  9
$MENU
  1
ACAD
  9
$ELEVATION
 40
0.0
  9
$PELEVATION
 40
0.0
  9
$THICKNESS
 40
0.0
  9
$LIMCHECK
 70
     0
  9
$BLIPMODE
 70
     0
  9
$CHAMFERA
 40
0.0
  9
$CHAMFERB
 40
0.0
  9
$SKPOLY
 70
     0
  9
$TDCREATE
 40
2450568.9433217588812113
  9
$TDUPDATE
 40
2459978.5310069448314607
  9
$TDINDWG
 40
2.2045603125
  9
$TDUSRTIMER
 40
2.2045603125
  9
$USRTIMER
 70
     1
  9
$ANGBASE
 50
0.0
  9
$ANGDIR
 70
     0
  9
$PDMODE
 70
     0
  9
$PDSIZE
 40
0.0
  9
$PLINEWID
 40
0.0
  9
$COORDS
 70
     1
  9
$SPLFRAME
 70
     0
  9
$SPLINETYPE
 70
     6
  9
$SPLINESEGS
 70
     8
  9
$ATTDIA
 70
     1
  9
$ATTREQ
 70
     1
  9
$HANDLING
 70
     1
  9
$HANDSEED
  5
15085
  9
$SURFTAB1
 70
     6
  9
$SURFTAB2
 70
     6
  9
$SURFTYPE
 70
     6
  9
$SURFU
 70
     6
  9
$SURFV
 70
     6
  9
$UCSNAME
  2

  9
$UCSORG
 10
0.0
 20
0.0
 30
0.0
  9
$UCSXDIR
 10
1.0
 20
0.0
 30
0.0
  9
$UCSYDIR
 10
0.0
 20
1.0
 30
0.0
  9
$PUCSNAME
  2

  9
$PUCSORG
 10
0.0
 20
0.0
 30
0.0
  9
$PUCSXDIR
 10
1.0
 20
0.0
 30
0.0
  9
$PUCSYDIR
 10
0.0
 20
1.0
 30
0.0
  9
$USERI1
 70
     0
  9
$USERI2
 70
     0
  9
$USERI3
 70
     0
  9
$USERI4
 70
     0
  9
$USERI5
 70
     0
  9
$USERR1
 40
0.0
  9
$USERR2
 40
0.0
  9
$USERR3
 40
0.0
  9
$USERR4
 40
0.0
  9
$USERR5
 40
0.0
  9
$WORLDVIEW
 70
     1
  9
$SHADEDGE
 70
     3
  9
$SHADEDIF
 70
    70
  9
$TILEMODE
 70
     1
  9
$MAXACTVP
 70
    16
  9
$PLIMCHECK
 70
     0
  9
$PEXTMIN
 10
1.0000000000000000E+20
 20
1.0000000000000000E+20
 30
1.0000000000000000E+20
  9
$PEXTMAX
 10
-1.0000000000000000E+20
 20
-1.0000000000000000E+20
 30
-1.0000000000000000E+20
  9
$PLIMMIN
 10
-6.6259900286754601
 20
-5.0308318009523409
  9
$PLIMMAX
 10
203.3740099713245115
 20
291.969168199047715
  9
$UNITMODE
 70
     0
  9
$VISRETAIN
 70
     0
  9
$PLINEGEN
 70
     0
  9
$PSLTSCALE
 70
     0
  0
ENDSEC
  0
SECTION
  2
TABLES
  0
TABLE
  2
VPORT
 70
     1
  0
VPORT
  2
*ACTIVE
 70
     0
 10
0.0
 20
0.0
 11
1.0
 21
1.0
 12
0.0
 22
-50.0069793701171932
 13
0.0
 23
0.0
 14
2.5
 24
2.5
 15
10.0
 25
10.0
 16
-0.0000000000001521
 26
0.0
 36
685.0061355298021226
 17
0.0
 27
72.1069793701171875
 37
-0.0000000000000216
 40
347.5687979539642924
 41
1.8720136518771331
 42
50.0
 43
0.0
 44
0.0
 50
0.0
 51
0.0
 71
     0
 72
   500
 73
     1
 74
     1
 75
     0
 76
     0
 77
     0
 78
     1
  0
ENDTAB
  0
TABLE
  2
LTYPE
 70
     3
  0
LTYPE
  2
CONTINUOUS
 70
     0
  3
Solid line
 72
    65
 73
     0
 40
0.0
  0
LTYPE
  2
STRICHPUNKT
 70
     0
  3
__ . __ . __ . __ . __ . __ . __ . __ . __ . __
 72
    65
 73
     4
 40
1.0
 49
0.5
 49
-0.25
 49
0.0
 49
-0.25
  0
LTYPE
  2
VERDECKT
 70
     0
  3
Verdeckt __ __ __ __ __ __ __ __ __ __ __ __ __
 72
    65
 73
     2
 40
0.375
 49
0.25
 49
-0.125
  0
ENDTAB
  0
TABLE
  2
LAYER
 70
     5
  0
LAYER
  2
0
 70
     0
 62
     7
  6
CONTINUOUS
  0
LAYER
  2
STEMPEL
 70
     0
 62
     3
  6
CONTINUOUS
  0
LAYER
  2
ADSK_ASSOC_ENTITY_BACKUPS
 70
     1
 62
    -7
  6
CONTINUOUS
  0
ENDTAB
  0
TABLE
  2
STYLE
 70
     2
  0
STYLE
  2
STANDARD
 70
     0
 40
0.0
 41
0.8
 50
0.0
 71
     0
 42
3.5
  3
simplex.shx
  4

  0
ENDTAB
  0
TABLE
  2
VIEW
 70
     0
  0
ENDTAB
  0
TABLE
  2
UCS
 70
     0
  0
ENDTAB
  0
TABLE
  2
APPID
 70
    37
  0
APPID
  2
ACAD
 70
     0
  0
APPID
  2
MCAD_NO_VIS
 70
     0
  0
APPID
  2
ACAD_TEMP_GRAPHIC
 70
     0
  0
APPID
  2
AD_DRAW
 70
     0
  0
APPID
  2
ACATTRIBSERVICES
 70
     0
  0
APPID
  2
DESIGNERASSEMBLIES
 70
     0
  0
APPID
  2
ACADM_DIM_EDIT
 70
     0
  0
APPID
  2
AMDT_DM_ADJ
 70
     0
  0
APPID
  2
ACAECLAYERSTANDARD
 70
     0
  0
APPID
  2
ACCMTRANSPARENCY
 70
     0
  0
APPID
  2
ACAD_NAV_VCDISPLAY
 70
     0
  0
APPID
  2
ACAD_EXEMPT_FROM_CAD_STANDARDS
 70
     0
  0
APPID
  2
ACAD_PSEXT
 70
     0
  0
APPID
  2
ACAD_MLEADERVER
 70
     0
  0
APPID
  2
ACAD_OBJECT_CHANGE_GUID
 70
     0
  0
APPID
  2
ACADANNOPO
 70
     0
  0
APPID
  2
ACSYNERGY
 70
     0
  0
APPID
  2
SYNERGY_BODY_TBR_ID
 70
     0
  0
APPID
  2
ACAD_VIEW_EDGE_ID
 70
     0
  0
APPID
  2
ACAD_STEPID
 70
     0
  0
APPID
  2
ACSYNERGYSKETCH
 70
     0
  0
APPID
  2
ACAD_MODELDOC_XFORM
 70
     0
  0
APPID
  2
ACDBDYNAMICBLOCKGUID
 70
     0
  0
APPID
  2
PLOTTRANSPARENCY
 70
     0
  0
APPID
  2
ACAUTHENVIRON
 70
     0
  0
APPID
  2
ACDBDYNAMICBLOCKTRUENAME
 70
     0
  0
APPID
  2
ACADANNOMONITORALERTICONDI
 70
     0
  0
APPID
  2
ACAD_DSTYLE_DIMJAG
 70
     0
  0
APPID
  2
ACAD_DSTYLE_DIMTALN
 70
     0
  0
APPID
  2
ACAD_DSTYLE_DIMRADIAL_EXTENSION
 70
     0
  0
APPID
  2
ACAD_DIMASSOC_CALC_DIMLFAC
 70
     0
  0
APPID
  2
ACAD_DIMASSOC_DIMLFAC
 70
     0
  0
APPID
  2
ACAD_DIMASSOC_OVERRIDDEN_D
 70
     0
  0
APPID
  2
SYNERGY_EXCLUDED_FROM_SNAPSHOT
 70
     0
  0
APPID
  2
ACAD_DSTYLE_DIMBREAK
 70
     0
  0
APPID
  2
GRADIENTCOLOR1ACI
 70
     0
  0
APPID
  2
GRADIENTCOLOR2ACI
 70
     0
  0
ENDTAB
  0
TABLE
  2
DIMSTYLE
 70
     1
  0
DIMSTYLE
  2
LORO
 70
     0
  3

  4

  5

  6

  7

 40
1.0
 41
3.5
 42
1.0
 43
0.38
 44
1.0
 45
0.0
 46
0.0
 47
0.0
 48
0.000000001
140
3.5
141
0.09
142
0.0
143
25.3999999999999986
144
2.0
145
0.0
146
0.5
147
1.5
 71
     0
 72
     0
 73
     0
 74
     0
 75
     0
 76
     0
 77
     1
 78
     8
170
     0
171
     2
172
     1
173
     0
174
     0
175
     0
176
     0
177
     0
178
     1
  0
ENDTAB
  0
ENDSEC
  0
SECTION
  2
BLOCKS
  0
BLOCK
  8
0
  2
$MODEL_SPACE
 70
     0
 10
0.0
 20
0.0
 30
0.0
  3
$MODEL_SPACE
  1

  0
ENDBLK
  5
4A
  8
0
  0
BLOCK
 67
     1
  8
0
  2
$PAPER_SPACE
 70
     0
 10
0.0
 20
0.0
 30
0.0
  3
$PAPER_SPACE
  1

  0
ENDBLK
  5
48
 67
     1
  8
0
  0
BLOCK
  8
0
  2
*S0
 70
     1
 10
0.0
 20
0.0
 30
0.0
  3
*S0
  1

  0
ENDBLK
  5
1741
  8
0
  0
BLOCK
  8
0
  2
A$CDE69984A
 70
     0
 10
0.0
 20
0.0
 30
0.0
  3
A$CDE69984A
  1

  0
LINE
  5
14FC6
  8
0
  6
CONTINUOUS
 62
     3
 10
-50.0
 20
0.0
 30
0.0
 11
50.0
 21
0.0
 31
0.0
210
0.0
220
1.0
230
-0.0000000000000002
  0
LINE
  5
14FC7
  8
0
  6
CONTINUOUS
 62
     3
 10
-42.5
 20
120.0
 30
-0.0000000000000266
 11
42.5
 21
120.0
 31
-0.0000000000000266
210
0.0
220
1.0
230
-0.0000000000000002
  0
ARC
  5
14FC8
  8
0
  6
CONTINUOUS
 62
     3
 10
49.7999999999963023
 20
8.0498756211211528
 30
0.0
 40
1.000000000003737
210
0.0
220
-0.0000000000000002
230
-1.0
 50
354.2894068625125215
 51
359.9999999999910756
  0
ARC
  5
14FC9
  8
0
  6
CONTINUOUS
 62
     3
 10
-49.799999999996281
 20
8.0498756211211546
 30
0.0
 40
1.000000000003765
210
0.0
220
-0.0000000000000002
230
-1.0
 50
180.000000000008896
 51
185.710593137487308
  0
LINE
  5
14FCA
  8
0
  6
CONTINUOUS
 62
     3
 10
50.8000000000000469
 20
105.0
 30
-0.0000000000000233
 11
50.8000000000000469
 21
8.0498756211210054
 31
-0.0000000000000018
210
0.0
220
1.0
230
-0.0000000000000002
  0
LINE
  5
14FCB
  8
0
  6
CONTINUOUS
 62
     3
 10
-50.8000000000000469
 20
105.0
 30
-0.0000000000000233
 11
-50.8000000000000469
 21
8.0498756211210054
 31
-0.0000000000000018
210
0.0
220
1.0
230
-0.0000000000000002
  0
LINE
  5
14FCC
  8
0
  6
CONTINUOUS
 62
     3
 10
-50.0
 20
0.0000000000000009
 30
0.0
 11
-50.7950371902100386
 21
7.9503719020999926
 31
-0.0000000000000018
210
0.0
220
1.0
230
-0.0000000000000002
  0
LINE
  5
14FCD
  8
0
  6
CONTINUOUS
 62
     3
 10
50.0
 20
0.0000000000000009
 30
0.0
 11
50.7950371902100386
 21
7.9503719020999926
 31
-0.0000000000000018
210
0.0
220
1.0
230
-0.0000000000000002
  0
ARC
  5
14FCE
  8
0
  6
CONTINUOUS
 62
     3
 10
35.8000000000000824
 20
105.0
 30
0.0
 40
14.9999999999999094
210
0.0
220
-0.0000000000000002
230
-1.0
 50
359.9999999999998863
 51
41.8625533962500924
  0
ARC
  5
14FCF
  8
0
  6
CONTINUOUS
 62
     3
 10
-35.8000000000000824
 20
105.0
 30
0.0
 40
14.9999999999999094
210
0.0
220
-0.0000000000000002
230
-1.0
 50
138.1374466037499076
 51
180.0
  0
LINE
  5
14FD0
  8
0
  6
CONTINUOUS
 62
     3
 10
42.4999999999999929
 20
120.0
 30
-0.0000000000000266
 11
46.9712179035903716
 21
115.0101893363961949
 31
-0.0000000000000255
210
0.0
220
1.0
230
-0.0000000000000002
  0
LINE
  5
14FD1
  8
0
  6
CONTINUOUS
 62
     3
 10
-42.4999999999999929
 20
120.0
 30
-0.0000000000000266
 11
-46.9712179035903716
 21
115.0101893363961949
 31
-0.0000000000000255
210
0.0
220
1.0
230
-0.0000000000000002
  0
LINE
  5
14FD2
  8
0
  6
CONTINUOUS
 62
     3
 10
-42.5
 20
120.0
 30
-0.0000000000000266
 11
42.5
 21
120.0
 31
-0.0000000000000266
210
0.0
220
1.0
230
-0.0000000000000002
  0
LINE
  5
14FD3
  8
0
  6
CONTINUOUS
 62
     3
 10
-40.2277850859697708
 20
195.0
 30
-0.0000000000000433
 11
40.2277850859697708
 21
195.0
 31
-0.0000000000000433
210
0.0
220
1.0
230
-0.0000000000000002
  0
LINE
  5
14FD4
  8
0
  6
CONTINUOUS
 62
     3
 10
-37.0628562225944265
 20
137.704431088867608
 30
-0.0000000000000306
 11
-38.4065761681500106
 21
141.1648381036443993
 31
-0.0000000000000313
210
0.0
220
1.0
230
-0.0000000000000002
  0
LINE
  5
14FD5
  8
0
  6
CONTINUOUS
 62
     3
 10
37.0628562225944265
 20
137.704431088867608
 30
-0.0000000000000306
 11
38.4065761681500106
 21
141.1648381036443993
 31
-0.0000000000000313
210
0.0
220
1.0
230
-0.0000000000000002
  0
ARC
  5
14FD6
  8
0
  6
CONTINUOUS
 62
     3
 10
44.8000000000000824
 20
134.6999999999999886
 30
0.0
 40
8.3000000000000806
210
0.0
220
-0.0000000000000002
230
-1.0
 50
158.7781770649590953
 51
179.999999999999801
  0
ARC
  5
14FD7
  8
0
  6
CONTINUOUS
 62
     3
 10
-44.7999999999998835
 20
134.6999999999999886
 30
0.0
 40
8.2999999999998764
210
0.0
220
-0.0000000000000002
230
-1.0
 50
0.0
 51
21.2218229350411391
  0
LINE
  5
14FD8
  8
0
  6
CONTINUOUS
 62
     3
 10
36.5
 20
134.6999999999999886
 30
-0.0000000000000299
 11
36.5
 21
131.2857698073399888
 31
-0.0000000000000292
210
0.0
220
1.0
230
-0.0000000000000002
  0
LINE
  5
14FD9
  8
0
  6
CONTINUOUS
 62
     3
 10
-36.5
 20
134.6999999999999886
 30
-0.0000000000000299
 11
-36.5
 21
131.2857698073399888
 31
-0.0000000000000292
210
0.0
220
1.0
230
-0.0000000000000002
  0
ARC
  5
14FDA
  8
0
  6
CONTINUOUS
 62
     3
 10
48.4999999999999432
 20
131.2857698073399888
 30
0.0
 40
11.9999999999999307
210
0.0
220
-0.0000000000000002
230
-1.0
 50
179.999999999999801
 51
221.8625533962500924
  0
ARC
  5
14FDB
  8
0
  6
CONTINUOUS
 62
     3
 10
-48.5000000000000071
 20
131.2857698073399888
 30
0.0
 40
12.0
210
0.0
220
-0.0000000000000002
230
-1.0
 50
318.1374466037498792
 51
0.0
  0
LINE
  5
14FDC
  8
0
  6
CONTINUOUS
 62
     3
 10
39.5630256771276905
 20
123.2776183382229931
 30
-0.0000000000000274
 11
42.4999999999999929
 21
120.0
 31
-0.0000000000000266
210
0.0
220
1.0
230
-0.0000000000000002
  0
LINE
  5
14FDD
  8
0
  6
CONTINUOUS
 62
     3
 10
-39.5630256771276905
 20
123.2776183382229931
 30
-0.0000000000000274
 11
-42.4999999999999929
 21
120.0
 31
-0.0000000000000266
210
0.0
220
1.0
230
-0.0000000000000002
  0
ARC
  5
14FDE
  8
0
  6
CONTINUOUS
 62
     3
 10
17.0000000000001101
 20
186.5999999999999943
 30
0.0
 40
24.6999999999998892
210
0.0
220
-0.0000000000000002
230
-1.0
 50
0.0
 51
19.8818073762340788
  0
ARC
  5
14FDF
  8
0
  6
CONTINUOUS
 62
     3
 10
-17.0000000000001101
 20
186.5999999999999943
 30
0.0
 40
24.6999999999998892
210
0.0
220
-0.0000000000000002
230
-1.0
 50
160.118192623765907
 51
180.0
  0
LINE
  5
14FE0
  8
0
  6
CONTINUOUS
 62
     3
 10
41.7000000000000028
 20
186.5999999999999943
 30
-0.0000000000000414
 11
41.7000000000000028
 21
179.6999999999999886
 31
-0.0000000000000399
210
0.0
220
1.0
230
-0.0000000000000002
  0
LINE
  5
14FE1
  8
0
  6
CONTINUOUS
 62
     3
 10
-41.7000000000000028
 20
186.5999999999999943
 30
-0.0000000000000414
 11
-41.7000000000000028
 21
179.6999999999999886
 31
-0.0000000000000399
210
0.0
220
1.0
230
-0.0000000000000002
  0
ARC
  5
14FE2
  8
0
  6
CONTINUOUS
 62
     3
 10
16.9999999999999716
 20
179.6999999999999886
 30
0.0
 40
24.7000000000000206
210
0.0
220
-0.0000000000000002
230
-1.0
 50
340.1669477581856995
 51
0.0
  0
ARC
  5
14FE3
  8
0
  6
CONTINUOUS
 62
     3
 10
-17.0000000000000817
 20
179.6999999999999886
 30
0.0
 40
24.6999999999998998
210
0.0
220
-0.0000000000000002
230
-1.0
 50
179.9999999999998863
 51
199.8330522418141868
  0
LINE
  5
14FE4
  8
0
  6
CONTINUOUS
 62
     3
 10
-39.9295719844358104
 20
170.4731517509727041
 30
-0.0000000000000379
 11
-40.2349245515801925
 21
171.3197684350384975
 31
-0.000000000000038
210
0.0
220
1.0
230
-0.0000000000000002
  0
LINE
  5
14FE5
  8
0
  6
CONTINUOUS
 62
     3
 10
39.9295719844358032
 20
170.4731517509727041
 30
-0.0000000000000379
 11
40.2349245515801925
 21
171.3197684350384975
 31
-0.000000000000038
210
0.0
220
1.0
230
-0.0000000000000002
  0
ARC
  5
14FE6
  8
0
  6
CONTINUOUS
 62
     3
 10
51.4999999999999716
 20
166.3000000000000114
 30
0.0
 40
12.2999999999999705
210
0.0
220
-0.0000000000000002
230
-1.0
 50
160.1669477581858132
 51
180.0
  0
ARC
  5
14FE7
  8
0
  6
CONTINUOUS
 62
     3
 10
-51.4999999999997371
 20
166.3000000000000114
 30
0.0
 40
12.2999999999997396
210
0.0
220
-0.0000000000000002
230
-1.0
 50
0.0
 51
19.8330522418145883
  0
LINE
  5
14FE8
  8
0
  6
CONTINUOUS
 62
     3
 10
39.2000000000000028
 20
166.3000000000000114
 30
-0.0000000000000369
 11
39.2000000000000028
 21
145.4000000000000057
 31
-0.0000000000000323
210
0.0
220
1.0
230
-0.0000000000000002
  0
LINE
  5
14FE9
  8
0
  6
CONTINUOUS
 62
     3
 10
-39.2000000000000028
 20
166.3000000000000114
 30
-0.0000000000000369
 11
-39.2000000000000028
 21
145.4000000000000057
 31
-0.0000000000000323
210
0.0
220
1.0
230
-0.0000000000000002
  0
ARC
  5
14FEA
  8
0
  6
CONTINUOUS
 62
     3
 10
27.5000000000001315
 20
145.4000000000000057
 30
0.0
 40
11.6999999999998803
210
0.0
220
-0.0000000000000002
230
-1.0
 50
338.7781770649590953
 51
0.0
  0
ARC
  5
14FEB
  8
0
  6
CONTINUOUS
 62
     3
 10
-27.5000000000001315
 20
145.4000000000000057
 30
0.0
 40
11.6999999999998696
210
0.0
220
-0.0000000000000002
230
-1.0
 50
180.0
 51
201.2218229350409047
  0
LINE
  5
14FEC
  8
0
  6
VERDECKT
 62
     1
 10
-48.8059553717479986
 20
0.1194044628252122
 30
0.0
 11
48.8059553717479986
 21
0.1194044628252122
 31
0.0
210
0.0
220
1.0
230
-0.0000000000000002
  0
LINE
  5
14FED
  8
0
  6
VERDECKT
 62
     1
 10
-41.6063025677127598
 20
119.1991848530883971
 30
-0.0000000000000265
 11
41.6063025677127598
 21
119.1991848530883971
 31
-0.0000000000000265
210
0.0
220
1.0
230
-0.0000000000000002
  0
ARC
  5
14FEE
  8
0
  6
VERDECKT
 62
     1
 10
48.5999999999963634
 20
8.1097263664661057
 30
0.0
 40
1.000000000003652
210
0.0
220
-0.0000000000000002
230
-1.0
 50
354.2894068625121804
 51
359.9999999999910756
  0
ARC
  5
14FEF
  8
0
  6
VERDECKT
 62
     1
 10
-48.5999999999963634
 20
8.1097263664661057
 30
0.0
 40
1.000000000003652
210
0.0
220
-0.0000000000000002
230
-1.0
 50
180.0000000000088107
 51
185.7105931374877059
  0
LINE
  5
14FF0
  8
0
  6
VERDECKT
 62
     1
 10
-48.8059553717479986
 20
0.1194044628252118
 30
0.0
 11
-49.5950371902100002
 21
8.0102226474449498
 31
-0.0000000000000018
210
0.0
220
1.0
230
-0.0000000000000002
  0
LINE
  5
14FF1
  8
0
  6
VERDECKT
 62
     1
 10
48.8059553717479986
 20
0.1194044628252034
 30
0.0
 11
49.5950371902100002
 21
8.0102226474449498
 31
-0.0000000000000018
210
0.0
220
1.0
230
-0.0000000000000002
  0
LINE
  5
14FF2
  8
0
  6
VERDECKT
 62
     1
 10
49.6000000000000014
 20
105.0
 30
-0.0000000000000233
 11
49.6000000000000014
 21
8.1097263664659511
 31
-0.0000000000000018
210
0.0
220
1.0
230
-0.0000000000000002
  0
LINE
  5
14FF3
  8
0
  6
VERDECKT
 62
     1
 10
-49.6000000000000014
 20
105.0
 30
-0.0000000000000233
 11
-49.6000000000000014
 21
8.1097263664659351
 31
-0.0000000000000018
210
0.0
220
1.0
230
-0.0000000000000002
  0
LINE
  5
14FF4
  8
0
  6
VERDECKT
 62
     1
 10
48.8059553717479986
 20
0.1194044628251992
 30
0.0
 11
50.0
 21
-0.0000000000000046
 31
0.0
210
0.0
220
1.0
230
-0.0000000000000002
  0
LINE
  5
14FF5
  8
0
  6
VERDECKT
 62
     1
 10
-48.8059553717479986
 20
0.1194044628251992
 30
0.0
 11
-50.0
 21
-0.0000000000000046
 31
0.0
210
0.0
220
1.0
230
-0.0000000000000002
  0
ARC
  5
14FF6
  8
0
  6
VERDECKT
 62
     1
 10
35.7999999999999901
 20
105.0
 30
0.0
 40
13.8000000000000007
210
0.0
220
-0.0000000000000002
230
-1.0
 50
0.0
 51
41.86255339625
  0
ARC
  5
14FF7
  8
0
  6
VERDECKT
 62
     1
 10
-35.7999999999999403
 20
105.0
 30
0.0
 40
13.8000000000000504
210
0.0
220
-0.0000000000000002
230
-1.0
 50
138.1374466037501065
 51
179.9999999999998863
  0
LINE
  5
14FF8
  8
0
  6
VERDECKT
 62
     1
 10
41.6063025677127669
 20
119.1991848530883971
 30
-0.0000000000000265
 11
46.077520471303167
 21
114.2093741894845067
 31
-0.0000000000000254
210
0.0
220
1.0
230
-0.0000000000000002
  0
LINE
  5
14FF9
  8
0
  6
VERDECKT
 62
     1
 10
-41.6063025677127811
 20
119.1991848530883971
 30
-0.0000000000000265
 11
-46.077520471303167
 21
114.2093741894845067
 31
-0.0000000000000254
210
0.0
220
1.0
230
-0.0000000000000002
  0
LINE
  5
14FFA
  8
0
  6
VERDECKT
 62
     1
 10
-41.6063025677127669
 20
119.1991848530883971
 30
-0.0000000000000265
 11
-42.5
 21
120.0
 31
-0.0000000000000266
210
0.0
220
1.0
230
-0.0000000000000002
  0
LINE
  5
14FFB
  8
0
  6
VERDECKT
 62
     1
 10
41.6063025677127598
 20
119.1991848530883971
 30
-0.0000000000000265
 11
42.5
 21
120.0
 31
-0.0000000000000266
210
0.0
220
1.0
230
-0.0000000000000002
  0
LINE
  5
14FFC
  8
0
  6
VERDECKT
 62
     1
 10
-41.6063025677127598
 20
119.1991848530882976
 30
-0.0000000000000265
 11
41.6063025677127598
 21
119.1991848530882976
 31
-0.0000000000000265
210
0.0
220
1.0
230
-0.0000000000000002
  0
LINE
  5
14FFD
  8
0
  6
VERDECKT
 62
     1
 10
-39.0993096971777234
 20
194.5919028340082093
 30
-0.0000000000000432
 11
39.0993096971777234
 21
194.5919028340082093
 31
-0.0000000000000432
210
0.0
220
1.0
230
-0.0000000000000002
  0
LINE
  5
14FFE
  8
0
  6
VERDECKT
 62
     1
 10
-41.6063025677127598
 20
119.1991848530882976
 30
-0.0000000000000265
 11
-42.5
 21
120.0
 31
-0.0000000000000266
210
0.0
220
1.0
230
-0.0000000000000002
  0
LINE
  5
14FFF
  8
0
  6
VERDECKT
 62
     1
 10
41.6063025677127598
 20
119.1991848530882976
 30
-0.0000000000000265
 11
42.5
 21
120.0
 31
-0.0000000000000266
210
0.0
220
1.0
230
-0.0000000000000002
  0
LINE
  5
15000
  8
0
  6
VERDECKT
 62
     1
 10
38.6693282448404716
 20
122.4768031913113049
 30
-0.0000000000000272
 11
41.6063025677127669
 21
119.1991848530882976
 31
-0.0000000000000265
210
0.0
220
1.0
230
-0.0000000000000002
  0
LINE
  5
15001
  8
0
  6
VERDECKT
 62
     1
 10
-38.6693282448404716
 20
122.4768031913113049
 30
-0.0000000000000272
 11
-41.6063025677127669
 21
119.1991848530882976
 31
-0.0000000000000265
210
0.0
220
1.0
230
-0.0000000000000002
  0
ARC
  5
15002
  8
0
  6
VERDECKT
 62
     1
 10
48.4999999999999503
 20
131.2857698073399888
 30
0.0
 40
13.1999999999999407
210
0.0
220
-0.0000000000000002
230
-1.0
 50
179.9999999999998863
 51
221.8625533962500924
  0
ARC
  5
15003
  8
0
  6
VERDECKT
 62
     1
 10
-48.4999999999999432
 20
131.2857698073399888
 30
0.0
 40
13.19999999999993
210
0.0
220
-0.0000000000000002
230
-1.0
 50
318.1374466037499928
 51
0.0000000000001272
  0
LINE
  5
15004
  8
0
  6
VERDECKT
 62
     1
 10
35.3000000000000114
 20
134.6999999999999886
 30
-0.0000000000000299
 11
35.3000000000000114
 21
131.2857698073399888
 31
-0.0000000000000292
210
0.0
220
1.0
230
-0.0000000000000002
  0
LINE
  5
15005
  8
0
  6
VERDECKT
 62
     1
 10
-35.3000000000000114
 20
134.6999999999999886
 30
-0.0000000000000299
 11
-35.3000000000000114
 21
131.2857698073399888
 31
-0.0000000000000292
210
0.0
220
1.0
230
-0.0000000000000002
  0
ARC
  5
15006
  8
0
  6
VERDECKT
 62
     1
 10
44.7999999999997698
 20
134.6999999999999886
 30
0.0
 40
9.4999999999997708
210
0.0
220
-0.0000000000000002
230
-1.0
 50
158.7781770649590953
 51
180.0000000000001137
  0
ARC
  5
15007
  8
0
  6
VERDECKT
 62
     1
 10
-44.7999999999998906
 20
134.6999999999999886
 30
0.0
 40
9.4999999999998934
210
0.0
220
-0.0000000000000002
230
-1.0
 50
359.9999999999997726
 51
21.2218229350407803
  0
LINE
  5
15008
  8
0
  6
VERDECKT
 62
     1
 10
-35.9442330258611022
 20
138.1388066679809867
 30
-0.0000000000000307
 11
-37.2879529714166935
 21
141.5992136827578065
 31
-0.0000000000000314
210
0.0
220
1.0
230
-0.0000000000000002
  0
LINE
  5
15009
  8
0
  6
VERDECKT
 62
     1
 10
35.9442330258611022
 20
138.1388066679809867
 30
-0.0000000000000307
 11
37.2879529714166935
 21
141.5992136827578065
 31
-0.0000000000000314
210
0.0
220
1.0
230
-0.0000000000000002
  0
ARC
  5
1500A
  8
0
  6
VERDECKT
 62
     1
 10
27.5000000000000284
 20
145.4000000000000057
 30
0.0
 40
10.4999999999999698
210
0.0
220
-0.0000000000000002
230
-1.0
 50
338.7781770649593227
 51
0.0000000000000127
  0
ARC
  5
1500B
  8
0
  6
VERDECKT
 62
     1
 10
-27.5000000000000284
 20
145.4000000000000057
 30
0.0
 40
10.4999999999999591
210
0.0
220
-0.0000000000000002
230
-1.0
 50
180.0
 51
201.221822935040592
  0
LINE
  5
1500C
  8
0
  6
VERDECKT
 62
     1
 10
38.0
 20
166.3000000000000114
 30
-0.0000000000000369
 11
38.0
 21
145.4000000000000057
 31
-0.0000000000000323
210
0.0
220
1.0
230
-0.0000000000000002
  0
LINE
  5
1500D
  8
0
  6
VERDECKT
 62
     1
 10
-38.0
 20
166.3000000000000114
 30
-0.0000000000000369
 11
-38.0
 21
145.4000000000000057
 31
-0.0000000000000323
210
0.0
220
1.0
230
-0.0000000000000002
  0
ARC
  5
1500E
  8
0
  6
VERDECKT
 62
     1
 10
51.5000000000002771
 20
166.2999999999998977
 30
0.0
 40
13.5000000000002895
210
0.0
220
-0.0000000000000002
230
-1.0
 50
160.1669477581858985
 51
179.9999999999996874
  0
ARC
  5
1500F
  8
0
  6
VERDECKT
 62
     1
 10
-51.5000000000002771
 20
166.2999999999998977
 30
0.0
 40
13.5000000000002807
210
0.0
220
-0.0000000000000002
230
-1.0
 50
0.0000000000002417
 51
19.8330522418140589
  0
LINE
  5
15010
  8
0
  6
VERDECKT
 62
     1
 10
-38.8007497390148899
 20
170.8802885071652042
 30
-0.0000000000000379
 11
-39.1061023061593218
 21
171.7269051912309976
 31
-0.0000000000000381
210
0.0
220
1.0
230
-0.0000000000000002
  0
LINE
  5
15011
  8
0
  6
VERDECKT
 62
     1
 10
38.8007497390148899
 20
170.8802885071652042
 30
-0.0000000000000379
 11
39.1061023061593218
 21
171.7269051912309976
 31
-0.0000000000000381
210
0.0
220
1.0
230
-0.0000000000000002
  0
ARC
  5
15012
  8
0
  6
VERDECKT
 62
     1
 10
17.0000000000005684
 20
179.6999999999999034
 30
0.0
 40
23.4999999999994102
210
0.0
220
-0.0000000000000002
230
-1.0
 50
340.1669477581855858
 51
0.0000000000002799
  0
ARC
  5
15013
  8
0
  6
VERDECKT
 62
     1
 10
-17.0000000000001101
 20
179.6999999999999886
 30
0.0
 40
23.4999999999998792
210
0.0
220
-0.0000000000000002
230
-1.0
 50
179.9999999999998863
 51
199.8330522418139878
  0
LINE
  5
15014
  8
0
  6
VERDECKT
 62
     1
 10
40.5
 20
186.5999999999999943
 30
-0.0000000000000414
 11
40.5
 21
179.6999999999999886
 31
-0.0000000000000399
210
0.0
220
1.0
230
-0.0000000000000002
  0
LINE
  5
15015
  8
0
  6
VERDECKT
 62
     1
 10
-40.5
 20
186.5999999999999943
 30
-0.0000000000000414
 11
-40.5
 21
179.6999999999999886
 31
-0.0000000000000399
210
0.0
220
1.0
230
-0.0000000000000002
  0
ARC
  5
15016
  8
0
  6
VERDECKT
 62
     1
 10
16.9999999999995488
 20
186.5999999999999091
 30
0.0
 40
23.5000000000004405
210
0.0
220
-0.0000000000000002
230
-1.0
 50
0.0000000000002163
 51
19.8818073762339012
  0
ARC
  5
15017
  8
0
  6
VERDECKT
 62
     1
 10
-16.9999999999995595
 20
186.5999999999999091
 30
0.0
 40
23.5000000000004405
210
0.0
220
-0.0000000000000002
230
-1.0
 50
160.118192623766106
 51
179.999999999999801
  0
LINE
  5
15018
  8
0
  6
VERDECKT
 62
     1
 10
-39.0993096971777234
 20
194.5919028340082093
 30
-0.0000000000000432
 11
-40.2277850859697708
 21
195.0
 31
-0.0000000000000433
210
0.0
220
1.0
230
-0.0000000000000002
  0
LINE
  5
15019
  8
0
  6
VERDECKT
 62
     1
 10
39.0993096971777234
 20
194.5919028340082093
 30
-0.0000000000000432
 11
40.2277850859697708
 21
195.0
 31
-0.0000000000000433
210
0.0
220
1.0
230
-0.0000000000000002
  0
ENDBLK
  5
1501B
  8
0
  0
BLOCK
  8
0
  2
A$C0F4C39A8
 70
     0
 10
0.0
 20
0.0
 30
0.0
  3
A$C0F4C39A8
  1

  0
CIRCLE
  5
1501F
  8
0
  6
CONTINUOUS
 62
     3
 10
0.0000000000000233
 20
0.0000000000000064
 30
0.0
 40
50.8000000000000469
  0
CIRCLE
  5
15020
  8
0
  6
CONTINUOUS
 62
     3
 10
0.0000000000000266
 20
0.0000000000000073
 30
0.0
 40
42.5
  0
CIRCLE
  5
15021
  8
0
  6
CONTINUOUS
 62
     3
 10
0.0000000000000266
 20
0.0000000000000073
 30
0.0
 40
42.5
  0
CIRCLE
  5
15022
  8
0
  6
CONTINUOUS
 62
     3
 10
0.0000000000000299
 20
0.0000000000000082
 30
0.0
 40
35.2999999999999972
  0
CIRCLE
  5
15023
  8
0
  6
CONTINUOUS
 62
     3
 10
0.0000000000000369
 20
0.0000000000000102
 30
0.0
 40
38.0
  0
CIRCLE
  5
15024
  8
0
  6
CONTINUOUS
 62
     3
 10
0.0000000000000432
 20
0.0000000000000119
 30
0.0
 40
39.0993096971777234
  0
CIRCLE
  5
15025
  8
0
  6
CONTINUOUS
 62
     3
 10
0.0000000000000433
 20
0.0000000000000119
 30
0.0
 40
40.2277850859697708
  0
CIRCLE
  5
15026
  8
0
  6
CONTINUOUS
 62
     3
 10
0.0000000000000414
 20
0.0000000000000114
 30
0.0
 40
41.7000000000000028
  0
CIRCLE
  5
15027
  8
0
  6
VERDECKT
 62
     1
 10
0.0
 20
0.0
 30
0.0
 40
48.8059553717479986
  0
CIRCLE
  5
15028
  8
0
  6
VERDECKT
 62
     1
 10
0.0000000000000233
 20
0.0000000000000064
 30
0.0
 40
49.6000000000000014
  0
CIRCLE
  5
15029
  8
0
  6
VERDECKT
 62
     1
 10
0.0
 20
0.0
 30
0.0
 40
50.0
  0
CIRCLE
  5
1502A
  8
0
  6
VERDECKT
 62
     1
 10
0.0000000000000265
 20
0.0000000000000073
 30
0.0
 40
41.6063025677127598
  0
CIRCLE
  5
1502B
  8
0
  6
VERDECKT
 62
     1
 10
0.0000000000000299
 20
0.0000000000000082
 30
0.0
 40
36.5
  0
CIRCLE
  5
1502C
  8
0
  6
VERDECKT
 62
     1
 10
0.0000000000000265
 20
0.0000000000000073
 30
0.0
 40
41.6063025677127598
  0
CIRCLE
  5
1502D
  8
0
  6
VERDECKT
 62
     1
 10
0.0000000000000414
 20
0.0000000000000114
 30
0.0
 40
40.5
  0
CIRCLE
  5
1502E
  8
0
  6
VERDECKT
 62
     1
 10
0.0000000000000369
 20
0.0000000000000102
 30
0.0
 40
39.2000000000000028
  0
ENDBLK
  5
15030
  8
0
  0
ENDSEC
  0
SECTION
  2
ENTITIES
  0
INSERT
  5
1743
  8
ADSK_ASSOC_ENTITY_BACKUPS
  2
*S0
 10
0.0
 20
0.0
 30
0.0
  0
INSERT
  5
1501C
  8
STEMPEL
  2
A$CDE69984A
 10
0.0
 20
0.0
 30
0.0
  0
INSERT
  5
15031
  8
STEMPEL
  2
A$C0F4C39A8
 10
0.0
 20
-100.0
 30
0.0
  0
VIEWPORT
  5
1297
 67
     1
  8
0
 10
98.3740099713245115
 20
143.4691681990476013
 30
0.0
 40
558.8319832755776133
 41
298.5191815856778135
 68
     1
 69
     1
1001
ACAD
1000
MVIEW
1002
{
1070
    16
1010
0.0
1020
0.0
1030
0.0
1010
0.0
1020
0.0
1030
1.0
1040
0.0
1040
298.5191815856778135
1040
98.3740099713245115
1040
143.4691681990476013
1040
50.0
1040
0.0
1040
0.0
1070
     0
1070
   500
1070
     1
1070
     1
1070
     0
1070
     0
1070
     0
1070
     0
1040
0.0
1040
0.0
1040
0.0
1040
10.0
1040
10.0
1040
10.0
1040
10.0
1070
     0
1002
{
1002
}
1002
}
  0
ENDSEC
  0
EOF
