  0
SECTION
  2
HEADER
  9
$ACADVER
  1
AC1009
  9
$INSBASE
 10
0.0
 20
0.0
 30
0.0
  9
$EXTMIN
 10
27.8226809172939014
 20
-191.6288803362475903
 30
-0.0000000000000143
  9
$EXTMAX
 10
100.8226809172938943
 20
56.0000000000010303
 30
0.0000000000000204
  9
$LIMMIN
 10
0.0
 20
0.0
  9
$LIMMAX
 10
210.0
 20
297.0
  9
$ORTHOMODE
 70
     1
  9
$REGENMODE
 70
     1
  9
$FILLMODE
 70
     1
  9
$QTEXTMODE
 70
     0
  9
$MIRRTEXT
 70
     1
  9
$DRAGMODE
 70
     2
  9
$LTSCALE
 40
10.0
  9
$OSMODE
 70
   511
  9
$ATTMODE
 70
     1
  9
$TEXTSIZE
 40
3.5
  9
$TRACEWID
 40
0.5
  9
$TEXTSTYLE
  7
STANDARD
  9
$CLAYER
  8
ROHR
  9
$CELTYPE
  6
BYLAYER
  9
$CECOLOR
 62
   256
  9
$DIMSCALE
 40
1.0
  9
$DIMASZ
 40
3.5
  9
$DIMEXO
 40
1.0
  9
$DIMDLI
 40
7.0
  9
$DIMRND
 40
0.0
  9
$DIMDLE
 40
0.0
  9
$DIMEXE
 40
1.0
  9
$DIMTP
 40
0.0
  9
$DIMTM
 40
0.0
  9
$DIMTXT
 40
3.5
  9
$DIMCEN
 40
1.5
  9
$DIMTSZ
 40
0.0
  9
$DIMTOL
 70
     0
  9
$DIMLIM
 70
     0
  9
$DIMTIH
 70
     0
  9
$DIMTOH
 70
     0
  9
$DIMSE1
 70
     0
  9
$DIMSE2
 70
     0
  9
$DIMTAD
 70
     1
  9
$DIMZIN
 70
     8
  9
$DIMBLK
  1

  9
$DIMASO
 70
     1
  9
$DIMSHO
 70
     0
  9
$DIMPOST
  1

  9
$DIMAPOST
  1

  9
$DIMALT
 70
     0
  9
$DIMALTD
 70
     2
  9
$DIMALTF
 40
25.3999999999999986
  9
$DIMLFAC
 40
1.0
  9
$DIMTOFL
 70
     1
  9
$DIMTVP
 40
0.0
  9
$DIMTIX
 70
     0
  9
$DIMSOXD
 70
     0
  9
$DIMSAH
 70
     0
  9
$DIMBLK1
  1

  9
$DIMBLK2
  1

  9
$DIMSTYLE
  2
STANDARD
  9
$DIMCLRD
 70
     0
  9
$DIMCLRE
 70
     0
  9
$DIMCLRT
 70
     1
  9
$DIMTFAC
 40
0.5
  9
$DIMGAP
 40
1.5
  9
$LUNITS
 70
     2
  9
$LUPREC
 70
     2
  9
$SKETCHINC
 40
1.0
  9
$FILLETRAD
 40
15.0
  9
$AUNITS
 70
     0
  9
$AUPREC
 70
     0
  9
$MENU
  1
ACAD
  9
$ELEVATION
 40
0.0
  9
$PELEVATION
 40
0.0
  9
$THICKNESS
 40
0.0
  9
$LIMCHECK
 70
     0
  9
$BLIPMODE
 70
     0
  9
$CHAMFERA
 40
0.0
  9
$CHAMFERB
 40
0.0
  9
$SKPOLY
 70
     0
  9
$TDCREATE
 40
2455397.8646990740671754
  9
$TDUPDATE
 40
2460152.5496527780778706
  9
$TDINDWG
 40
0.2617401852
  9
$TDUSRTIMER
 40
0.2617401852
  9
$USRTIMER
 70
     1
  9
$ANGBASE
 50
0.0
  9
$ANGDIR
 70
     0
  9
$PDMODE
 70
     0
  9
$PDSIZE
 40
0.0
  9
$PLINEWID
 40
0.0
  9
$COORDS
 70
     1
  9
$SPLFRAME
 70
     0
  9
$SPLINETYPE
 70
     6
  9
$SPLINESEGS
 70
     8
  9
$ATTDIA
 70
     1
  9
$ATTREQ
 70
     1
  9
$HANDLING
 70
     1
  9
$HANDSEED
  5
46A7
  9
$SURFTAB1
 70
     6
  9
$SURFTAB2
 70
     6
  9
$SURFTYPE
 70
     6
  9
$SURFU
 70
     6
  9
$SURFV
 70
     6
  9
$UCSNAME
  2

  9
$UCSORG
 10
0.0
 20
0.0
 30
0.0
  9
$UCSXDIR
 10
1.0
 20
0.0
 30
0.0
  9
$UCSYDIR
 10
0.0
 20
1.0
 30
0.0
  9
$PUCSNAME
  2

  9
$PUCSORG
 10
0.0
 20
0.0
 30
0.0
  9
$PUCSXDIR
 10
1.0
 20
0.0
 30
0.0
  9
$PUCSYDIR
 10
0.0
 20
1.0
 30
0.0
  9
$USERI1
 70
     0
  9
$USERI2
 70
     0
  9
$USERI3
 70
     0
  9
$USERI4
 70
     0
  9
$USERI5
 70
     0
  9
$USERR1
 40
0.0
  9
$USERR2
 40
0.0
  9
$USERR3
 40
0.0
  9
$USERR4
 40
0.0
  9
$USERR5
 40
0.0
  9
$WORLDVIEW
 70
     1
  9
$SHADEDGE
 70
     3
  9
$SHADEDIF
 70
    70
  9
$TILEMODE
 70
     1
  9
$MAXACTVP
 70
    16
  9
$PLIMCHECK
 70
     0
  9
$PEXTMIN
 10
1.0000000000000000E+20
 20
1.0000000000000000E+20
 30
1.0000000000000000E+20
  9
$PEXTMAX
 10
-1.0000000000000000E+20
 20
-1.0000000000000000E+20
 30
-1.0000000000000000E+20
  9
$PLIMMIN
 10
-0.1690324993689454
 20
-0.9315678258787885
  9
$PLIMMAX
 10
214.0309675006311068
 20
302.0084321741211966
  9
$UNITMODE
 70
     0
  9
$VISRETAIN
 70
     0
  9
$PLINEGEN
 70
     0
  9
$PSLTSCALE
 70
     0
  0
ENDSEC
  0
SECTION
  2
TABLES
  0
TABLE
  2
VPORT
 70
     1
  0
VPORT
  2
*ACTIVE
 70
     0
 10
0.0
 20
0.0
 11
1.0
 21
1.0
 12
65.8805478255481489
 22
32.8489683366086211
 13
0.0
 23
0.0
 14
1.0
 24
1.0
 15
10.0
 25
10.0
 16
-0.0000000000004434
 26
0.0
 36
1956.6389053630130093
 17
-1.557866908254254
 27
-100.6634085047319047
 37
-0.0000000000000109
 40
248.8955242254367022
 41
1.8720136518771331
 42
50.0
 43
0.0
 44
0.0
 50
0.0
 51
0.0
 71
     0
 72
  1500
 73
     1
 74
     0
 75
     0
 76
     0
 77
     0
 78
     0
  0
ENDTAB
  0
TABLE
  2
LTYPE
 70
     3
  0
LTYPE
  2
CONTINUOUS
 70
     0
  3
Solid line
 72
    65
 73
     0
 40
0.0
  0
LTYPE
  2
PHANTOM2
 70
     0
  3
Phantom (.5x) ___ _ _ ___ _ _ ___ _ _ ___ _ _
 72
    65
 73
     6
 40
1.25
 49
0.625
 49
-0.125
 49
0.125
 49
-0.125
 49
0.125
 49
-0.125
  0
LTYPE
  2
VERDECKT
 70
     0
  3
Verdeckt __ __ __ __ __ __ __ __ __ __ __ __ __
 72
    65
 73
     2
 40
0.375
 49
0.25
 49
-0.125
  0
ENDTAB
  0
TABLE
  2
LAYER
 70
     4
  0
LAYER
  2
0
 70
     0
 62
     7
  6
CONTINUOUS
  0
LAYER
  2
VOLL
 70
     0
 62
     1
  6
CONTINUOUS
  0
LAYER
  2
ADSK_ASSOC_ENTITY_BACKUPS
 70
     1
 62
    -7
  6
CONTINUOUS
  0
LAYER
  2
ROHR
 70
     0
 62
     9
  6
CONTINUOUS
  0
ENDTAB
  0
TABLE
  2
STYLE
 70
     2
  0
STYLE
  2
STANDARD
 70
     0
 40
0.0
 41
0.8
 50
0.0
 71
     0
 42
3.5
  3
simplex.shx
  4

  0
STYLE
  2
GREEKS
 70
     0
 40
0.0
 41
0.8
 50
0.0
 71
     0
 42
2.5
  3
SIMPLEX.shx
  4

  0
ENDTAB
  0
TABLE
  2
VIEW
 70
     0
  0
ENDTAB
  0
TABLE
  2
UCS
 70
     0
  0
ENDTAB
  0
TABLE
  2
APPID
 70
    24
  0
APPID
  2
ACAD
 70
     0
  0
APPID
  2
ACAD_NAV_VCDISPLAY
 70
     0
  0
APPID
  2
ACAD_MLEADERVER
 70
     0
  0
APPID
  2
ACAD_EXEMPT_FROM_CAD_STANDARDS
 70
     0
  0
APPID
  2
ACAD_PSEXT
 70
     0
  0
APPID
  2
ACAECLAYERSTANDARD
 70
     0
  0
APPID
  2
ACAUTHENVIRON
 70
     0
  0
APPID
  2
ACCMTRANSPARENCY
 70
     0
  0
APPID
  2
ACAD_STEPID
 70
     0
  0
APPID
  2
ACSYNERGY
 70
     0
  0
APPID
  2
SYNERGY_BODY_TBR_ID
 70
     0
  0
APPID
  2
ACAD_VIEW_EDGE_ID
 70
     0
  0
APPID
  2
ACSYNERGYSKETCH
 70
     0
  0
APPID
  2
ACAD_MODELDOC_XFORM
 70
     0
  0
APPID
  2
ACAD_DSTYLE_DIMJAG
 70
     0
  0
APPID
  2
ACAD_DSTYLE_DIMTALN
 70
     0
  0
APPID
  2
ACADANNOMONITORALERTICONDI
 70
     0
  0
APPID
  2
ACAD_DIMASSOC_CALC_DIMLFAC
 70
     0
  0
APPID
  2
ACAD_DIMASSOC_DIMLFAC
 70
     0
  0
APPID
  2
ACAD_DIMASSOC_OVERRIDDEN_D
 70
     0
  0
APPID
  2
ACAD_DSTYLE_DIMRADIAL_EXTENSION
 70
     0
  0
APPID
  2
ACADANNOAV
 70
     0
  0
APPID
  2
ACDBDYNAMICBLOCKTRUENAME
 70
     0
  0
APPID
  2
ACDBDYNAMICBLOCKGUID
 70
     0
  0
ENDTAB
  0
TABLE
  2
DIMSTYLE
 70
     1
  0
DIMSTYLE
  2
STANDARD
 70
     0
  3

  4

  5

  6

  7

 40
1.0
 41
0.18
 42
0.0625
 43
0.38
 44
0.18
 45
0.0
 46
0.0
 47
0.0
 48
0.0
140
0.18
141
0.09
142
0.0
143
25.3999999999999986
144
1.0
145
0.0
146
1.0
147
0.09
 71
     0
 72
     0
 73
     1
 74
     1
 75
     0
 76
     0
 77
     0
 78
     0
170
     0
171
     2
172
     0
173
     0
174
     0
175
     0
176
     0
177
     0
178
     0
  0
ENDTAB
  0
ENDSEC
  0
SECTION
  2
BLOCKS
  0
BLOCK
  8
0
  2
$MODEL_SPACE
 70
     0
 10
0.0
 20
0.0
 30
0.0
  3
$MODEL_SPACE
  1

  0
ENDBLK
  5
36
  8
0
  0
BLOCK
 67
     1
  8
0
  2
$PAPER_SPACE
 70
     0
 10
0.0
 20
0.0
 30
0.0
  3
$PAPER_SPACE
  1

  0
ENDBLK
  5
34
 67
     1
  8
0
  0
BLOCK
  8
0
  2
*S0
 70
     1
 10
0.0
 20
0.0
 30
0.0
  3
*S0
  1

  0
ENDBLK
  5
B3A
  8
0
  0
BLOCK
  8
0
  2
A$CF0F2DE0D
 70
     0
 10
0.0
 20
0.0
 30
0.0
  3
A$CF0F2DE0D
  1

  0
CIRCLE
  5
45E4
  8
0
  6
CONTINUOUS
 62
     3
 10
64.3226809172938943
 20
165.0653701734746903
 30
0.0000000000000135
 40
36.5
  0
CIRCLE
  5
45E5
  8
0
  6
CONTINUOUS
 62
     3
 10
64.3226809172938943
 20
165.0653701734746903
 30
0.0000000000000135
 40
36.0165770429210781
  0
CIRCLE
  5
45E6
  8
0
  6
CONTINUOUS
 62
     3
 10
64.3226809172938943
 20
165.0653701734746903
 30
0.0000000000000142
 40
29.050914088115519
  0
CIRCLE
  5
45E7
  8
0
  6
CONTINUOUS
 62
     3
 10
64.3226809172938943
 20
165.0653701734746903
 30
0.0000000000000142
 40
27.9290197827827491
  0
CIRCLE
  5
45E8
  8
0
  6
CONTINUOUS
 62
     3
 10
64.3226809172938943
 20
165.0653701734746903
 30
0.0000000000000142
 40
25.5
  0
CIRCLE
  5
45E9
  8
0
  6
CONTINUOUS
 62
     3
 10
64.3226809172938943
 20
165.0653701734746903
 30
0.0000000000000142
 40
30.9999999999998899
  0
CIRCLE
  5
45EA
  8
0
  6
VERDECKT
 62
     1
 10
64.32268091729388
 20
165.0653701734746903
 30
0.0000000000000142
 40
35.6251133647407414
  0
CIRCLE
  5
45EB
  8
0
  6
VERDECKT
 62
     1
 10
64.3226809172938943
 20
165.0653701734746903
 30
0.0000000000000142
 40
35.3132790764733997
  0
CIRCLE
  5
45EC
  8
0
  6
VERDECKT
 62
     1
 10
64.32268091729388
 20
165.0653701734746903
 30
0.0000000000000142
 40
34.4085165798102324
  0
CIRCLE
  5
45ED
  8
0
  6
VERDECKT
 62
     1
 10
64.3226809172938943
 20
165.0653701734746903
 30
0.0000000000000135
 40
35.309470261734532
  0
CIRCLE
  5
45EE
  8
0
  6
VERDECKT
 62
     1
 10
64.32268091729388
 20
165.0653701734746903
 30
0.0000000000000142
 40
35.337095363783277
  0
CIRCLE
  5
45EF
  8
0
  6
VERDECKT
 62
     1
 10
64.3226809172938943
 20
165.0653701734746903
 30
0.0000000000000135
 40
35.309470261734532
  0
CIRCLE
  5
45F0
  8
0
  6
VERDECKT
 62
     1
 10
64.3226809172938943
 20
165.0653701734746903
 30
0.0000000000000142
 40
29.9999999999998899
  0
CIRCLE
  5
45F1
  8
0
  6
VERDECKT
 62
     1
 10
64.3226809172938943
 20
165.0653701734746903
 30
0.0000000000000142
 40
28.0
  0
CIRCLE
  5
45F2
  8
0
  6
VERDECKT
 62
     1
 10
64.3226809172938943
 20
165.0653701734746903
 30
0.0000000000000142
 40
26.5
  0
CIRCLE
  5
45F3
  8
0
  6
VERDECKT
 62
     1
 10
64.3226809172938943
 20
165.0653701734746903
 30
0.0000000000000142
 40
29.0
  0
ENDBLK
  5
45F5
  8
0
  0
BLOCK
  8
0
  2
A$C80A574F2
 70
     0
 10
0.0
 20
0.0
 30
0.0
  3
A$C80A574F2
  1

  0
LINE
  5
45F9
  8
0
  6
CONTINUOUS
 62
     3
 10
99.9477942820346357
 20
-91.9999999999997868
 30
0.0000000000000204
 11
28.6975675525531493
 21
-91.9999999999997868
 31
0.0000000000000204
210
0.0
220
1.0
230
-0.0000000000000002
  0
LINE
  5
45FA
  8
0
  6
CONTINUOUS
 62
     3
 10
100.8226809172938943
 20
-1.999999999999772
 30
0.0000000000000004
 11
27.8226809172939014
 21
-1.999999999999772
 31
0.0000000000000004
210
0.0
220
1.0
230
-0.0000000000000002
  0
ARC
  5
45FB
  8
0
  6
CONTINUOUS
 62
     3
 10
-92.6226809172954262
 20
-86.0781816379455051
 30
0.0
 40
8.1999999999984539
210
0.0
220
-0.0000000000000002
230
-1.0
 50
179.9999999999992895
 51
189.4748259361599878
  0
ARC
  5
45FC
  8
0
  6
CONTINUOUS
 62
     3
 10
-36.0226809172938829
 20
-86.0781816379453772
 30
0.0
 40
8.1999999999999851
210
0.0
220
-0.0000000000000002
230
-1.0
 50
350.525174063841007
 51
359.9999999999998863
  0
LINE
  5
45FD
  8
0
  6
CONTINUOUS
 62
     3
 10
28.6975675525531493
 20
-91.9999999999997868
 30
0.0000000000000204
 11
27.9345451258103701
 21
-87.4280184497575448
 31
0.0000000000000194
210
0.0
220
1.0
230
-0.0000000000000002
  0
LINE
  5
45FE
  8
0
  6
CONTINUOUS
 62
     3
 10
99.9477942820346357
 20
-91.9999999999997868
 30
0.0000000000000204
 11
100.7108167087774007
 21
-87.4280184497575448
 31
0.0000000000000194
210
0.0
220
1.0
230
-0.0000000000000002
  0
LINE
  5
45FF
  8
0
  6
CONTINUOUS
 62
     3
 10
27.8226809172939014
 20
-86.0781816379454057
 30
0.0000000000000191
 11
27.8226809172939014
 21
-1.999999999999772
 31
0.0000000000000004
210
0.0
220
1.0
230
-0.0000000000000002
  0
LINE
  5
4600
  8
0
  6
CONTINUOUS
 62
     3
 10
100.8226809172938943
 20
-86.0781816379454057
 30
0.0000000000000191
 11
100.8226809172938943
 21
-1.999999999999772
 31
0.0000000000000004
210
0.0
220
1.0
230
-0.0000000000000002
  0
LINE
  5
4601
  8
0
  6
CONTINUOUS
 62
     3
 10
100.3392579602149937
 20
-1.2928932188132189
 30
0.0000000000000003
 11
28.3061038743728091
 21
-1.2928932188132189
 31
0.0000000000000003
210
0.0
220
1.0
230
-0.0000000000000002
  0
LINE
  5
4602
  8
0
  6
CONTINUOUS
 62
     3
 10
35.2717668291783824
 20
56.0000000000002416
 30
-0.0000000000000124
 11
93.3735950054094133
 21
56.0000000000002416
 31
-0.0000000000000124
210
0.0
220
1.0
230
-0.0000000000000002
  0
ARC
  5
4603
  8
0
  6
CONTINUOUS
 62
     3
 10
-98.8226809172939369
 20
11.5373923230926394
 30
0.0
 40
8.0000000000000266
210
0.0
220
-0.0000000000000002
230
-1.0
 50
315.0
 51
360.0
  0
ARC
  5
4604
  8
0
  6
CONTINUOUS
 62
     3
 10
-29.8226809172939191
 20
11.5373923230926199
 30
0.0
 40
7.9999999999999707
210
0.0
220
-0.0000000000000002
230
-1.0
 50
179.9999999999998863
 51
225.0000000000001137
  0
LINE
  5
4605
  8
0
  6
CONTINUOUS
 62
     3
 10
93.1658266678015252
 20
5.880538073600249
 30
-0.0000000000000013
 11
100.3392579602149937
 21
-1.292893218813213
 31
0.0000000000000003
210
0.0
220
1.0
230
-0.0000000000000002
  0
LINE
  5
4606
  8
0
  6
CONTINUOUS
 62
     3
 10
35.4795351667862704
 20
5.880538073600249
 30
-0.0000000000000013
 11
28.3061038743727984
 21
-1.292893218813213
 31
0.0000000000000003
210
0.0
220
1.0
230
-0.0000000000000002
  0
LINE
  5
4607
  8
0
  6
CONTINUOUS
 62
     3
 10
29.0132106555593587
 20
-1.999999999999772
 30
0.0000000000000004
 11
28.3061038743728091
 21
-1.2928932188132189
 31
0.0000000000000003
210
0.0
220
1.0
230
-0.0000000000000002
  0
LINE
  5
4608
  8
0
  6
CONTINUOUS
 62
     3
 10
99.6321511790284262
 20
-1.999999999999772
 30
0.0000000000000004
 11
100.3392579602149937
 21
-1.2928932188132189
 31
0.0000000000000003
210
0.0
220
1.0
230
-0.0000000000000002
  0
ARC
  5
4609
  8
0
  6
CONTINUOUS
 62
     3
 10
-29.8226809172933116
 20
13.8558403259254508
 30
0.0
 40
8.0000000000005969
210
0.0
220
-0.0000000000000002
230
-1.0
 50
150.6678898322969928
 51
179.9999999999988063
  0
ARC
  5
460A
  8
0
  6
CONTINUOUS
 62
     3
 10
-98.8226809172945764
 20
13.8558403259254508
 30
0.0
 40
8.0000000000006821
210
0.0
220
-0.0000000000000002
230
-1.0
 50
0.0000000000011959
 51
29.3321101677027691
  0
ARC
  5
460B
  8
0
  6
CONTINUOUS
 62
     3
 10
-46.8226809172930203
 20
23.4083269131966816
 30
0.0
 40
11.4999999999990692
210
0.0
220
-0.0000000000000002
230
-1.0
 50
330.6678898322958844
 51
0.0000000000013994
  0
ARC
  5
460C
  8
0
  6
CONTINUOUS
 62
     3
 10
-81.8226809172947043
 20
23.4083269131966887
 30
0.0
 40
11.4999999999991296
210
0.0
220
-0.0000000000000002
230
-1.0
 50
179.9999999999986073
 51
209.3321101677040019
  0
LINE
  5
460D
  8
0
  6
CONTINUOUS
 62
     3
 10
93.3226809172938943
 20
34.5000000000010019
 30
-0.0000000000000077
 11
93.3226809172938943
 21
23.4083269131969587
 31
-0.0000000000000052
210
0.0
220
1.0
230
-0.0000000000000002
  0
LINE
  5
460E
  8
0
  6
CONTINUOUS
 62
     3
 10
35.3226809172939014
 20
34.5000000000010019
 30
-0.0000000000000077
 11
35.3226809172939014
 21
23.4083269131969587
 31
-0.0000000000000052
210
0.0
220
1.0
230
-0.0000000000000002
  0
ARC
  5
460F
  8
0
  6
CONTINUOUS
 62
     3
 10
-24.8226809172913114
 20
34.5000000000006892
 30
0.0
 40
10.5000000000025793
210
0.0
220
-0.0000000000000002
230
-1.0
 50
160.5369005553181978
 51
179.9999999999982094
  0
ARC
  5
4610
  8
0
  6
CONTINUOUS
 62
     3
 10
-103.8226809172964948
 20
34.5000000000006821
 30
0.0
 40
10.5000000000026095
210
0.0
220
-0.0000000000000002
230
-1.0
 50
0.0000000000017429
 51
19.4630994446817382
  0
ARC
  5
4611
  8
0
  6
CONTINUOUS
 62
     3
 10
-57.8226591273661512
 20
46.1619922995690786
 30
0.0
 40
24.5000089465763686
210
0.0
220
-0.0000000000000002
230
-1.0
 50
340.5369005553171746
 51
359.9092426534145943
  0
ARC
  5
4612
  8
0
  6
CONTINUOUS
 62
     3
 10
-70.8227027072216515
 20
46.1619922995690786
 30
0.0
 40
24.5000089465763509
210
0.0
220
-0.0000000000000002
230
-1.0
 50
180.090757346585292
 51
199.4630994446827117
  0
LINE
  5
4613
  8
0
  6
CONTINUOUS
 62
     3
 10
95.3226809172937806
 20
47.6174986573400929
 30
-0.0000000000000106
 11
95.3226809172937806
 21
46.1231839459285311
 31
-0.0000000000000102
210
0.0
220
1.0
230
-0.0000000000000002
  0
LINE
  5
4614
  8
0
  6
CONTINUOUS
 62
     3
 10
33.3226809172940079
 20
47.6174986573400929
 30
-0.0000000000000106
 11
33.3226809172940079
 21
46.1231839459285311
 31
-0.0000000000000102
210
0.0
220
1.0
230
-0.0000000000000002
  0
ARC
  5
4615
  8
0
  6
CONTINUOUS
 62
     3
 10
-52.3226809172936811
 20
47.6174986573401071
 30
0.0
 40
18.9999999999996696
210
0.0
220
-0.0000000000000002
230
-1.0
 50
360.0
 51
26.1794673729085083
  0
ARC
  5
4616
  8
0
  6
CONTINUOUS
 62
     3
 10
-76.3226809172941216
 20
47.6174986573401284
 30
0.0
 40
18.9999999999996589
210
0.0
220
-0.0000000000000002
230
-1.0
 50
153.8205326270914099
 51
180.0
  0
LINE
  5
4617
  8
0
  6
CONTINUOUS
 62
     3
 10
37.8226809172939014
 20
11.5373923230926305
 30
-0.0000000000000026
 11
37.8226809172939014
 21
13.8558403259256107
 31
-0.0000000000000031
210
0.0
220
1.0
230
-0.0000000000000002
  0
LINE
  5
4618
  8
0
  6
CONTINUOUS
 62
     3
 10
90.8226809172938943
 20
11.5373923230926305
 30
-0.0000000000000026
 11
90.8226809172938943
 21
13.8558403259256107
 31
-0.0000000000000031
210
0.0
220
1.0
230
-0.0000000000000002
  0
LINE
  5
4619
  8
0
  6
VERDECKT
 62
     1
 10
29.009401840820491
 20
-26.965298269703009
 30
0.000000000000006
 11
99.6359599937673011
 21
-26.965298269703009
 31
0.000000000000006
210
0.0
220
1.0
230
-0.0000000000000002
  0
ARC
  5
461A
  8
0
  6
VERDECKT
 62
     1
 10
-92.6597762810806103
 20
-85.8559085921323941
 30
0.0
 40
6.9999999999965548
210
0.0
220
-0.0000000000000002
230
-1.0
 50
179.9768281316100058
 51
189.4748259361616078
  0
ARC
  5
461B
  8
0
  6
VERDECKT
 62
     1
 10
-35.9855855535105107
 20
-85.8559085921320957
 30
0.0
 40
6.9999999999998943
210
0.0
220
-0.0000000000000002
230
-1.0
 50
350.5251740638403248
 51
0.0231718683875754
  0
LINE
  5
461C
  8
0
  6
VERDECKT
 62
     1
 10
99.6359599937672868
 20
-26.9652982697029984
 30
0.000000000000006
 11
99.6597757086175307
 21
-85.8530776144288694
 31
0.0000000000000191
210
0.0
220
1.0
230
-0.0000000000000002
  0
LINE
  5
461D
  8
0
  6
VERDECKT
 62
     1
 10
29.0094018408205017
 20
-26.9652982697029984
 30
0.000000000000006
 11
28.9855861259702614
 21
-85.8530776144288694
 31
0.0000000000000191
210
0.0
220
1.0
230
-0.0000000000000002
  0
LINE
  5
461E
  8
0
  6
VERDECKT
 62
     1
 10
29.914164337483701
 20
-91.9999999999997868
 30
0.0000000000000204
 11
29.0810793900492399
 21
-87.0082083095327619
 31
0.0000000000000193
210
0.0
220
1.0
230
-0.0000000000000002
  0
LINE
  5
461F
  8
0
  6
VERDECKT
 62
     1
 10
98.7311974971041053
 20
-91.9999999999997868
 30
0.0000000000000204
 11
99.5642824445385486
 21
-87.0082083095327619
 31
0.0000000000000193
210
0.0
220
1.0
230
-0.0000000000000002
  0
LINE
  5
4620
  8
0
  6
VERDECKT
 62
     1
 10
29.0132106555593587
 20
-26.965298269703009
 30
0.000000000000006
 11
29.0132106555593587
 21
-1.999999999999772
 31
0.0000000000000004
210
0.0
220
1.0
230
-0.0000000000000002
  0
LINE
  5
4621
  8
0
  6
VERDECKT
 62
     1
 10
99.6321511790284262
 20
-26.965298269703009
 30
0.000000000000006
 11
99.6321511790284262
 21
-1.999999999999772
 31
0.0000000000000004
210
0.0
220
1.0
230
-0.0000000000000002
  0
ARC
  5
4622
  8
0
  6
VERDECKT
 62
     1
 10
-98.8226809172938658
 20
11.5373923230926003
 30
0.0
 40
8.9999999999999591
210
0.0
220
-0.0000000000000002
230
-1.0
 50
314.9999999999997726
 51
0.0000000000000827
  0
ARC
  5
4623
  8
0
  6
VERDECKT
 62
     1
 10
-29.8226809172939085
 20
11.5373923230926092
 30
0.0
 40
8.9999999999999787
210
0.0
220
-0.0000000000000002
230
-1.0
 50
179.9999999999998863
 51
225.0
  0
LINE
  5
4624
  8
0
  6
VERDECKT
 62
     1
 10
92.4587198866149578
 20
5.1734312924136816
 30
-0.0000000000000011
 11
99.6321511790284262
 21
-1.999999999999772
 31
0.0000000000000004
210
0.0
220
1.0
230
-0.0000000000000002
  0
LINE
  5
4625
  8
0
  6
VERDECKT
 62
     1
 10
36.1866419479728165
 20
5.1734312924136816
 30
-0.0000000000000011
 11
29.0132106555593587
 21
-1.999999999999772
 31
0.0000000000000004
210
0.0
220
1.0
230
-0.0000000000000002
  0
ARC
  5
4626
  8
0
  6
VERDECKT
 62
     1
 10
-52.3226809172930771
 20
47.6174986573403132
 30
0.0
 40
17.9999999999990692
210
0.0
220
-0.0000000000000002
230
-1.0
 50
359.9999999999996021
 51
27.7551793916160214
  0
ARC
  5
4627
  8
0
  6
VERDECKT
 62
     1
 10
-76.3226809172946048
 20
47.617498657340299
 30
0.0
 40
17.9999999999991687
210
0.0
220
-0.0000000000000002
230
-1.0
 50
152.2448206083840887
 51
180.0000000000003979
  0
LINE
  5
4628
  8
0
  6
VERDECKT
 62
     1
 10
94.3226809172937806
 20
47.6174986573401569
 30
-0.0000000000000106
 11
94.3226809172937806
 21
46.1231839459285311
 31
-0.0000000000000102
210
0.0
220
1.0
230
-0.0000000000000002
  0
LINE
  5
4629
  8
0
  6
VERDECKT
 62
     1
 10
34.3226809172940079
 20
47.6174986573401569
 30
-0.0000000000000106
 11
34.3226809172940079
 21
46.1231839459285311
 31
-0.0000000000000102
210
0.0
220
1.0
230
-0.0000000000000002
  0
ARC
  5
462A
  8
0
  6
VERDECKT
 62
     1
 10
-57.8226809172856022
 20
46.1619999999991677
 30
0.0
 40
23.5000320571197996
210
0.0
220
-0.0000000000000002
230
-1.0
 50
340.5369005553091029
 51
359.905361955189278
  0
ARC
  5
462B
  8
0
  6
VERDECKT
 62
     1
 10
-70.8226809173021365
 20
46.161999999999189
 30
0.0
 40
23.50003205711986
210
0.0
220
-0.0000000000000002
230
-1.0
 50
180.0946380448106083
 51
199.4630994446908119
  0
ARC
  5
462C
  8
0
  6
VERDECKT
 62
     1
 10
-24.822680917293301
 20
34.5000000000007176
 30
0.0
 40
11.5000000000005898
210
0.0
220
-0.0000000000000002
230
-1.0
 50
160.5369005553096997
 51
179.9999999999988916
  0
ARC
  5
462D
  8
0
  6
VERDECKT
 62
     1
 10
-103.8226809172947043
 20
34.5000000000006892
 30
0.0
 40
11.5000000000008402
210
0.0
220
-0.0000000000000002
230
-1.0
 50
0.0000000000011323
 51
19.4630994446899308
  0
LINE
  5
462E
  8
0
  6
VERDECKT
 62
     1
 10
92.3226809172938943
 20
34.5000000000009166
 30
-0.0000000000000077
 11
92.3226809172938943
 21
23.4083269131970191
 31
-0.0000000000000052
210
0.0
220
1.0
230
-0.0000000000000002
  0
LINE
  5
462F
  8
0
  6
VERDECKT
 62
     1
 10
36.3226809172939014
 20
34.5000000000009166
 30
-0.0000000000000077
 11
36.3226809172939014
 21
23.4083269131970191
 31
-0.0000000000000052
210
0.0
220
1.0
230
-0.0000000000000002
  0
ARC
  5
4630
  8
0
  6
VERDECKT
 62
     1
 10
-46.8226809172978022
 20
23.4083269131982483
 30
0.0
 40
10.5000000000039595
210
0.0
220
-0.0000000000000002
230
-1.0
 50
330.6678898322998066
 51
359.9999999999932925
  0
ARC
  5
4631
  8
0
  6
VERDECKT
 62
     1
 10
-81.8226809172899863
 20
23.4083269131982483
 30
0.0
 40
10.5000000000039595
210
0.0
220
-0.0000000000000002
230
-1.0
 50
180.0000000000067075
 51
209.3321101677001081
  0
ARC
  5
4632
  8
0
  6
VERDECKT
 62
     1
 10
-29.8226809172925584
 20
13.8558403259253602
 30
0.0
 40
9.0000000000013358
210
0.0
220
-0.0000000000000002
230
-1.0
 50
150.6678898323002898
 51
179.9999999999984084
  0
ARC
  5
4633
  8
0
  6
VERDECKT
 62
     1
 10
-98.8226809172952301
 20
13.8558403259253602
 30
0.0
 40
9.0000000000013358
210
0.0
220
-0.0000000000000002
230
-1.0
 50
0.0000000000015903
 51
29.3321101676997316
  0
LINE
  5
4634
  8
0
  6
VERDECKT
 62
     1
 10
38.8226809172939014
 20
11.5373923230926199
 30
-0.0000000000000026
 11
38.8226809172939014
 21
13.8558403259256107
 31
-0.0000000000000031
210
0.0
220
1.0
230
-0.0000000000000002
  0
LINE
  5
4635
  8
0
  6
VERDECKT
 62
     1
 10
89.8226809172938943
 20
11.5373923230926199
 30
-0.0000000000000026
 11
89.8226809172938943
 21
13.8558403259256107
 31
-0.0000000000000031
210
0.0
220
1.0
230
-0.0000000000000002
  0
ENDBLK
  5
4637
  8
0
  0
ENDSEC
  0
SECTION
  2
ENTITIES
  0
TEXT
  5
2998
  8
VOLL
 10
78.076754716981128
 20
31.025947764705851
 30
0.0
 40
1.8
  1

  7
GREEKS
  0
INSERT
  5
2999
  8
ADSK_ASSOC_ENTITY_BACKUPS
  2
*S0
 10
0.0
 20
0.0
 30
0.0
  0
INSERT
  5
45F6
  8
ROHR
  2
A$CF0F2DE0D
 10
0.0
 20
-320.194250509722508
 30
0.0
  0
INSERT
  5
4638
  8
ROHR
  2
A$C80A574F2
 10
0.0
 20
0.0
 30
0.0
  0
VIEWPORT
  5
928
 67
     1
  8
0
 10
106.9309675006310982
 20
150.5384321741211977
 30
0.0
 40
570.0086229410892429
 41
304.4895652173913163
 68
     1
 69
     1
1001
ACAD
1000
MVIEW
1002
{
1070
    16
1010
0.0
1020
0.0
1030
0.0
1010
0.0
1020
0.0
1030
1.0
1040
0.0
1040
304.4895652173913163
1040
106.9309675006310982
1040
150.5384321741211977
1040
50.0
1040
0.0
1040
0.0
1070
     0
1070
  1500
1070
     1
1070
     1
1070
     0
1070
     0
1070
     0
1070
     0
1040
0.0
1040
0.0
1040
0.0
1040
10.0
1040
10.0
1040
10.0
1040
10.0
1070
     0
1002
{
1002
}
1002
}
  0
ENDSEC
  0
EOF
