  0
SECTION
  2
HEADER
  9
$ACADVER
  1
AC1009
  9
$INSBASE
 10
0.0
 20
0.0
 30
0.0
  9
$EXTMIN
 10
-26.5
 20
0.0000000000000062
 30
-76.3929218197572766
  9
$EXTMAX
 10
775.6708984374998863
 20
214.6048583984375
 30
124.90185546875
  9
$LIMMIN
 10
0.0
 20
0.0
  9
$LIMMAX
 10
210.0
 20
297.0
  9
$ORTHOMODE
 70
     1
  9
$REGENMODE
 70
     1
  9
$FILLMODE
 70
     1
  9
$QTEXTMODE
 70
     0
  9
$MIRRTEXT
 70
     1
  9
$DRAGMODE
 70
     2
  9
$LTSCALE
 40
10.0
  9
$OSMODE
 70
  3583
  9
$ATTMODE
 70
     1
  9
$TEXTSIZE
 40
3.5
  9
$TRACEWID
 40
0.5
  9
$TEXTSTYLE
  7
STANDARD
  9
$CLAYER
  8
STEMPEL
  9
$CELTYPE
  6
BYLAYER
  9
$CECOLOR
 62
   256
  9
$DIMSCALE
 40
1.0
  9
$DIMASZ
 40
3.5
  9
$DIMEXO
 40
1.0
  9
$DIMDLI
 40
0.38
  9
$DIMRND
 40
0.0
  9
$DIMDLE
 40
0.0
  9
$DIMEXE
 40
1.0
  9
$DIMTP
 40
0.0
  9
$DIMTM
 40
0.000000001
  9
$DIMTXT
 40
3.5
  9
$DIMCEN
 40
0.09
  9
$DIMTSZ
 40
0.0
  9
$DIMTOL
 70
     0
  9
$DIMLIM
 70
     0
  9
$DIMTIH
 70
     0
  9
$DIMTOH
 70
     0
  9
$DIMSE1
 70
     0
  9
$DIMSE2
 70
     0
  9
$DIMTAD
 70
     1
  9
$DIMZIN
 70
     8
  9
$DIMBLK
  1

  9
$DIMASO
 70
     1
  9
$DIMSHO
 70
     0
  9
$DIMPOST
  1

  9
$DIMAPOST
  1

  9
$DIMALT
 70
     0
  9
$DIMALTD
 70
     2
  9
$DIMALTF
 40
25.3999999999999986
  9
$DIMLFAC
 40
1.0
  9
$DIMTOFL
 70
     1
  9
$DIMTVP
 40
0.0
  9
$DIMTIX
 70
     0
  9
$DIMSOXD
 70
     0
  9
$DIMSAH
 70
     0
  9
$DIMBLK1
  1

  9
$DIMBLK2
  1

  9
$DIMSTYLE
  2
LORO
  9
$DIMCLRD
 70
     0
  9
$DIMCLRE
 70
     0
  9
$DIMCLRT
 70
     1
  9
$DIMTFAC
 40
0.5
  9
$DIMGAP
 40
1.5
  9
$LUNITS
 70
     2
  9
$LUPREC
 70
     2
  9
$SKETCHINC
 40
1.0
  9
$FILLETRAD
 40
8.0
  9
$AUNITS
 70
     0
  9
$AUPREC
 70
     0
  9
$MENU
  1
ACAD
  9
$ELEVATION
 40
0.0
  9
$PELEVATION
 40
0.0
  9
$THICKNESS
 40
0.0
  9
$LIMCHECK
 70
     0
  9
$BLIPMODE
 70
     0
  9
$CHAMFERA
 40
0.0
  9
$CHAMFERB
 40
0.0
  9
$SKPOLY
 70
     0
  9
$TDCREATE
 40
2455397.8646990740671754
  9
$TDUPDATE
 40
2460747.4103472218848765
  9
$TDINDWG
 40
0.1712993519
  9
$TDUSRTIMER
 40
0.1712993519
  9
$USRTIMER
 70
     1
  9
$ANGBASE
 50
0.0
  9
$ANGDIR
 70
     0
  9
$PDMODE
 70
     0
  9
$PDSIZE
 40
0.0
  9
$PLINEWID
 40
0.0
  9
$COORDS
 70
     1
  9
$SPLFRAME
 70
     0
  9
$SPLINETYPE
 70
     6
  9
$SPLINESEGS
 70
     8
  9
$ATTDIA
 70
     1
  9
$ATTREQ
 70
     1
  9
$HANDLING
 70
     1
  9
$HANDSEED
  5
241D
  9
$SURFTAB1
 70
     6
  9
$SURFTAB2
 70
     6
  9
$SURFTYPE
 70
     6
  9
$SURFU
 70
     6
  9
$SURFV
 70
     6
  9
$UCSNAME
  2

  9
$UCSORG
 10
0.0
 20
0.0
 30
0.0
  9
$UCSXDIR
 10
1.0
 20
0.0
 30
0.0
  9
$UCSYDIR
 10
0.0
 20
1.0
 30
0.0
  9
$PUCSNAME
  2

  9
$PUCSORG
 10
0.0
 20
0.0
 30
0.0
  9
$PUCSXDIR
 10
1.0
 20
0.0
 30
0.0
  9
$PUCSYDIR
 10
0.0
 20
1.0
 30
0.0
  9
$USERI1
 70
     0
  9
$USERI2
 70
     0
  9
$USERI3
 70
     0
  9
$USERI4
 70
     0
  9
$USERI5
 70
     0
  9
$USERR1
 40
0.0
  9
$USERR2
 40
0.0
  9
$USERR3
 40
0.0
  9
$USERR4
 40
0.0
  9
$USERR5
 40
0.0
  9
$WORLDVIEW
 70
     1
  9
$SHADEDGE
 70
     3
  9
$SHADEDIF
 70
    70
  9
$TILEMODE
 70
     1
  9
$MAXACTVP
 70
    16
  9
$PLIMCHECK
 70
     0
  9
$PEXTMIN
 10
1.0000000000000000E+20
 20
1.0000000000000000E+20
 30
1.0000000000000000E+20
  9
$PEXTMAX
 10
-1.0000000000000000E+20
 20
-1.0000000000000000E+20
 30
-1.0000000000000000E+20
  9
$PLIMMIN
 10
-6.5507563588300846
 20
-5.0340269820445647
  9
$PLIMMAX
 10
203.4492436411698861
 20
291.9659730179553776
  9
$UNITMODE
 70
     0
  9
$VISRETAIN
 70
     0
  9
$PLINEGEN
 70
     0
  9
$PSLTSCALE
 70
     0
  0
ENDSEC
  0
SECTION
  2
TABLES
  0
TABLE
  2
VPORT
 70
     1
  0
VPORT
  2
*ACTIVE
 70
     0
 10
0.0
 20
0.0
 11
1.0
 21
1.0
 12
0.0
 22
0.0
 13
0.0
 23
0.0
 14
1.0
 24
1.0
 15
10.0
 25
10.0
 16
0.0
 26
-575.9940718652999294
 36
0.0
 17
19.25
 27
0.0000000000000261
 37
24.2544670104980504
 40
221.1149864072199875
 41
1.9004329004328999
 42
50.0
 43
0.0
 44
0.0
 50
0.0
 51
0.0
 71
     0
 72
  1500
 73
     1
 74
     0
 75
     0
 76
     0
 77
     0
 78
     0
  0
ENDTAB
  0
TABLE
  2
LTYPE
 70
     4
  0
LTYPE
  2
CONTINUOUS
 70
     0
  3
Solid line
 72
    65
 73
     0
 40
0.0
  0
LTYPE
  2
STRICHPUNKT
 70
     0
  3
__ . __ . __ . __ . __ . __ . __ . __ . __ . __
 72
    65
 73
     4
 40
1.0
 49
0.5
 49
-0.25
 49
0.0
 49
-0.25
  0
LTYPE
  2
AUSGEZOGEN
 70
     0
  3
Ausgezogene Linie
 72
    65
 73
     0
 40
0.0
  0
LTYPE
  2
VERDECKT
 70
     0
  3
Verdeckt __ __ __ __ __ __ __ __ __ __ __ __ __
 72
    65
 73
     2
 40
0.375
 49
0.25
 49
-0.125
  0
ENDTAB
  0
TABLE
  2
LAYER
 70
     8
  0
LAYER
  2
0
 70
     0
 62
     7
  6
CONTINUOUS
  0
LAYER
  2
VOLL
 70
     0
 62
     1
  6
CONTINUOUS
  0
LAYER
  2
BEM
 70
     0
 62
     7
  6
CONTINUOUS
  0
LAYER
  2
STEMPEL
 70
     0
 62
     3
  6
CONTINUOUS
  0
LAYER
  2
TEXT
 70
     0
 62
     7
  6
CONTINUOUS
  0
LAYER
  2
DEFPOINTS
 70
     0
 62
     7
  6
AUSGEZOGEN
  0
LAYER
  2
MATERIAL__EDELSTAHL_
 70
     0
 62
   254
  6
CONTINUOUS
  0
LAYER
  2
ADSK_ASSOC_ENTITY_BACKUPS
 70
     1
 62
    -7
  6
CONTINUOUS
  0
ENDTAB
  0
TABLE
  2
STYLE
 70
     3
  0
STYLE
  2
STANDARD
 70
     0
 40
0.0
 41
0.8
 50
0.0
 71
     0
 42
3.5
  3
simplex.shx
  4

  0
STYLE
  2
GREEKS
 70
     0
 40
0.0
 41
0.8
 50
0.0
 71
     0
 42
2.5
  3
SIMPLEX.shx
  4

  0
STYLE
  2

 70
     1
 40
0.0
 41
1.0
 50
0.0
 71
     0
 42
2.5
  3
ltypeshp.shx
  4

  0
ENDTAB
  0
TABLE
  2
VIEW
 70
     0
  0
ENDTAB
  0
TABLE
  2
UCS
 70
     0
  0
ENDTAB
  0
TABLE
  2
APPID
 70
    25
  0
APPID
  2
ACAD
 70
     0
  0
APPID
  2
ACAD_NAV_VCDISPLAY
 70
     0
  0
APPID
  2
ACAECLAYERSTANDARD
 70
     0
  0
APPID
  2
ACCMTRANSPARENCY
 70
     0
  0
APPID
  2
ACAD_PSEXT
 70
     0
  0
APPID
  2
ACAD_MLEADERVER
 70
     0
  0
APPID
  2
ACAD_OBJECT_CHANGE_GUID
 70
     0
  0
APPID
  2
ACAD_EXEMPT_FROM_CAD_STANDARDS
 70
     0
  0
APPID
  2
ACADANNOMONITORALERTICONDI
 70
     0
  0
APPID
  2
ACAD_DSTYLE_DIMJAG
 70
     0
  0
APPID
  2
ACAD_DSTYLE_DIMTALN
 70
     0
  0
APPID
  2
GRADIENTCOLOR1ACI
 70
     0
  0
APPID
  2
GRADIENTCOLOR2ACI
 70
     0
  0
APPID
  2
ACAD_DSTYLE_DIMRADIAL_EXTENSION
 70
     0
  0
APPID
  2
ACDBDYNAMICBLOCKGUID
 70
     0
  0
APPID
  2
ACAD_STEPID
 70
     0
  0
APPID
  2
ACAD_DSTYLE_DIMBREAK
 70
     0
  0
APPID
  2
ACSYNERGY
 70
     0
  0
APPID
  2
SYNERGY_BODY_TBR_ID
 70
     0
  0
APPID
  2
ACAD_VIEW_EDGE_ID
 70
     0
  0
APPID
  2
ACADANNOPO
 70
     0
  0
APPID
  2
ACAD_DIMASSOC_CALC_DIMLFAC
 70
     0
  0
APPID
  2
ACAD_DIMASSOC_DIMLFAC
 70
     0
  0
APPID
  2
ACAD_DIMASSOC_OVERRIDDEN_D
 70
     0
  0
APPID
  2
ACADANNOTATIVE
 70
     0
  0
ENDTAB
  0
TABLE
  2
DIMSTYLE
 70
     2
  0
DIMSTYLE
  2
LORO
 70
     0
  3

  4

  5

  6

  7

 40
1.0
 41
3.5
 42
1.0
 43
0.38
 44
1.0
 45
0.0
 46
0.0
 47
0.0
 48
0.000000001
140
3.5
141
0.09
142
0.0
143
25.3999999999999986
144
1.0
145
0.0
146
0.5
147
1.5
 71
     0
 72
     0
 73
     0
 74
     0
 75
     0
 76
     0
 77
     1
 78
     8
170
     0
171
     2
172
     1
173
     0
174
     0
175
     0
176
     0
177
     0
178
     1
  0
DIMSTYLE
  2
STANDARD
 70
     0
  3

  4

  5

  6

  7

 40
1.0
 41
0.18
 42
0.0625
 43
0.38
 44
0.18
 45
0.0
 46
0.0
 47
0.0
 48
0.0
140
0.18
141
0.09
142
0.0
143
25.3999999999999986
144
1.0
145
0.0
146
1.0
147
0.09
 71
     0
 72
     0
 73
     1
 74
     1
 75
     0
 76
     0
 77
     0
 78
     0
170
     0
171
     2
172
     0
173
     0
174
     0
175
     0
176
     0
177
     0
178
     0
  0
ENDTAB
  0
ENDSEC
  0
SECTION
  2
BLOCKS
  0
BLOCK
  8
0
  2
$MODEL_SPACE
 70
     0
 10
0.0
 20
0.0
 30
0.0
  3
$MODEL_SPACE
  1

  0
ENDBLK
  5
36
  8
0
  0
BLOCK
 67
     1
  8
0
  2
$PAPER_SPACE
 70
     0
 10
0.0
 20
0.0
 30
0.0
  3
$PAPER_SPACE
  1

  0
ENDBLK
  5
34
 67
     1
  8
0
  0
BLOCK
  8
0
  2
*S0
 70
     1
 10
0.0
 20
0.0
 30
0.0
  3
*S0
  1

  0
ENDBLK
  5
16F1
  8
0
  0
BLOCK
  8
0
  2
A$C916E8400
 70
     0
 10
0.0
 20
0.0
 30
0.0
  3
A$C916E8400
  1

  0
LINE
  5
2351
  8
0
  6
CONTINUOUS
 62
     3
 10
399.7902761185629856
 20
-62.5000000000002416
 30
0.0000000000000139
 11
347.6651627538220737
 21
-62.5000000000002416
 31
0.0000000000000139
210
0.0
220
1.0
230
-0.0000000000000002
  0
ARC
  5
2352
  8
0
  6
CONTINUOUS
 62
     3
 10
-380.2277194361919896
 20
-16.0510738497117593
 30
0.0
 40
20.0000000000006288
210
0.0
220
-0.0000000000000002
230
-1.0
 50
159.8636965717477949
 51
179.999999999999801
  0
ARC
  5
2353
  8
0
  6
CONTINUOUS
 62
     3
 10
-367.227719436193297
 20
-16.05107384971177
 30
0.0
 40
20.0000000000006786
210
0.0
220
-0.0000000000000002
230
-1.0
 50
0.0000000000001399
 51
20.1363034282520914
  0
LINE
  5
2354
  8
0
  6
CONTINUOUS
 62
     3
 10
395.2167089091000207
 20
1.1663923466130659
 30
-0.0000000000000003
 11
399.0052457539243278
 21
-9.1659808665417604
 31
0.000000000000002
210
0.0
220
1.0
230
-0.0000000000000002
  0
LINE
  5
2355
  8
0
  6
CONTINUOUS
 62
     3
 10
352.2387299632853228
 20
1.1663923466130659
 30
-0.0000000000000003
 11
348.4501931184610157
 21
-9.1659808665417604
 31
0.000000000000002
210
0.0
220
1.0
230
-0.0000000000000002
  0
ARC
  5
2356
  8
0
  6
CONTINUOUS
 62
     3
 10
-402.7277194361935244
 20
3.9204295398812028
 30
0.0
 40
8.0000000000009113
210
0.0
220
-0.0000000000000002
230
-1.0
 50
339.8636965717483918
 51
359.999999999998181
  0
ARC
  5
2357
  8
0
  6
CONTINUOUS
 62
     3
 10
-344.7277194361917054
 20
3.9204295398812081
 30
0.0
 40
8.0000000000009095
210
0.0
220
-0.0000000000000002
230
-1.0
 50
180.0000000000017053
 51
200.1363034282514946
  0
LINE
  5
2358
  8
0
  6
CONTINUOUS
 62
     3
 10
352.7277194361926149
 20
3.9204295398809572
 30
-0.0000000000000009
 11
352.7277194361926149
 21
5.5000000000002283
 31
-0.0000000000000012
210
0.0
220
1.0
230
-0.0000000000000002
  0
LINE
  5
2359
  8
0
  6
CONTINUOUS
 62
     3
 10
394.7277194361926149
 20
3.9204295398809572
 30
-0.0000000000000009
 11
394.7277194361926149
 21
5.5000000000002283
 31
-0.0000000000000012
210
0.0
220
1.0
230
-0.0000000000000002
  0
LINE
  5
235A
  8
0
  6
CONTINUOUS
 62
     3
 10
347.6651627538220737
 20
-62.5000000000002416
 30
0.0000000000000139
 11
347.2277194361926149
 21
-57.5000000000027995
 31
0.0000000000000128
210
0.0
220
1.0
230
-0.0000000000000002
  0
LINE
  5
235B
  8
0
  6
CONTINUOUS
 62
     3
 10
399.7902761185629856
 20
-62.5000000000002416
 30
0.0000000000000139
 11
400.2277194361925012
 21
-57.5000000000027995
 31
0.0000000000000128
210
0.0
220
1.0
230
-0.0000000000000002
  0
LINE
  5
235C
  8
0
  6
CONTINUOUS
 62
     3
 10
347.2277194361926149
 20
-57.5000000000027995
 30
0.0000000000000128
 11
347.2277194361926149
 21
-16.0510738497117096
 31
0.0000000000000036
210
0.0
220
1.0
230
-0.0000000000000002
  0
LINE
  5
235D
  8
0
  6
CONTINUOUS
 62
     3
 10
400.2277194361925012
 20
-57.5000000000027995
 30
0.0000000000000128
 11
400.2277194361925012
 21
-16.0510738497117096
 31
0.0000000000000036
210
0.0
220
1.0
230
-0.0000000000000002
  0
LINE
  5
235E
  8
0
  6
CONTINUOUS
 62
     3
 10
438.7277194361931834
 20
14.2001237698557894
 30
-0.0000000000000032
 11
438.7277194361931834
 21
60.7998762301446689
 31
-0.0000000000000135
210
0.0
220
1.0
230
-0.0000000000000002
  0
ARC
  5
235F
  8
0
  6
CONTINUOUS
 62
     3
 10
-405.1180268837024983
 20
10.00000000000089
 30
0.0
 40
6.4999999999993259
210
0.0
220
-0.0000000000000002
230
-1.0
 50
95.3821905213535643
 51
121.8009488966052061
  0
ARC
  5
2360
  8
0
  6
CONTINUOUS
 62
     3
 10
-405.1180268837023277
 20
65.0000000000000142
 30
0.0
 40
6.4999999999997851
210
0.0
220
-0.0000000000000002
230
-1.0
 50
238.199051103394396
 51
264.617809478645313
  0
ARC
  5
2361
  8
0
  6
CONTINUOUS
 62
     3
 10
-413.5495448166897177
 20
23.5981434521667204
 30
0.0
 40
9.4999999999996625
210
0.0
220
-0.0000000000000002
230
-1.0
 50
270.0
 51
301.8009488966010281
  0
ARC
  5
2362
  8
0
  6
CONTINUOUS
 62
     3
 10
-413.5495448166897177
 20
51.4018565478339227
 30
0.0
 40
9.4999999999995097
210
0.0
220
-0.0000000000000002
230
-1.0
 50
58.1990511033995332
 51
90.0000000000010374
  0
LINE
  5
2363
  8
0
  6
CONTINUOUS
 62
     3
 10
413.5495448166898882
 20
60.9018565478334182
 30
-0.0000000000000135
 11
417.7277194361935244
 21
60.9018565478334182
 31
-0.0000000000000135
210
0.0
220
1.0
230
-0.0000000000000002
  0
LINE
  5
2364
  8
0
  6
CONTINUOUS
 62
     3
 10
413.5495448166897177
 20
14.0981434521670508
 30
-0.0000000000000031
 11
417.7277194361935244
 21
14.0981434521670508
 31
-0.0000000000000031
210
0.0
220
1.0
230
-0.0000000000000002
  0
ARC
  5
2365
  8
0
  6
CONTINUOUS
 62
     3
 10
-417.7277194361931265
 20
3.598143452164944
 30
0.0
 40
10.5000000000020997
210
0.0
220
-0.0000000000000002
230
-1.0
 50
90.00000000000216
 51
108.1939705983810001
  0
ARC
  5
2366
  8
0
  6
CONTINUOUS
 62
     3
 10
-417.7277194361931265
 20
71.4018565478354503
 30
0.0
 40
10.5000000000020197
210
0.0
220
-0.0000000000000002
230
-1.0
 50
251.8060294016189005
 51
269.9999999999977831
  0
ARC
  5
2367
  8
0
  6
CONTINUOUS
 62
     3
 10
-427.0961798215213889
 20
32.1041590656421079
 30
0.0
 40
19.5060156681434584
210
0.0
220
-0.0000000000000002
230
-1.0
 50
270.0042896467053879
 51
288.192528624843078
  0
ARC
  5
2368
  8
0
  6
CONTINUOUS
 62
     3
 10
-427.0961798215212752
 20
42.895840934359228
 30
0.0
 40
19.5060156681425809
210
0.0
220
-0.0000000000000002
230
-1.0
 50
71.8074713751564104
 51
89.9957103532952942
  0
LINE
  5
2369
  8
0
  6
CONTINUOUS
 62
     3
 10
427.0947194361933725
 20
62.4018565478334182
 30
-0.0000000000000139
 11
431.7493937610922217
 21
62.4018565478334182
 31
-0.0000000000000139
210
0.0
220
1.0
230
-0.0000000000000002
  0
LINE
  5
236A
  8
0
  6
CONTINUOUS
 62
     3
 10
427.094719436193202
 20
12.5981434521670508
 30
-0.0000000000000028
 11
431.7493937610919943
 21
12.5981434521670508
 31
-0.0000000000000028
210
0.0
220
1.0
230
-0.0000000000000002
  0
ARC
  5
236B
  8
0
  6
CONTINUOUS
 62
     3
 10
-431.7493937610922217
 20
28.5981434521669193
 30
0.0
 40
15.9999999999998099
210
0.0
220
-0.0000000000000002
230
-1.0
 50
244.1418030082627979
 51
270.0000000000006253
  0
ARC
  5
236C
  8
0
  6
CONTINUOUS
 62
     3
 10
-431.7493937610922217
 20
46.4018565478337877
 30
0.0
 40
15.9999999999995701
210
0.0
220
-0.0000000000000002
230
-1.0
 50
89.9999999999995879
 51
115.8581969917376
  0
LINE
  5
236D
  8
0
  6
CONTINUOUS
 62
     3
 10
405.7277194361926149
 20
16.3000000000001783
 30
-0.0000000000000036
 11
405.7277194361926149
 21
58.7000000000002871
 31
-0.000000000000013
210
0.0
220
1.0
230
-0.0000000000000002
  0
LINE
  5
236E
  8
0
  6
CONTINUOUS
 62
     3
 10
394.9277194361926036
 20
5.5000000000002238
 30
-0.0000000000000012
 11
352.5277194361926263
 21
5.5000000000002309
 31
-0.0000000000000012
210
0.0
220
1.0
230
-0.0000000000000002
  0
ARC
  5
236F
  8
0
  6
CONTINUOUS
 62
     3
 10
-405.7277194361926149
 20
5.5000000000002416
 30
0.0
 40
53.1999999999999815
210
0.0
220
-0.0000000000000002
230
-1.0
 50
0.0
 51
90.0000000000000284
  0
ARC
  5
2370
  8
0
  6
CONTINUOUS
 62
     3
 10
405.7277194361926149
 20
5.5000000000002416
 30
-0.0000000000000012
 40
10.7999999999999794
 50
90.0
 51
180.0
  0
LINE
  5
2371
  8
0
  6
VERDECKT
 62
     1
 10
398.7940814204712865
 20
-62.4128442572525799
 30
0.0000000000000139
 11
348.6613574519137728
 21
-62.4128442572525799
 31
0.0000000000000139
210
0.0
220
1.0
230
-0.0000000000000002
  0
LINE
  5
2372
  8
0
  6
VERDECKT
 62
     1
 10
353.7277194361926149
 20
3.9204295398809572
 30
-0.0000000000000009
 11
353.7277194361926149
 21
5.5000000000002283
 31
-0.0000000000000012
210
0.0
220
1.0
230
-0.0000000000000002
  0
LINE
  5
2373
  8
0
  6
VERDECKT
 62
     1
 10
393.7277194361926149
 20
3.9204295398809572
 30
-0.0000000000000009
 11
393.7277194361926149
 21
5.5000000000002283
 31
-0.0000000000000012
210
0.0
220
1.0
230
-0.0000000000000002
  0
ARC
  5
2374
  8
0
  6
VERDECKT
 62
     1
 10
-402.7277194361917054
 20
3.9204295398808071
 30
0.0
 40
8.9999999999990923
210
0.0
220
-0.0000000000000002
230
-1.0
 50
339.8636965717466865
 51
0.0000000000009287
  0
ARC
  5
2375
  8
0
  6
VERDECKT
 62
     1
 10
-344.7277194361935244
 20
3.9204295398808111
 30
0.0
 40
8.9999999999991473
210
0.0
220
-0.0000000000000002
230
-1.0
 50
179.9999999999990905
 51
200.1363034282531999
  0
LINE
  5
2376
  8
0
  6
VERDECKT
 62
     1
 10
394.277832593213418
 20
0.8221376974545375
 30
-0.0000000000000002
 11
398.0663694380377251
 21
-9.5102355157002894
 31
0.0000000000000021
210
0.0
220
1.0
230
-0.0000000000000002
  0
LINE
  5
2377
  8
0
  6
VERDECKT
 62
     1
 10
353.1776062791719255
 20
0.8221376974545375
 30
-0.0000000000000002
 11
349.3890694343475047
 21
-9.5102355157002894
 31
0.0000000000000021
210
0.0
220
1.0
230
-0.0000000000000002
  0
ARC
  5
2378
  8
0
  6
VERDECKT
 62
     1
 10
-380.2277194361938086
 20
-16.0510738497115213
 30
0.0
 40
18.9999999999988098
210
0.0
220
-0.0000000000000002
230
-1.0
 50
159.8636965717466865
 51
180.0000000000005116
  0
ARC
  5
2379
  8
0
  6
VERDECKT
 62
     1
 10
-367.2277194361914781
 20
-16.0510738497115213
 30
0.0
 40
18.9999999999988596
210
0.0
220
-0.0000000000000002
230
-1.0
 50
359.9999999999993747
 51
20.1363034282532212
  0
LINE
  5
237A
  8
0
  6
VERDECKT
 62
     1
 10
348.2277194361925012
 20
-57.4563390570910499
 30
0.0000000000000128
 11
348.2277194361925012
 21
-16.0510738497117096
 31
0.0000000000000036
210
0.0
220
1.0
230
-0.0000000000000002
  0
LINE
  5
237B
  8
0
  6
VERDECKT
 62
     1
 10
399.2277194361926149
 20
-57.4563390570910499
 30
0.0000000000000128
 11
399.2277194361926149
 21
-16.0510738497117096
 31
0.0000000000000036
210
0.0
220
1.0
230
-0.0000000000000002
  0
LINE
  5
237C
  8
0
  6
VERDECKT
 62
     1
 10
348.6613574519137728
 20
-62.4128442572525799
 30
0.0000000000000139
 11
348.2277194361925012
 21
-57.4563390570910499
 31
0.0000000000000128
210
0.0
220
1.0
230
-0.0000000000000002
  0
LINE
  5
237D
  8
0
  6
VERDECKT
 62
     1
 10
398.7940814204712865
 20
-62.4128442572525799
 30
0.0000000000000139
 11
399.2277194361926149
 21
-57.4563390570910499
 31
0.0000000000000128
210
0.0
220
1.0
230
-0.0000000000000002
  0
LINE
  5
237E
  8
0
  6
VERDECKT
 62
     1
 10
398.7940814204712865
 20
-62.4128442572525799
 30
0.0000000000000139
 11
399.7902761185629856
 21
-62.5000000000002416
 31
0.0000000000000139
210
0.0
220
1.0
230
-0.0000000000000002
  0
LINE
  5
237F
  8
0
  6
VERDECKT
 62
     1
 10
348.6613574519137728
 20
-62.4128442572525799
 30
0.0000000000000139
 11
347.6651627538220737
 21
-62.5000000000002416
 31
0.0000000000000139
210
0.0
220
1.0
230
-0.0000000000000002
  0
LINE
  5
2380
  8
0
  6
VERDECKT
 62
     1
 10
438.291574081499391
 20
15.1000000000002501
 30
-0.0000000000000034
 11
438.291574081499391
 21
59.9000000000002188
 31
-0.0000000000000133
210
0.0
220
1.0
230
-0.0000000000000002
  0
LINE
  5
2381
  8
0
  6
VERDECKT
 62
     1
 10
427.0947194361933725
 20
61.4018565478334111
 30
-0.0000000000000136
 11
431.7493937610922217
 21
61.4018565478334111
 31
-0.0000000000000136
210
0.0
220
1.0
230
-0.0000000000000002
  0
LINE
  5
2382
  8
0
  6
VERDECKT
 62
     1
 10
427.094719436193202
 20
13.5981434521670508
 30
-0.000000000000003
 11
431.7493937610919943
 21
13.5981434521670508
 31
-0.000000000000003
210
0.0
220
1.0
230
-0.0000000000000002
  0
ARC
  5
2383
  8
0
  6
VERDECKT
 62
     1
 10
-427.096179846188079
 20
32.1041591672479427
 30
0.0
 40
18.506015772705311
210
0.0
220
-0.0000000000000002
230
-1.0
 50
270.0045215204709166
 51
288.1924506800027075
  0
ARC
  5
2384
  8
0
  6
VERDECKT
 62
     1
 10
-427.096179846188079
 20
42.8958408327528318
 30
0.0
 40
18.5060157727050196
210
0.0
220
-0.0000000000000002
230
-1.0
 50
71.8075493199973778
 51
89.9954784795294103
  0
ARC
  5
2385
  8
0
  6
VERDECKT
 62
     1
 10
-417.7277194361935244
 20
3.5981434521673248
 30
0.0
 40
11.4999999999997193
210
0.0
220
-0.0000000000000002
230
-1.0
 50
89.9999999999997158
 51
108.1939705983819948
  0
ARC
  5
2386
  8
0
  6
VERDECKT
 62
     1
 10
-417.7277194361934107
 20
71.401856547833674
 30
0.0
 40
11.5000000000002593
210
0.0
220
-0.0000000000000002
230
-1.0
 50
251.8060294016175931
 51
269.9999999999997158
  0
LINE
  5
2387
  8
0
  6
VERDECKT
 62
     1
 10
413.5495448166898882
 20
59.9018565478334182
 30
-0.0000000000000133
 11
417.7277194361935244
 21
59.9018565478334182
 31
-0.0000000000000133
210
0.0
220
1.0
230
-0.0000000000000002
  0
LINE
  5
2388
  8
0
  6
VERDECKT
 62
     1
 10
413.5495448166897177
 20
15.0981434521670508
 30
-0.0000000000000034
 11
417.7277194361935244
 21
15.0981434521670508
 31
-0.0000000000000034
210
0.0
220
1.0
230
-0.0000000000000002
  0
ARC
  5
2389
  8
0
  6
VERDECKT
 62
     1
 10
-413.5495448166905135
 20
23.5981434521674807
 30
0.0
 40
8.5000000000004192
210
0.0
220
-0.0000000000000002
230
-1.0
 50
270.0
 51
301.8009488965976175
  0
ARC
  5
238A
  8
0
  6
VERDECKT
 62
     1
 10
-413.5495448166905135
 20
51.4018565478329705
 30
0.0
 40
8.5000000000004672
210
0.0
220
-0.0000000000000002
230
-1.0
 50
58.1990511033984035
 51
89.9999999999957936
  0
ARC
  5
238B
  8
0
  6
VERDECKT
 62
     1
 10
-405.1180268837027256
 20
10.0000000000003695
 30
0.0
 40
7.4999999999998543
210
0.0
220
-0.0000000000000002
230
-1.0
 50
94.6628533579600742
 51
121.8009488966008007
  0
ARC
  5
238C
  8
0
  6
VERDECKT
 62
     1
 10
-405.1180268837027256
 20
65.0000000000001137
 30
0.0
 40
7.4999999999998703
210
0.0
220
-0.0000000000000002
230
-1.0
 50
238.1990511033982045
 51
265.3371466420400111
  0
LINE
  5
238D
  8
0
  6
VERDECKT
 62
     1
 10
438.291574081499391
 20
59.9000000000002331
 30
-0.0000000000000133
 11
438.7277194361931834
 21
60.7998762301446973
 31
-0.0000000000000135
210
0.0
220
1.0
230
-0.0000000000000002
  0
LINE
  5
238E
  8
0
  6
VERDECKT
 62
     1
 10
438.2915740814992773
 20
15.1000000000002892
 30
-0.0000000000000034
 11
438.7277194361931834
 21
14.2001237698558196
 31
-0.0000000000000032
210
0.0
220
1.0
230
-0.0000000000000002
  0
ARC
  5
238F
  8
0
  6
VERDECKT
 62
     1
 10
-431.7493937610922785
 20
28.59814345216612
 30
0.0
 40
14.9999999999989893
210
0.0
220
-0.0000000000000002
230
-1.0
 50
244.1418030082620874
 51
270.00000000000108
  0
ARC
  5
2390
  8
0
  6
VERDECKT
 62
     1
 10
-431.7493937610922217
 20
46.4018565478341571
 30
0.0
 40
14.9999999999991793
210
0.0
220
-0.0000000000000002
230
-1.0
 50
89.9999999999995737
 51
115.8581969917381969
  0
ARC
  5
2391
  8
0
  6
VERDECKT
 62
     1
 10
-405.7277194361926149
 20
5.5000000000002283
 30
0.0
 40
51.2000000000000384
210
0.0
220
-0.0000000000000002
230
-1.0
 50
0.0
 51
89.9999999999999432
  0
ARC
  5
2392
  8
0
  6
VERDECKT
 62
     1
 10
405.7277194361926149
 20
5.5000000000001936
 30
-0.0000000000000012
 40
12.8000000000000291
 50
90.0000000000002558
 51
179.999999999999801
  0
ENDBLK
  5
2394
  8
0
  0
BLOCK
  8
0
  2
A$CC2A2B341
 70
     0
 10
0.0
 20
0.0
 30
0.0
  3
A$CC2A2B341
  1

  0
ARC
  5
2398
  8
0
  6
CONTINUOUS
 62
     3
 10
373.7277194361926149
 20
172.3568979329546096
 30
0.0000000000000746
 40
26.5
 50
180.0
 51
306.8698976458442758
  0
ARC
  5
2399
  8
0
  6
CONTINUOUS
 62
     3
 10
373.7277194361926718
 20
172.3568979329546096
 30
0.0000000000000746
 40
26.4999999999999893
 50
53.1301023541563495
 51
179.9999999999998863
  0
LINE
  5
239A
  8
0
  6
CONTINUOUS
 62
     3
 10
438.7277194361931834
 20
149.0570217028102888
 30
0.0000000000000853
 11
438.7277194361931834
 21
195.6567741630991861
 31
0.0000000000000853
  0
ARC
  5
239B
  8
0
  6
CONTINUOUS
 62
     3
 10
405.1180268837023846
 20
144.8568979329550928
 30
0.0000000000000782
 40
6.4999999999995568
 50
58.1990511033942894
 51
84.6178094786461372
  0
ARC
  5
239C
  8
0
  6
CONTINUOUS
 62
     3
 10
405.1180268837023846
 20
199.8568979329542969
 30
0.0000000000000782
 40
6.4999999999995488
 50
275.3821905213538912
 51
301.8009488966058029
  0
ARC
  5
239D
  8
0
  6
CONTINUOUS
 62
     3
 10
413.5495448166897177
 20
158.4550413851214046
 30
0.0000000000000782
 40
9.4999999999998561
 50
238.1990511033995972
 51
270.0
  0
ARC
  5
239E
  8
0
  6
CONTINUOUS
 62
     3
 10
413.5495448166897177
 20
186.2587544807880988
 30
0.0000000000000782
 40
9.4999999999998472
 50
89.9999999999993037
 51
121.800948896599607
  0
LINE
  5
239F
  8
0
  6
CONTINUOUS
 62
     3
 10
413.5495448166898882
 20
195.7587544807878999
 30
0.0000000000000782
 11
417.7277194361935244
 21
195.7587544807878999
 31
0.000000000000079
  0
LINE
  5
23A0
  8
0
  6
CONTINUOUS
 62
     3
 10
413.5495448166898882
 20
148.9550413851214898
 30
0.0000000000000782
 11
417.7277194361935244
 21
148.9550413851214898
 31
0.000000000000079
  0
ARC
  5
23A1
  8
0
  6
CONTINUOUS
 62
     3
 10
417.7277194361931265
 20
138.4550413851195003
 30
0.0000000000000782
 40
10.5000000000020393
 50
71.8060294016189147
 51
89.9999999999978542
  0
ARC
  5
23A2
  8
0
  6
CONTINUOUS
 62
     3
 10
417.7277194361931265
 20
206.2587544807900031
 30
0.0000000000000782
 40
10.5000000000020393
 50
270.0000000000021032
 51
288.1939705983809858
  0
ARC
  5
23A3
  8
0
  6
CONTINUOUS
 62
     3
 10
427.0961798215215026
 20
166.9610569985968027
 30
0.0000000000000853
 40
19.5060156681436787
 50
251.8074713751570073
 51
269.9957103532947826
  0
ARC
  5
23A4
  8
0
  6
CONTINUOUS
 62
     3
 10
427.0961798215215026
 20
177.752738867312587
 30
0.0000000000000853
 40
19.5060156681436787
 50
90.0042896467052174
 51
108.1925286248430069
  0
LINE
  5
23A5
  8
0
  6
CONTINUOUS
 62
     3
 10
427.0947194361933725
 20
197.2587544807878999
 30
0.0000000000000853
 11
431.7493937610922217
 21
197.2587544807878999
 31
0.0000000000000862
  0
LINE
  5
23A6
  8
0
  6
CONTINUOUS
 62
     3
 10
427.0947194361933725
 20
147.4550413851216035
 30
0.0000000000000853
 11
431.7493937610922217
 21
147.4550413851216035
 31
0.0000000000000862
  0
ARC
  5
23A7
  8
0
  6
CONTINUOUS
 62
     3
 10
431.7493937610922217
 20
163.4550413851214046
 30
0.0000000000000853
 40
15.9999999999998295
 50
269.9999999999997726
 51
295.8581969917373726
  0
ARC
  5
23A8
  8
0
  6
CONTINUOUS
 62
     3
 10
431.7493937610922217
 20
181.2587544807880136
 30
0.0000000000000853
 40
15.9999999999998295
 50
64.1418030082626274
 51
90.0000000000001847
  0
LINE
  5
23A9
  8
0
  6
CONTINUOUS
 62
     3
 10
405.7277194361926149
 20
151.1568979329545925
 30
0.0000000000000782
 11
405.7277194361926149
 21
172.3568979329546949
 31
0.0000000000000782
  0
LINE
  5
23AA
  8
0
  6
CONTINUOUS
 62
     3
 10
405.7277194361926149
 20
172.3568979329546949
 30
0.0000000000000782
 11
405.7277194361926149
 21
193.5568979329547119
 31
0.0000000000000782
  0
ARC
  5
23AB
  8
0
  6
CONTINUOUS
 62
     3
 10
373.7277194361926149
 20
172.3568979329546949
 30
0.0000000000000728
 40
21.1999999999999993
 50
180.0
 51
269.9999999999998863
  0
ARC
  5
23AC
  8
0
  6
CONTINUOUS
 62
     3
 10
373.7277194361926149
 20
172.3568979329546949
 30
0.0000000000000728
 40
21.1999999999999886
 50
89.9999999999998153
 51
180.0
  0
LINE
  5
23AD
  8
0
  6
CONTINUOUS
 62
     3
 10
405.7277194361926149
 20
193.5568979329545982
 30
0.0000000000000782
 11
373.7277194361926149
 21
193.5568979329545982
 31
0.0000000000000728
  0
LINE
  5
23AE
  8
0
  6
CONTINUOUS
 62
     3
 10
373.7277194361926149
 20
151.1568979329545925
 30
0.0000000000000728
 11
405.7277194361926149
 21
151.1568979329545925
 31
0.0000000000000782
  0
ARC
  5
23AF
  8
0
  6
VERDECKT
 62
     1
 10
373.7277194361926149
 20
172.3568979329546096
 30
0.0000000000000746
 40
26.4999999999999893
 50
306.8698976458442758
 51
53.1301023541561719
  0
CIRCLE
  5
23B0
  8
0
  6
VERDECKT
 62
     1
 10
373.7277194361926149
 20
172.3568979329546096
 30
0.0000000000000728
 40
21.0
  0
CIRCLE
  5
23B1
  8
0
  6
VERDECKT
 62
     1
 10
373.7277194361926149
 20
172.3568979329546096
 30
0.0000000000000728
 40
20.0
  0
CIRCLE
  5
23B2
  8
0
  6
VERDECKT
 62
     1
 10
373.7277194361926149
 20
172.3568979329546096
 30
0.0000000000000746
 40
25.5
  0
CIRCLE
  5
23B3
  8
0
  6
VERDECKT
 62
     1
 10
373.7277194361926149
 20
172.3568979329548085
 30
0.0000000000000711
 40
25.0663619842787284
  0
CIRCLE
  5
23B4
  8
0
  6
VERDECKT
 62
     1
 10
373.7277194361926149
 20
172.3568979329548085
 30
0.0000000000000711
 40
26.0625566823704311
  0
LINE
  5
23B5
  8
0
  6
VERDECKT
 62
     1
 10
438.291574081499391
 20
149.9568979329546892
 30
0.0000000000000853
 11
438.291574081499391
 21
194.7568979329547005
 31
0.0000000000000853
  0
LINE
  5
23B6
  8
0
  6
VERDECKT
 62
     1
 10
427.0947194361933725
 20
196.2587544807878999
 30
0.0000000000000853
 11
431.7493937610922217
 21
196.2587544807878999
 31
0.0000000000000862
  0
LINE
  5
23B7
  8
0
  6
VERDECKT
 62
     1
 10
427.0947194361933725
 20
148.4550413851214898
 30
0.0000000000000853
 11
431.7493937610922217
 21
148.4550413851214898
 31
0.0000000000000862
  0
ARC
  5
23B8
  8
0
  6
VERDECKT
 62
     1
 10
427.0961798461879084
 20
166.9610571002014865
 30
0.0000000000000853
 40
18.5060157727044299
 50
251.8075493199972925
 51
269.9954784795298792
  0
ARC
  5
23B9
  8
0
  6
VERDECKT
 62
     1
 10
427.0961798461883063
 20
177.7527387657056863
 30
0.0000000000000853
 40
18.5060157727066112
 50
90.0045215204711155
 51
108.1924506800014996
  0
ARC
  5
23BA
  8
0
  6
VERDECKT
 62
     1
 10
417.727719436193297
 20
138.4550413851202109
 30
0.0000000000000782
 40
11.5000000000013305
 50
71.8060294016187868
 51
89.9999999999991616
  0
ARC
  5
23BB
  8
0
  6
VERDECKT
 62
     1
 10
417.727719436193297
 20
206.2587544807892925
 30
0.0000000000000782
 40
11.5000000000013305
 50
270.0000000000009095
 51
288.1939705983812132
  0
LINE
  5
23BC
  8
0
  6
VERDECKT
 62
     1
 10
413.5495448166898882
 20
194.7587544807878999
 30
0.0000000000000782
 11
417.7277194361935244
 21
194.7587544807878999
 31
0.000000000000079
  0
LINE
  5
23BD
  8
0
  6
VERDECKT
 62
     1
 10
413.5495448166898882
 20
149.9550413851214898
 30
0.0000000000000782
 11
417.7277194361935244
 21
149.9550413851214898
 31
0.000000000000079
  0
ARC
  5
23BE
  8
0
  6
VERDECKT
 62
     1
 10
413.5495448166905135
 20
158.4550413851218025
 30
0.0000000000000782
 40
8.5000000000002842
 50
238.1990511034018994
 51
270.0
  0
ARC
  5
23BF
  8
0
  6
VERDECKT
 62
     1
 10
413.5495448166905135
 20
186.2587544807875872
 30
0.0000000000000782
 40
8.5000000000002842
 50
90.0000000000038085
 51
121.8009488966018949
  0
ARC
  5
23C0
  8
0
  6
VERDECKT
 62
     1
 10
405.1180268837024983
 20
144.8568979329542969
 30
0.0000000000000782
 40
7.500000000000421
 50
58.1990511033994267
 51
85.3371466420389737
  0
ARC
  5
23C1
  8
0
  6
VERDECKT
 62
     1
 10
405.1180268837027256
 20
199.8568979329546949
 30
0.0000000000000782
 40
7.4999999999999734
 50
274.6628533579603868
 51
301.8009488966018239
  0
LINE
  5
23C2
  8
0
  6
VERDECKT
 62
     1
 10
438.291574081499391
 20
194.7568979329547005
 30
0.0000000000000853
 11
438.7277194361931834
 21
195.6567741630991861
 31
0.0000000000000854
  0
LINE
  5
23C3
  8
0
  6
VERDECKT
 62
     1
 10
438.291574081499391
 20
149.9568979329546892
 30
0.0000000000000853
 11
438.7277194361931834
 21
149.0570217028102888
 31
0.0000000000000854
  0
ARC
  5
23C4
  8
0
  6
VERDECKT
 62
     1
 10
431.7493937610922785
 20
163.4550413851206088
 30
0.0000000000000853
 40
14.9999999999990408
 50
269.9999999999993747
 51
295.8581969917382821
  0
ARC
  5
23C5
  8
0
  6
VERDECKT
 62
     1
 10
431.7493937610922785
 20
181.2587544807888094
 30
0.0000000000000853
 40
14.9999999999990301
 50
64.1418030082617037
 51
90.0000000000006253
  0
CIRCLE
  5
23C6
  8
0
  6
VERDECKT
 62
     1
 10
373.7277194361926149
 20
172.3568979329546949
 30
0.0000000000000728
 40
19.1999999999999993
  0
ARC
  5
23C7
  8
0
  6
VERDECKT
 62
     1
 10
373.7277194361926149
 20
172.3568979329546949
 30
0.0000000000000728
 40
21.1999999999999993
 50
269.9999999999997726
 51
89.9999999999998437
  0
LINE
  5
23C8
  8
0
  6
VERDECKT
 62
     1
 10
405.7277194361926149
 20
191.5568979329545982
 30
0.0000000000000782
 11
373.7277194361926149
 21
191.5568979329545982
 31
0.0000000000000728
  0
LINE
  5
23C9
  8
0
  6
VERDECKT
 62
     1
 10
373.7277194361926149
 20
153.1568979329547062
 30
0.0000000000000728
 11
405.7277194361926149
 21
153.1568979329547062
 31
0.0000000000000782
  0
ENDBLK
  5
23CB
  8
0
  0
ENDSEC
  0
SECTION
  2
ENTITIES
  0
TEXT
  5
8F
  8
VOLL
 10
78.076754716981128
 20
31.025947764705851
 30
0.0
 40
1.8
  1

  7
GREEKS
  0
TEXT
  5
651
  8
VOLL
 10
591.7182672356415196
 20
33.5632643046214199
 30
0.0
 40
1.8
  1

  7
GREEKS
  0
TEXT
  5
652
  8
TEXT
 10
923.5505354392344088
 20
39.1214998378469616
 30
0.0
 40
2.5
  1
  
  7
GREEKS
 72
     1
 11
925.8124402011393386
 21
39.1214998378469616
 31
0.0
  0
TEXT
  5
653
  8
BEM
 10
1167.6702527517159069
 20
174.6803818682492135
 30
0.0
 40
2.5
  1
 
 72
     4
 11
1168.8012051326691108
 21
174.6803818682492135
 31
0.0
  0
TEXT
  5
654
  8
BEM
 10
746.8578693924373511
 20
53.8966751942979627
 30
0.0
 40
2.5
  1

  7
GREEKS
  0
TEXT
  5
655
  8
VOLL
 10
732.7916763727158695
 20
33.7134145372628495
 30
0.0
 40
1.8
  1

  7
GREEKS
  0
TEXT
  5
656
  8
BEM
 10
767.2797412120005447
 20
38.4391388604834603
 30
0.0
 40
2.5
  1

 41
0.8
  7
GREEKS
  0
TEXT
  5
657
  8
BEM
 10
767.2797412120005447
 20
33.7453703064312904
 30
0.0
 40
2.5
  1

 41
0.8
  7
GREEKS
  0
TEXT
  5
658
  8
BEM
 10
767.2797412120005447
 20
28.5075264877678087
 30
0.0
 40
2.5
  1

 41
0.8
  7
GREEKS
  0
TEXT
  5
659
  8
BEM
 10
767.2067967346260957
 20
24.0023375376701686
 30
0.0
 40
1.8
  1

 41
0.8
  7
GREEKS
  0
TEXT
  5
65A
  8
BEM
 10
754.5232258550148572
 20
49.5939266338954567
 30
0.0
 40
2.0
  1

 41
0.8
  7
GREEKS
 72
     1
 11
754.5232258550148572
 21
49.5939266338954567
 31
0.0
  0
TEXT
  5
65B
  8
TEXT
 10
1064.6239445763089861
 20
39.2716500704883984
 30
0.0
 40
2.5
  1
  
  7
GREEKS
 72
     1
 11
1066.8858493382140296
 21
39.2716500704883984
 31
0.0
  0
TEXT
  5
65C
  8
BEM
 10
1308.743661888790939
 20
174.8305321008905935
 30
0.0
 40
2.5
  1
 
 72
     4
 11
1309.8746142697430059
 21
174.8305321008905935
 31
0.0
  0
TEXT
  5
D28
  8
VOLL
 10
318.0630172788846721
 20
214.5485924295865061
 30
0.0
 40
1.8
  1

  7
GREEKS
  0
INSERT
  5
16F3
  8
ADSK_ASSOC_ENTITY_BACKUPS
  2
*S0
 10
0.0
 20
0.0
 30
0.0
  0
INSERT
  5
2395
  8
STEMPEL
  2
A$C916E8400
 10
-373.7277194361926149
 20
62.5000000000002416
 30
-0.0000000000000246
210
0.0
220
-1.0
230
0.0000000000000001
  0
INSERT
  5
23CC
  8
STEMPEL
  2
A$CC2A2B341
 10
373.7277194361925012
 20
122.3568979329546949
 30
-0.0000000000000509
 50
180.0
210
0.0
220
1.0
230
-0.0000000000000002
  0
VIEWPORT
  5
C2B
 67
     1
  8
0
 10
98.4492436411699146
 20
143.465973017955406
 30
0.0
 40
567.3581314878892954
 41
298.5415224913494967
 68
     1
 69
     1
1001
ACAD
1000
MVIEW
1002
{
1070
    16
1010
0.0
1020
0.0
1030
0.0
1010
0.0
1020
0.0
1030
1.0
1040
0.0
1040
298.5415224913494967
1040
98.4492436411699146
1040
143.465973017955406
1040
50.0
1040
0.0
1040
0.0
1070
     0
1070
  1500
1070
     1
1070
     1
1070
     0
1070
     0
1070
     0
1070
     0
1040
0.0
1040
0.0
1040
0.0
1040
10.0
1040
10.0
1040
10.0
1040
10.0
1070
     0
1002
{
1002
}
1002
}
  0
ENDSEC
  0
EOF
