  0
SECTION
  2
HEADER
  9
$ACADVER
  1
AC1009
  9
$INSBASE
 10
0.0
 20
0.0
 30
0.0
  9
$EXTMIN
 10
-58.9176784654764489
 20
-157.900000927810197
 30
-0.0000004656617421
  9
$EXTMAX
 10
58.6530209042484714
 20
999.9999989298395349
 30
-0.0000004656617421
  9
$LIMMIN
 10
0.0
 20
0.0
  9
$LIMMAX
 10
594.0
 20
840.0
  9
$ORTHOMODE
 70
     1
  9
$REGENMODE
 70
     1
  9
$FILLMODE
 70
     1
  9
$QTEXTMODE
 70
     0
  9
$MIRRTEXT
 70
     1
  9
$DRAGMODE
 70
     2
  9
$LTSCALE
 40
10.0
  9
$OSMODE
 70
  1535
  9
$ATTMODE
 70
     1
  9
$TEXTSIZE
 40
3.5
  9
$TRACEWID
 40
1.0
  9
$TEXTSTYLE
  7
STANDARD
  9
$CLAYER
  8
STEMPEL
  9
$CELTYPE
  6
BYLAYER
  9
$CECOLOR
 62
   256
  9
$DIMSCALE
 40
1.0
  9
$DIMASZ
 40
3.5
  9
$DIMEXO
 40
1.0
  9
$DIMDLI
 40
0.38
  9
$DIMRND
 40
0.0
  9
$DIMDLE
 40
0.0
  9
$DIMEXE
 40
1.0
  9
$DIMTP
 40
0.0
  9
$DIMTM
 40
0.000000001
  9
$DIMTXT
 40
3.5
  9
$DIMCEN
 40
0.09
  9
$DIMTSZ
 40
0.0
  9
$DIMTOL
 70
     0
  9
$DIMLIM
 70
     0
  9
$DIMTIH
 70
     0
  9
$DIMTOH
 70
     0
  9
$DIMSE1
 70
     0
  9
$DIMSE2
 70
     0
  9
$DIMTAD
 70
     1
  9
$DIMZIN
 70
     8
  9
$DIMBLK
  1

  9
$DIMASO
 70
     1
  9
$DIMSHO
 70
     0
  9
$DIMPOST
  1

  9
$DIMAPOST
  1

  9
$DIMALT
 70
     0
  9
$DIMALTD
 70
     2
  9
$DIMALTF
 40
25.3999999999999986
  9
$DIMLFAC
 40
2.0
  9
$DIMTOFL
 70
     1
  9
$DIMTVP
 40
0.0
  9
$DIMTIX
 70
     0
  9
$DIMSOXD
 70
     0
  9
$DIMSAH
 70
     0
  9
$DIMBLK1
  1

  9
$DIMBLK2
  1

  9
$DIMSTYLE
  2
LORO
  9
$DIMCLRD
 70
     0
  9
$DIMCLRE
 70
     0
  9
$DIMCLRT
 70
     1
  9
$DIMTFAC
 40
0.5
  9
$DIMGAP
 40
1.5
  9
$LUNITS
 70
     2
  9
$LUPREC
 70
     2
  9
$SKETCHINC
 40
1.0
  9
$FILLETRAD
 40
5.0
  9
$AUNITS
 70
     0
  9
$AUPREC
 70
     0
  9
$MENU
  1
ACAD
  9
$ELEVATION
 40
0.0
  9
$PELEVATION
 40
0.0
  9
$THICKNESS
 40
0.0
  9
$LIMCHECK
 70
     0
  9
$BLIPMODE
 70
     0
  9
$CHAMFERA
 40
0.0
  9
$CHAMFERB
 40
0.0
  9
$SKPOLY
 70
     0
  9
$TDCREATE
 40
2455397.867048610933125
  9
$TDUPDATE
 40
2460922.5621412037871778
  9
$TDINDWG
 40
2.3856544212999999
  9
$TDUSRTIMER
 40
2.3856544212999999
  9
$USRTIMER
 70
     1
  9
$ANGBASE
 50
0.0
  9
$ANGDIR
 70
     0
  9
$PDMODE
 70
     0
  9
$PDSIZE
 40
0.0
  9
$PLINEWID
 40
0.0
  9
$COORDS
 70
     1
  9
$SPLFRAME
 70
     0
  9
$SPLINETYPE
 70
     6
  9
$SPLINESEGS
 70
     8
  9
$ATTDIA
 70
     1
  9
$ATTREQ
 70
     1
  9
$HANDLING
 70
     1
  9
$HANDSEED
  5
14E94
  9
$SURFTAB1
 70
     6
  9
$SURFTAB2
 70
     6
  9
$SURFTYPE
 70
     6
  9
$SURFU
 70
     6
  9
$SURFV
 70
     6
  9
$UCSNAME
  2

  9
$UCSORG
 10
0.0
 20
0.0
 30
0.0
  9
$UCSXDIR
 10
1.0
 20
0.0
 30
0.0
  9
$UCSYDIR
 10
0.0
 20
1.0
 30
0.0
  9
$PUCSNAME
  2

  9
$PUCSORG
 10
0.0
 20
0.0
 30
0.0
  9
$PUCSXDIR
 10
1.0
 20
0.0
 30
0.0
  9
$PUCSYDIR
 10
0.0
 20
1.0
 30
0.0
  9
$USERI1
 70
     0
  9
$USERI2
 70
     0
  9
$USERI3
 70
     0
  9
$USERI4
 70
     0
  9
$USERI5
 70
     0
  9
$USERR1
 40
0.0
  9
$USERR2
 40
0.0
  9
$USERR3
 40
0.0
  9
$USERR4
 40
0.0
  9
$USERR5
 40
0.0
  9
$WORLDVIEW
 70
     1
  9
$SHADEDGE
 70
     3
  9
$SHADEDIF
 70
    70
  9
$TILEMODE
 70
     1
  9
$MAXACTVP
 70
    16
  9
$PLIMCHECK
 70
     0
  9
$PEXTMIN
 10
-0.0000000000001705
 20
-0.00000000000008
 30
-0.0000000000001227
  9
$PEXTMAX
 10
296.5
 20
419.5000000000001137
 30
0.0000000000000568
  9
$PLIMMIN
 10
-0.2180011857624607
 20
-0.2290031506798301
  9
$PLIMMAX
 10
296.7819988142376246
 20
419.7709968493202268
  9
$UNITMODE
 70
     0
  9
$VISRETAIN
 70
     0
  9
$PLINEGEN
 70
     0
  9
$PSLTSCALE
 70
     0
  0
ENDSEC
  0
SECTION
  2
TABLES
  0
TABLE
  2
VPORT
 70
     1
  0
VPORT
  2
*ACTIVE
 70
     0
 10
0.0
 20
0.0
 11
1.0
 21
1.0
 12
-0.1323287806139888
 22
-50.0070860362168332
 13
0.0
 23
0.0
 14
1.0
 24
1.0
 15
10.0
 25
10.0
 16
-0.0000000000006115
 26
0.0
 36
2754.0543989585958116
 17
0.0
 27
471.0570850372313885
 37
-0.000000000000111
 40
1163.8685565579460217
 41
1.8839208942390371
 42
50.0
 43
0.0
 44
0.0
 50
0.0
 51
0.0
 71
     0
 72
  1500
 73
     1
 74
     0
 75
     0
 76
     0
 77
     0
 78
     0
  0
ENDTAB
  0
TABLE
  2
LTYPE
 70
     3
  0
LTYPE
  2
CONTINUOUS
 70
     0
  3
Solid line
 72
    65
 73
     0
 40
0.0
  0
LTYPE
  2
STRICHPUNKT
 70
     0
  3
__ . __ . __ . __ . __ . __ . __ . __ . __ . __
 72
    65
 73
     4
 40
1.0
 49
0.5
 49
-0.25
 49
0.0
 49
-0.25
  0
LTYPE
  2
VERDECKT
 70
     0
  3
Verdeckt __ __ __ __ __ __ __ __ __ __ __ __ __
 72
    65
 73
     2
 40
0.375
 49
0.25
 49
-0.125
  0
ENDTAB
  0
TABLE
  2
LAYER
 70
     5
  0
LAYER
  2
0
 70
     0
 62
     7
  6
CONTINUOUS
  0
LAYER
  2
STEMPEL
 70
     0
 62
     3
  6
CONTINUOUS
  0
LAYER
  2
ADSK_ASSOC_ENTITY_BACKUPS
 70
     1
 62
    -7
  6
CONTINUOUS
  0
ENDTAB
  0
TABLE
  2
STYLE
 70
     2
  0
STYLE
  2
STANDARD
 70
     0
 40
0.0
 41
0.8
 50
0.0
 71
     0
 42
3.5
  3
simplex.shx
  4

  0
ENDTAB
  0
TABLE
  2
VIEW
 70
     0
  0
ENDTAB
  0
TABLE
  2
UCS
 70
     0
  0
ENDTAB
  0
TABLE
  2
APPID
 70
    27
  0
APPID
  2
ACAD
 70
     0
  0
APPID
  2
ACAECLAYERSTANDARD
 70
     0
  0
APPID
  2
ACCMTRANSPARENCY
 70
     0
  0
APPID
  2
ACAD_NAV_VCDISPLAY
 70
     0
  0
APPID
  2
ACAD_PSEXT
 70
     0
  0
APPID
  2
ACAD_STEPID
 70
     0
  0
APPID
  2
ACAD_EXEMPT_FROM_CAD_STANDARDS
 70
     0
  0
APPID
  2
ACSYNERGY
 70
     0
  0
APPID
  2
SYNERGY_BODY_TBR_ID
 70
     0
  0
APPID
  2
ACAD_VIEW_EDGE_ID
 70
     0
  0
APPID
  2
GRADIENTCOLOR1ACI
 70
     0
  0
APPID
  2
GRADIENTCOLOR2ACI
 70
     0
  0
APPID
  2
ACAD_DSTYLE_DIMRADIAL_EXTENSION
 70
     0
  0
APPID
  2
ACADANNOMONITORALERTICONDI
 70
     0
  0
APPID
  2
ACAD_MLEADERVER
 70
     0
  0
APPID
  2
ACSYNERGYSKETCH
 70
     0
  0
APPID
  2
ACAD_MODELDOC_XFORM
 70
     0
  0
APPID
  2
ACDBDYNAMICBLOCKGUID
 70
     0
  0
APPID
  2
ACAD_DSTYLE_DIMJAG
 70
     0
  0
APPID
  2
ACAD_DSTYLE_DIMBREAK
 70
     0
  0
APPID
  2
ACAD_DSTYLE_DIMTALN
 70
     0
  0
APPID
  2
ACADANNOPO
 70
     0
  0
APPID
  2
PLOTTRANSPARENCY
 70
     0
  0
APPID
  2
ACADANNOTATIVE
 70
     0
  0
APPID
  2
ACAD_DIMASSOC_CALC_DIMLFAC
 70
     0
  0
APPID
  2
ACAD_DIMASSOC_DIMLFAC
 70
     0
  0
APPID
  2
ACAD_DIMASSOC_OVERRIDDEN_D
 70
     0
  0
ENDTAB
  0
TABLE
  2
DIMSTYLE
 70
     1
  0
DIMSTYLE
  2
LORO
 70
     0
  3

  4

  5

  6

  7

 40
1.0
 41
3.5
 42
1.0
 43
0.38
 44
1.0
 45
0.0
 46
0.0
 47
0.0
 48
0.000000001
140
3.5
141
0.09
142
0.0
143
25.3999999999999986
144
2.0
145
0.0
146
0.5
147
1.5
 71
     0
 72
     0
 73
     0
 74
     0
 75
     0
 76
     0
 77
     1
 78
     8
170
     0
171
     2
172
     1
173
     0
174
     0
175
     0
176
     0
177
     0
178
     1
  0
ENDTAB
  0
ENDSEC
  0
SECTION
  2
BLOCKS
  0
BLOCK
  8
0
  2
$MODEL_SPACE
 70
     0
 10
0.0
 20
0.0
 30
0.0
  3
$MODEL_SPACE
  1

  0
ENDBLK
  5
38
  8
0
  0
BLOCK
 67
     1
  8
0
  2
$PAPER_SPACE
 70
     0
 10
0.0
 20
0.0
 30
0.0
  3
$PAPER_SPACE
  1

  0
ENDBLK
  5
36
 67
     1
  8
0
  0
BLOCK
  8
0
  2
*S0
 70
     1
 10
0.0
 20
0.0
 30
0.0
  3
*S0
  1

  0
ENDBLK
  5
7128
  8
0
  0
BLOCK
  8
0
  2
A$CF05370EE
 70
     0
 10
0.0
 20
0.0
 30
0.0
  3
A$CF05370EE
  1

  0
CIRCLE
  5
14E06
  8
0
  6
CONTINUOUS
 62
     3
 10
0.0000000000001024
 20
0.000000000000008
 30
0.0
 40
49.6000000000003567
  0
CIRCLE
  5
14E07
  8
0
  6
CONTINUOUS
 62
     3
 10
0.0000000000001269
 20
0.0000000000000053
 30
0.0
 40
52.7000000000000384
  0
CIRCLE
  5
14E08
  8
0
  6
CONTINUOUS
 62
     3
 10
0.0000000000001339
 20
0.0000000000000072
 30
0.0
 40
57.9000000000003183
  0
CIRCLE
  5
14E09
  8
0
  6
CONTINUOUS
 62
     3
 10
0.0000000000001368
 20
0.000000000000008
 30
0.0
 40
54.287569344444357
  0
CIRCLE
  5
14E0A
  8
0
  6
CONTINUOUS
 62
     3
 10
0.0000000000001367
 20
0.000000000000008
 30
0.0
 40
53.2000000000002728
  0
CIRCLE
  5
14E0B
  8
0
  6
VERDECKT
 62
     1
 10
0.0000000000001024
 20
0.000000000000008
 30
0.0
 40
50.7999999999999474
  0
CIRCLE
  5
14E0C
  8
0
  6
VERDECKT
 62
     1
 10
0.0000000000001269
 20
0.0000000000000053
 30
0.0
 40
53.9000000000000909
  0
CIRCLE
  5
14E0D
  8
0
  6
VERDECKT
 62
     1
 10
0.0000000000001339
 20
0.0000000000000072
 30
0.0
 40
56.7000000000000526
  0
ENDBLK
  5
14E0F
  8
0
  0
BLOCK
  8
0
  2
A$C110F799B
 70
     0
 10
0.0
 20
0.0
 30
0.0
  3
A$C110F799B
  1

  0
LINE
  5
14E13
  8
0
  6
CONTINUOUS
 62
     3
 10
-50.8000000000001606
 20
0.0
 30
0.0
 11
50.7999999999997627
 21
0.0
 31
0.0
210
0.0
220
1.0
230
-0.0000000000000002
  0
LINE
  5
14E14
  8
0
  6
CONTINUOUS
 62
     3
 10
-54.2875693444444494
 20
1000.0
 30
-0.000000000000222
 11
54.2875693444442788
 21
1000.0
 31
-0.000000000000222
210
0.0
220
1.0
230
-0.0000000000000002
  0
LINE
  5
14E15
  8
0
  6
CONTINUOUS
 62
     3
 10
50.7999999999997627
 20
845.0000000000002274
 30
-0.0000000000001876
 11
50.7999999999997627
 21
0.0
 31
0.0
210
0.0
220
1.0
230
-0.0000000000000002
  0
LINE
  5
14E16
  8
0
  6
CONTINUOUS
 62
     3
 10
-50.8000000000001606
 20
845.0000000000002274
 30
-0.0000000000001876
 11
-50.8000000000001606
 21
0.0
 31
0.0
210
0.0
220
1.0
230
-0.0000000000000002
  0
ARC
  5
14E17
  8
0
  6
CONTINUOUS
 62
     3
 10
58.7999999999972118
 20
845.0000000000005684
 30
0.0
 40
7.9999999999971312
210
0.0
220
-0.0000000000000002
230
-1.0
 50
149.3570682370452118
 51
180.000000000003098
  0
ARC
  5
14E18
  8
0
  6
CONTINUOUS
 62
     3
 10
-58.7999999999971266
 20
845.0000000000005684
 30
0.0
 40
7.9999999999972644
210
0.0
220
-0.0000000000000002
230
-1.0
 50
359.9999999999976126
 51
30.6429317629550688
  0
ARC
  5
14E19
  8
0
  6
CONTINUOUS
 62
     3
 10
39.7000000000013102
 20
856.3150342465227141
 30
0.0
 40
14.1999999999986404
210
0.0
220
-0.0000000000000002
230
-1.0
 50
329.3570682370690861
 51
0.0000000000206468
  0
ARC
  5
14E1A
  8
0
  6
CONTINUOUS
 62
     3
 10
-39.7000000000009621
 20
856.3150342465227141
 30
0.0
 40
14.1999999999988091
210
0.0
220
-0.0000000000000002
230
-1.0
 50
179.999999999979309
 51
210.6429317629304876
  0
LINE
  5
14E1B
  8
0
  6
CONTINUOUS
 62
     3
 10
53.8999999999997783
 20
955.4997994693186456
 30
-0.0000000000002122
 11
53.8999999999997783
 21
856.3150342465277163
 31
-0.0000000000001901
210
0.0
220
1.0
230
-0.0000000000000002
  0
LINE
  5
14E1C
  8
0
  6
CONTINUOUS
 62
     3
 10
-53.8999999999999488
 20
955.4997994693186456
 30
-0.0000000000002122
 11
-53.8999999999999488
 21
856.3150342465277163
 31
-0.0000000000001901
210
0.0
220
1.0
230
-0.0000000000000002
  0
ARC
  5
14E1D
  8
0
  6
CONTINUOUS
 62
     3
 10
66.7000000000023903
 20
955.4997994693186456
 30
0.0
 40
12.8000000000022194
210
0.0
220
-0.0000000000000002
230
-1.0
 50
153.111952382281487
 51
180.0
  0
ARC
  5
14E1E
  8
0
  6
CONTINUOUS
 62
     3
 10
-66.7000000000022055
 20
955.4997994693186456
 30
0.0
 40
12.8000000000022105
210
0.0
220
-0.0000000000000002
230
-1.0
 50
0.0
 51
26.8880476177184597
  0
ARC
  5
14E1F
  8
0
  6
CONTINUOUS
 62
     3
 10
33.6999999999986812
 20
972.233000000000402
 30
0.0
 40
24.2000000000012605
210
0.0
220
-0.0000000000000002
230
-1.0
 50
333.1119523822761721
 51
359.99999999999892
  0
ARC
  5
14E20
  8
0
  6
CONTINUOUS
 62
     3
 10
-33.6999999999985107
 20
972.233000000000402
 30
0.0
 40
24.2000000000012712
210
0.0
220
-0.0000000000000002
230
-1.0
 50
180.0000000000009948
 51
206.8880476177236858
  0
LINE
  5
14E21
  8
0
  6
CONTINUOUS
 62
     3
 10
57.8999999999999986
 20
986.8881066233401498
 30
-0.0000000000002191
 11
57.8999999999999986
 21
972.2330000000000609
 31
-0.0000000000002159
210
0.0
220
1.0
230
-0.0000000000000002
  0
LINE
  5
14E22
  8
0
  6
CONTINUOUS
 62
     3
 10
-57.9000000000001691
 20
986.8881066233401498
 30
-0.0000000000002191
 11
-57.9000000000001691
 21
972.2329999999999472
 31
-0.0000000000002159
210
0.0
220
1.0
230
-0.0000000000000002
  0
ARC
  5
14E23
  8
0
  6
CONTINUOUS
 62
     3
 10
33.7000000000001805
 20
986.8881066233403772
 30
0.0
 40
24.2000000000002302
210
0.0
220
-0.0000000000000002
230
-1.0
 50
0.0
 51
25.0000000000000711
  0
ARC
  5
14E24
  8
0
  6
CONTINUOUS
 62
     3
 10
-33.6999999999997399
 20
986.8881066233401498
 30
0.0
 40
24.2000000000005002
210
0.0
220
-0.0000000000000002
230
-1.0
 50
155.000000000000199
 51
180.0
  0
LINE
  5
14E25
  8
0
  6
CONTINUOUS
 62
     3
 10
54.2875693444441509
 20
1000.0
 30
-0.000000000000222
 11
55.6326484462870496
 21
997.1154685574653058
 31
-0.0000000000002214
210
0.0
220
1.0
230
-0.0000000000000002
  0
LINE
  5
14E26
  8
0
  6
CONTINUOUS
 62
     3
 10
-54.2875693444443215
 20
1000.0
 30
-0.000000000000222
 11
-55.6326484462872202
 21
997.1154685574653058
 31
-0.0000000000002214
210
0.0
220
1.0
230
-0.0000000000000002
  0
LINE
  5
14E27
  8
0
  6
VERDECKT
 62
     1
 10
-53.200000000000351
 20
999.4928580859112799
 30
-0.0000000000002219
 11
53.2000000000001805
 21
999.4928580859112799
 31
-0.0000000000002219
210
0.0
220
1.0
230
-0.0000000000000002
  0
LINE
  5
14E28
  8
0
  6
VERDECKT
 62
     1
 10
49.5999999999999588
 20
845.0000000000037517
 30
-0.0000000000001876
 11
49.5999999999999588
 21
0.0
 31
0.0
210
0.0
220
1.0
230
-0.0000000000000002
  0
LINE
  5
14E29
  8
0
  6
VERDECKT
 62
     1
 10
-49.6000000000003567
 20
845.0000000000037517
 30
-0.0000000000001876
 11
-49.6000000000003567
 21
0.0
 31
0.0
210
0.0
220
1.0
230
-0.0000000000000002
  0
ARC
  5
14E2A
  8
0
  6
VERDECKT
 62
     1
 10
39.7000000000002373
 20
856.3150342465264657
 30
0.0
 40
12.9999999999999094
210
0.0
220
-0.0000000000000002
230
-1.0
 50
329.3570682370669829
 51
0.0000000000055087
  0
ARC
  5
14E2B
  8
0
  6
VERDECKT
 62
     1
 10
-39.7000000000001521
 20
856.3150342465264657
 30
0.0
 40
12.9999999999998099
210
0.0
220
-0.0000000000000002
230
-1.0
 50
179.9999999999944862
 51
210.6429317629331877
  0
ARC
  5
14E2C
  8
0
  6
VERDECKT
 62
     1
 10
58.7999999999992724
 20
845.000000000003979
 30
0.0
 40
9.1999999999988322
210
0.0
220
-0.0000000000000002
230
-1.0
 50
149.3570682370580869
 51
180.0000000000005969
  0
ARC
  5
14E2D
  8
0
  6
VERDECKT
 62
     1
 10
-58.799999999999109
 20
845.000000000003979
 30
0.0
 40
9.1999999999988233
210
0.0
220
-0.0000000000000002
230
-1.0
 50
359.9999999999992042
 51
30.6429317629418989
  0
LINE
  5
14E2E
  8
0
  6
VERDECKT
 62
     1
 10
52.6999999999999602
 20
955.4997994693186456
 30
-0.0000000000002122
 11
52.6999999999999602
 21
856.3150342465277163
 31
-0.0000000000001901
210
0.0
220
1.0
230
-0.0000000000000002
  0
LINE
  5
14E2F
  8
0
  6
VERDECKT
 62
     1
 10
-52.7000000000001307
 20
955.4997994693186456
 30
-0.0000000000002122
 11
-52.7000000000001307
 21
856.3150342465277163
 31
-0.0000000000001901
210
0.0
220
1.0
230
-0.0000000000000002
  0
LINE
  5
14E30
  8
0
  6
VERDECKT
 62
     1
 10
-53.200000000000351
 20
999.4928580859112799
 30
-0.0000000000002219
 11
-54.2875693444444494
 21
1000.0
 31
-0.000000000000222
210
0.0
220
1.0
230
-0.0000000000000002
  0
LINE
  5
14E31
  8
0
  6
VERDECKT
 62
     1
 10
53.2000000000001805
 20
999.4928580859112799
 30
-0.0000000000002219
 11
54.2875693444442788
 21
1000.0
 31
-0.000000000000222
210
0.0
220
1.0
230
-0.0000000000000002
  0
LINE
  5
14E32
  8
0
  6
VERDECKT
 62
     1
 10
53.200000000000081
 20
999.4928580859112799
 30
-0.0000000000002219
 11
54.5450791018429513
 21
996.608326643376472
 31
-0.0000000000002213
210
0.0
220
1.0
230
-0.0000000000000002
  0
LINE
  5
14E33
  8
0
  6
VERDECKT
 62
     1
 10
-53.2000000000002515
 20
999.4928580859112799
 30
-0.0000000000002219
 11
-54.5450791018431218
 21
996.608326643376472
 31
-0.0000000000002213
210
0.0
220
1.0
230
-0.0000000000000002
  0
ARC
  5
14E34
  8
0
  6
VERDECKT
 62
     1
 10
33.7000000000010687
 20
986.8881066233408319
 30
0.0
 40
22.9999999999990692
210
0.0
220
-0.0000000000000002
230
-1.0
 50
359.9999999999985789
 51
24.9999999999998614
  0
ARC
  5
14E35
  8
0
  6
VERDECKT
 62
     1
 10
-33.7000000000007418
 20
986.8881066233408319
 30
0.0
 40
22.999999999999261
210
0.0
220
-0.0000000000000002
230
-1.0
 50
155.0
 51
180.0000000000011084
  0
LINE
  5
14E36
  8
0
  6
VERDECKT
 62
     1
 10
56.6999999999999602
 20
986.8881066233401498
 30
-0.0000000000002191
 11
56.6999999999999602
 21
972.2330000000000609
 31
-0.0000000000002159
210
0.0
220
1.0
230
-0.0000000000000002
  0
LINE
  5
14E37
  8
0
  6
VERDECKT
 62
     1
 10
-56.7000000000001307
 20
986.8881066233401498
 30
-0.0000000000002191
 11
-56.7000000000001307
 21
972.2329999999999472
 31
-0.0000000000002159
210
0.0
220
1.0
230
-0.0000000000000002
  0
ARC
  5
14E38
  8
0
  6
VERDECKT
 62
     1
 10
33.7000000000040103
 20
972.2329999999986967
 30
0.0
 40
22.9999999999958895
210
0.0
220
-0.0000000000000002
230
-1.0
 50
333.1119523822756037
 51
0.0000000000036894
  0
ARC
  5
14E39
  8
0
  6
VERDECKT
 62
     1
 10
-33.7000000000040174
 20
972.2329999999986967
 30
0.0
 40
22.9999999999957012
210
0.0
220
-0.0000000000000002
230
-1.0
 50
179.9999999999965894
 51
206.8880476177249079
  0
ARC
  5
14E3A
  8
0
  6
VERDECKT
 62
     1
 10
66.6999999999989228
 20
955.4997994693187593
 30
0.0
 40
13.9999999999988205
210
0.0
220
-0.0000000000000002
230
-1.0
 50
153.1119523822733015
 51
180.0000000000013074
  0
ARC
  5
14E3B
  8
0
  6
VERDECKT
 62
     1
 10
-66.6999999999984681
 20
955.4997994693189867
 30
0.0
 40
13.9999999999985203
210
0.0
220
-0.0000000000000002
230
-1.0
 50
359.9999999999981242
 51
26.8880476177262189
  0
ENDBLK
  5
14E3D
  8
0
  0
ENDSEC
  0
SECTION
  2
ENTITIES
  0
INSERT
  5
712A
  8
ADSK_ASSOC_ENTITY_BACKUPS
  2
*S0
 10
0.0
 20
0.0
 30
0.0
  0
INSERT
  5
14E10
  8
STEMPEL
  2
A$CF05370EE
 10
0.0
 20
-100.0
 30
0.0
  0
INSERT
  5
14E3E
  8
STEMPEL
  2
A$C110F799B
 10
0.0
 20
0.0
 30
0.0
  0
VIEWPORT
  5
7108
 67
     1
  8
0
 10
148.2499997464061892
 20
209.7499997738109982
 30
0.0
 40
794.4014140084675546
 41
421.6745068424681904
 68
     1
 69
     1
1001
ACAD
1000
MVIEW
1002
{
1070
    16
1010
0.0
1020
0.0
1030
0.0
1010
0.0
1020
0.0
1030
1.0
1040
0.0
1040
421.6745068424681904
1040
148.2499997464061892
1040
209.7499997738109982
1040
50.0
1040
0.0
1040
0.0
1070
     0
1070
  1500
1070
     1
1070
     1
1070
     0
1070
     0
1070
     0
1070
     0
1040
0.0
1040
0.0
1040
0.0
1040
10.0
1040
10.0
1040
10.0
1040
10.0
1070
     0
1002
{
1002
}
1002
}
  0
ENDSEC
  0
EOF
