  0
SECTION
  2
HEADER
  9
$ACADVER
  1
AC1009
  9
$INSBASE
 10
0.0
 20
0.0
 30
0.0
  9
$EXTMIN
 10
-122.5331095512571977
 20
-122.5269156935936934
 30
115.9378643380338048
  9
$EXTMAX
 10
122.5000018865168983
 20
534.1671648534409087
 30
115.9638054668824054
  9
$LIMMIN
 10
0.0
 20
0.0
  9
$LIMMAX
 10
420.0
 20
297.0
  9
$ORTHOMODE
 70
     1
  9
$REGENMODE
 70
     1
  9
$FILLMODE
 70
     1
  9
$QTEXTMODE
 70
     0
  9
$MIRRTEXT
 70
     1
  9
$DRAGMODE
 70
     2
  9
$LTSCALE
 40
20.0
  9
$OSMODE
 70
  1327
  9
$ATTMODE
 70
     1
  9
$TEXTSIZE
 40
3.5
  9
$TRACEWID
 40
1.0
  9
$TEXTSTYLE
  7
STANDARD
  9
$CLAYER
  8
0
  9
$CELTYPE
  6
BYLAYER
  9
$CECOLOR
 62
   256
  9
$DIMSCALE
 40
2.0
  9
$DIMASZ
 40
3.5
  9
$DIMEXO
 40
1.0
  9
$DIMDLI
 40
7.0
  9
$DIMRND
 40
0.0
  9
$DIMDLE
 40
0.0
  9
$DIMEXE
 40
1.0
  9
$DIMTP
 40
0.0
  9
$DIMTM
 40
0.0
  9
$DIMTXT
 40
3.5
  9
$DIMCEN
 40
1.5
  9
$DIMTSZ
 40
0.0
  9
$DIMTOL
 70
     0
  9
$DIMLIM
 70
     0
  9
$DIMTIH
 70
     0
  9
$DIMTOH
 70
     0
  9
$DIMSE1
 70
     0
  9
$DIMSE2
 70
     0
  9
$DIMTAD
 70
     1
  9
$DIMZIN
 70
     8
  9
$DIMBLK
  1

  9
$DIMASO
 70
     1
  9
$DIMSHO
 70
     0
  9
$DIMPOST
  1

  9
$DIMAPOST
  1

  9
$DIMALT
 70
     0
  9
$DIMALTD
 70
     2
  9
$DIMALTF
 40
25.3999999999999986
  9
$DIMLFAC
 40
1.0
  9
$DIMTOFL
 70
     1
  9
$DIMTVP
 40
0.0
  9
$DIMTIX
 70
     0
  9
$DIMSOXD
 70
     0
  9
$DIMSAH
 70
     0
  9
$DIMBLK1
  1

  9
$DIMBLK2
  1

  9
$DIMSTYLE
  2
STANDARD
  9
$DIMCLRD
 70
     0
  9
$DIMCLRE
 70
     0
  9
$DIMCLRT
 70
     1
  9
$DIMTFAC
 40
0.5142857142857143
  9
$DIMGAP
 40
1.5
  9
$LUNITS
 70
     2
  9
$LUPREC
 70
     2
  9
$SKETCHINC
 40
1.0
  9
$FILLETRAD
 40
0.0
  9
$AUNITS
 70
     0
  9
$AUPREC
 70
     0
  9
$MENU
  1
ACAD
  9
$ELEVATION
 40
0.0
  9
$PELEVATION
 40
0.0
  9
$THICKNESS
 40
0.0
  9
$LIMCHECK
 70
     0
  9
$BLIPMODE
 70
     0
  9
$CHAMFERA
 40
0.0
  9
$CHAMFERB
 40
0.0
  9
$SKPOLY
 70
     0
  9
$TDCREATE
 40
2455397.867048610933125
  9
$TDUPDATE
 40
2458528.4191435179673135
  9
$TDINDWG
 40
0.2847857986
  9
$TDUSRTIMER
 40
0.2847857986
  9
$USRTIMER
 70
     1
  9
$ANGBASE
 50
0.0
  9
$ANGDIR
 70
     0
  9
$PDMODE
 70
     0
  9
$PDSIZE
 40
0.0
  9
$PLINEWID
 40
0.0
  9
$COORDS
 70
     1
  9
$SPLFRAME
 70
     0
  9
$SPLINETYPE
 70
     6
  9
$SPLINESEGS
 70
     8
  9
$ATTDIA
 70
     0
  9
$ATTREQ
 70
     0
  9
$HANDLING
 70
     1
  9
$HANDSEED
  5
1E7D
  9
$SURFTAB1
 70
     6
  9
$SURFTAB2
 70
     6
  9
$SURFTYPE
 70
     6
  9
$SURFU
 70
     6
  9
$SURFV
 70
     6
  9
$UCSNAME
  2

  9
$UCSORG
 10
0.0
 20
0.0
 30
0.0
  9
$UCSXDIR
 10
1.0
 20
0.0
 30
0.0
  9
$UCSYDIR
 10
0.0
 20
1.0
 30
0.0
  9
$PUCSNAME
  2

  9
$PUCSORG
 10
0.0
 20
0.0
 30
0.0
  9
$PUCSXDIR
 10
1.0
 20
0.0
 30
0.0
  9
$PUCSYDIR
 10
0.0
 20
1.0
 30
0.0
  9
$USERI1
 70
     0
  9
$USERI2
 70
     0
  9
$USERI3
 70
     0
  9
$USERI4
 70
     0
  9
$USERI5
 70
     0
  9
$USERR1
 40
0.0
  9
$USERR2
 40
0.0
  9
$USERR3
 40
0.0
  9
$USERR4
 40
0.0
  9
$USERR5
 40
0.0
  9
$WORLDVIEW
 70
     1
  9
$SHADEDGE
 70
     3
  9
$SHADEDIF
 70
    70
  9
$TILEMODE
 70
     1
  9
$MAXACTVP
 70
    16
  9
$PLIMCHECK
 70
     0
  9
$PEXTMIN
 10
1.0000000000000000E+20
 20
1.0000000000000000E+20
 30
1.0000000000000000E+20
  9
$PEXTMAX
 10
-1.0000000000000000E+20
 20
-1.0000000000000000E+20
 30
-1.0000000000000000E+20
  9
$PLIMMIN
 10
-228.6007136241514957
 20
268.9373759805559985
  9
$PLIMMAX
 10
365.3992863758484759
 20
1108.9373759805559985
  9
$UNITMODE
 70
     0
  9
$VISRETAIN
 70
     0
  9
$PLINEGEN
 70
     0
  9
$PSLTSCALE
 70
     0
  0
ENDSEC
  0
SECTION
  2
TABLES
  0
TABLE
  2
VPORT
 70
     1
  0
VPORT
  2
*ACTIVE
 70
     0
 10
0.0
 20
0.0
 11
1.0
 21
1.0
 12
-0.0165538323701071
 22
97.0658521189861574
 13
0.0
 23
0.0
 14
1.0
 24
1.0
 15
10.0
 25
10.0
 16
-0.0000000000003022
 26
0.0
 36
1360.8978383623480113
 17
0.0
 27
108.7542724609374005
 37
115.9598727973916965
 40
661.631630024831793
 41
1.8958594730238389
 42
50.0
 43
0.0
 44
0.0
 50
0.0
 51
0.0
 71
     0
 72
  1500
 73
     1
 74
     0
 75
     0
 76
     0
 77
     0
 78
     0
  0
ENDTAB
  0
TABLE
  2
LTYPE
 70
     8
  0
LTYPE
  2
CONTINUOUS
 70
     0
  3
Solid line
 72
    65
 73
     0
 40
0.0
  0
LTYPE
  2
AUSGEZOGEN
 70
     0
  3
Ausgezogene Linie
 72
    65
 73
     0
 40
0.0
  0
LTYPE
  2
PHANTOM2
 70
     0
  3
Phantom (.5x) ___ _ _ ___ _ _ ___ _ _ ___ _ _
 72
    65
 73
     6
 40
1.25
 49
0.625
 49
-0.125
 49
0.125
 49
-0.125
 49
0.125
 49
-0.125
  0
LTYPE
  2
VERDECKT
 70
     0
  3
Verdeckt __ __ __ __ __ __ __ __ __ __ __ __ __
 72
    65
 73
     2
 40
0.375
 49
0.25
 49
-0.125
  0
ENDTAB
  0
TABLE
  2
LAYER
 70
    19
  0
LAYER
  2
0
 70
     0
 62
     7
  6
CONTINUOUS
  0
LAYER
  2
VOLL
 70
     0
 62
     1
  6
CONTINUOUS
  0
LAYER
  2
DEFPOINTS
 70
     0
 62
     7
  6
AUSGEZOGEN
  0
LAYER
  2
ADSK_ASSOC_ENTITY_BACKUPS
 70
     1
 62
    -7
  6
CONTINUOUS
  0
ENDTAB
  0
TABLE
  2
STYLE
 70
     4
  0
STYLE
  2
STANDARD
 70
     0
 40
0.0
 41
0.8
 50
0.0
 71
     0
 42
3.5
  3
simplex.shx
  4

  0
STYLE
  2
GREEKS
 70
     0
 40
0.0
 41
0.8
 50
0.0
 71
     0
 42
2.5
  3
SIMPLEX.shx
  4

  0
ENDTAB
  0
TABLE
  2
VIEW
 70
     1
  0
ENDTAB
  0
TABLE
  2
UCS
 70
     0
  0
ENDTAB
  0
TABLE
  2
APPID
 70
    23
  0
APPID
  2
ACAD
 70
     0
  0
APPID
  2
ACAD_NAV_VCDISPLAY
 70
     0
  0
APPID
  2
GRADIENTCOLOR1ACI
 70
     0
  0
APPID
  2
GRADIENTCOLOR2ACI
 70
     0
  0
APPID
  2
ACAD_DSTYLE_DIMRADIAL_EXTENSION
 70
     0
  0
APPID
  2
ACADANNOMONITORALERTICONDI
 70
     0
  0
APPID
  2
ACAD_EXEMPT_FROM_CAD_STANDARDS
 70
     0
  0
APPID
  2
ACAD_MLEADERVER
 70
     0
  0
APPID
  2
ACAD_PSEXT
 70
     0
  0
APPID
  2
ACAECLAYERSTANDARD
 70
     0
  0
APPID
  2
ACAD_DSTYLE_DIMJAG
 70
     0
  0
APPID
  2
ACAD_DSTYLE_DIMTALN
 70
     0
  0
APPID
  2
ACAD_DSTYLE_DIMBREAK
 70
     0
  0
APPID
  2
ACAD_STEPID
 70
     0
  0
APPID
  2
ACSYNERGY
 70
     0
  0
APPID
  2
SYNERGY_BODY_TBR_ID
 70
     0
  0
APPID
  2
ACAD_VIEW_EDGE_ID
 70
     0
  0
APPID
  2
ACSYNERGYSKETCH
 70
     0
  0
APPID
  2
ACAD_MODELDOC_XFORM
 70
     0
  0
APPID
  2
ACCMTRANSPARENCY
 70
     0
  0
APPID
  2
ACAD_DIMASSOC_CALC_DIMLFAC
 70
     0
  0
APPID
  2
ACAD_DIMASSOC_DIMLFAC
 70
     0
  0
APPID
  2
ACAD_DIMASSOC_OVERRIDDEN_D
 70
     0
  0
ENDTAB
  0
TABLE
  2
DIMSTYLE
 70
     4
  0
DIMSTYLE
  2
STANDARD
 70
     0
  3

  4

  5

  6

  7

 40
1.0
 41
0.18
 42
0.0625
 43
0.38
 44
0.18
 45
0.0
 46
0.0
 47
0.0
 48
0.0
140
0.18
141
0.09
142
0.0
143
25.3999999999999986
144
1.0
145
0.0
146
1.0
147
0.09
 71
     0
 72
     0
 73
     1
 74
     1
 75
     0
 76
     0
 77
     0
 78
     0
170
     0
171
     2
172
     0
173
     0
174
     0
175
     0
176
     0
177
     0
178
     0
  0
ENDTAB
  0
ENDSEC
  0
SECTION
  2
BLOCKS
  0
BLOCK
  8
0
  2
$MODEL_SPACE
 70
     0
 10
0.0
 20
0.0
 30
0.0
  3
$MODEL_SPACE
  1

  0
ENDBLK
  5
38
  8
0
  0
BLOCK
 67
     1
  8
0
  2
$PAPER_SPACE
 70
     0
 10
0.0
 20
0.0
 30
0.0
  3
$PAPER_SPACE
  1

  0
ENDBLK
  5
36
 67
     1
  8
0
  0
BLOCK
  8
0
  2
*S2
 70
     1
 10
0.0
 20
0.0
 30
0.0
  3
*S2
  1

  0
ENDBLK
  5
B3C
  8
0
  0
BLOCK
  8
0
  2
A$C6E3B08BD
 70
     0
 10
0.0
 20
0.0
 30
0.0
  3
A$C6E3B08BD
  1

  0
CIRCLE
  5
1C92
  8
0
  6
CONTINUOUS
 62
     3
 10
-45.0000000000009166
 20
-77.9422863405980308
 30
0.0
 40
4.9999400000001533
  0
CIRCLE
  5
1C93
  8
0
  6
CONTINUOUS
 62
     3
 10
-45.0000000000009166
 20
-77.9422863405980308
 30
0.0
 40
3.4999400000001519
  0
CIRCLE
  5
1C94
  8
0
  6
CONTINUOUS
 62
     3
 10
-45.0
 20
77.9422863405961692
 30
0.0
 40
4.9999400000001506
  0
CIRCLE
  5
1C95
  8
0
  6
CONTINUOUS
 62
     3
 10
-45.0
 20
77.9422863405961692
 30
0.0
 40
3.499940000000151
  0
CIRCLE
  5
1C96
  8
0
  6
CONTINUOUS
 62
     3
 10
44.9999999999994316
 20
-77.9422863405989403
 30
0.0
 40
4.9999400000001533
  0
CIRCLE
  5
1C97
  8
0
  6
CONTINUOUS
 62
     3
 10
44.9999999999994316
 20
-77.9422863405989403
 30
0.0
 40
3.4999400000001519
  0
CIRCLE
  5
1C98
  8
0
  6
CONTINUOUS
 62
     3
 10
90.0
 20
0.0000000000001919
 30
0.0
 40
4.9999400000001506
  0
CIRCLE
  5
1C99
  8
0
  6
CONTINUOUS
 62
     3
 10
90.0
 20
0.0000000000001922
 30
0.0
 40
3.499940000000151
  0
CIRCLE
  5
1C9A
  8
0
  6
CONTINUOUS
 62
     3
 10
-90.0
 20
0.0000000000004355
 30
0.0
 40
4.9999400000001506
  0
CIRCLE
  5
1C9B
  8
0
  6
CONTINUOUS
 62
     3
 10
-90.0
 20
0.000000000000436
 30
0.0
 40
3.499940000000151
  0
CIRCLE
  5
1C9C
  8
0
  6
CONTINUOUS
 62
     3
 10
44.9999999999997584
 20
77.942286340600262
 30
0.0
 40
4.9999400000001506
  0
CIRCLE
  5
1C9D
  8
0
  6
CONTINUOUS
 62
     3
 10
44.9999999999997584
 20
77.942286340600262
 30
0.0
 40
3.499940000000151
  0
CIRCLE
  5
1C9E
  8
0
  6
CONTINUOUS
 62
     3
 10
0.000000000000228
 20
-0.0000000000000085
 30
0.0
 40
37.8999999999999773
  0
CIRCLE
  5
1C9F
  8
0
  6
CONTINUOUS
 62
     3
 10
0.0000000000002278
 20
-0.0000000000000085
 30
0.0
 40
39.2594616805548711
  0
CIRCLE
  5
1CA0
  8
0
  6
CONTINUOUS
 62
     3
 10
0.0000000000002303
 20
-0.0000000000000092
 30
0.0
 40
41.9000000000000909
  0
CIRCLE
  5
1CA1
  8
0
  6
CONTINUOUS
 62
     3
 10
0.0000000000002555
 20
-0.0000000000000161
 30
0.0
 40
35.0
  0
CIRCLE
  5
1CA2
  8
0
  6
CONTINUOUS
 62
     3
 10
0.0000000000002984
 20
-0.0000000000000279
 30
0.0
 40
34.3932873081809021
  0
CIRCLE
  5
1CA3
  8
0
  6
CONTINUOUS
 62
     3
 10
-0.0000000000000548
 20
-0.0000000000000052
 30
0.0
 40
122.4999999999999005
  0
CIRCLE
  5
1CA4
  8
0
  6
CONTINUOUS
 62
     3
 10
-0.0000000000001667
 20
-0.000000000000043
 30
0.0
 40
43.1177747533186704
  0
CIRCLE
  5
1CA5
  8
0
  6
CONTINUOUS
 62
     3
 10
0.0000000000000041
 20
-0.0000000000000186
 30
0.0
 40
41.9500000000007276
  0
CIRCLE
  5
1CA6
  8
0
  6
VERDECKT
 62
     1
 10
0.0000000000002303
 20
-0.0000000000000092
 30
0.0
 40
40.3999999999987267
  0
CIRCLE
  5
1CA7
  8
0
  6
VERDECKT
 62
     1
 10
0.0000000000002342
 20
-0.0000000000000102
 30
0.0
 40
39.4000000000000909
  0
CIRCLE
  5
1CA8
  8
0
  6
VERDECKT
 62
     1
 10
0.0000000000002555
 20
-0.0000000000000161
 30
0.0
 40
36.5
  0
CIRCLE
  5
1CA9
  8
0
  6
VERDECKT
 62
     1
 10
0.0000000000002984
 20
-0.0000000000000279
 30
0.0
 40
35.8875793553185076
  0
CIRCLE
  5
1CAA
  8
0
  6
VERDECKT
 62
     1
 10
0.0000000000000493
 20
-0.0000000000001081
 30
0.0
 40
44.018802153515928
  0
CIRCLE
  5
1CAB
  8
0
  6
VERDECKT
 62
     1
 10
0.0000000000000489
 20
-0.000000000000108
 30
0.0
 40
51.0
  0
CIRCLE
  5
1CAC
  8
0
  6
VERDECKT
 62
     1
 10
0.0000000000000489
 20
-0.000000000000108
 30
0.0
 40
49.0
  0
CIRCLE
  5
1CAD
  8
0
  6
VERDECKT
 62
     1
 10
0.0000000000000453
 20
-0.000000000000107
 30
0.0
 40
48.4412676881311128
  0
CIRCLE
  5
1CAE
  8
0
  6
VERDECKT
 62
     1
 10
0.0000000000000453
 20
-0.000000000000107
 30
0.0
 40
46.2213237134674273
  0
CIRCLE
  5
1CAF
  8
0
  6
VERDECKT
 62
     1
 10
0.0000000000000469
 20
-0.0000000000001074
 30
0.0
 40
43.25
  0
CIRCLE
  5
1CB0
  8
0
  6
VERDECKT
 62
     1
 10
0.0000000000000453
 20
-0.000000000000107
 30
0.0
 40
40.25
  0
CIRCLE
  5
1CB1
  8
0
  6
VERDECKT
 62
     1
 10
-0.0000000000000545
 20
-0.0000000000000053
 30
0.0
 40
121.0857864376268935
  0
CIRCLE
  5
1CB2
  8
0
  6
VERDECKT
 62
     1
 10
-0.0000000000000524
 20
-0.0000000000000059
 30
0.0
 40
43.3621635674703612
  0
CIRCLE
  5
1CB3
  8
0
  6
VERDECKT
 62
     1
 10
0.0000000000001178
 20
-0.0000000000000298
 30
0.0
 40
41.8711301527697586
  0
CIRCLE
  5
1CB4
  8
0
  6
VERDECKT
 62
     1
 10
-0.0000000000001676
 20
-0.0000000000000417
 30
0.0
 40
49.6860621314168469
  0
CIRCLE
  5
1CB5
  8
0
  6
VERDECKT
 62
     1
 10
-0.0000000000001661
 20
-0.0000000000000438
 30
0.0
 40
43.3621635674703612
  0
CIRCLE
  5
1CB6
  8
0
  6
VERDECKT
 62
     1
 10
0.000000000000003
 20
-0.0000000000000899
 30
0.0
 40
50.0
  0
CIRCLE
  5
1CB7
  8
0
  6
VERDECKT
 62
     1
 10
0.0000000000001418
 20
-0.0000000000000629
 30
0.0
 40
36.5
  0
CIRCLE
  5
1CB8
  8
0
  6
VERDECKT
 62
     1
 10
0.0000000000001205
 20
-0.0000000000000337
 30
0.0
 40
39.4000000000000909
  0
CIRCLE
  5
1CB9
  8
0
  6
VERDECKT
 62
     1
 10
0.0000000000000489
 20
-0.0000000000000862
 30
0.0
 40
49.0
  0
CIRCLE
  5
1CBA
  8
0
  6
VERDECKT
 62
     1
 10
0.0000000000000453
 20
-0.0000000000000813
 30
0.0
 40
48.4412676881311128
  0
CIRCLE
  5
1CBB
  8
0
  6
VERDECKT
 62
     1
 10
0.0000000000000453
 20
-0.0000000000000813
 30
0.0
 40
46.2213237134674273
  0
CIRCLE
  5
1CBC
  8
0
  6
VERDECKT
 62
     1
 10
0.0000000000000469
 20
-0.0000000000000835
 30
0.0
 40
43.25
  0
CIRCLE
  5
1CBD
  8
0
  6
VERDECKT
 62
     1
 10
0.0000000000000453
 20
-0.0000000000000813
 30
0.0
 40
40.25
  0
CIRCLE
  5
1CBE
  8
0
  6
VERDECKT
 62
     1
 10
0.000000000000003
 20
-0.0000000000000142
 30
0.0
 40
51.5
  0
CIRCLE
  5
1CBF
  8
0
  6
VERDECKT
 62
     1
 10
0.000000000000003
 20
-0.0000000000000142
 30
0.0
 40
50.0
  0
ENDBLK
  5
1CC1
  8
0
  0
BLOCK
  8
0
  2
A$C375363BD
 70
     0
 10
0.0
 20
0.0
 30
0.0
  3
A$C375363BD
  1

  0
LINE
  5
1CC5
  8
0
  6
CONTINUOUS
 62
     3
 10
-49.9999400000008478
 20
338.5000000000002274
 30
-0.0000000000000752
 11
-40.0000600000009783
 21
338.5000000000002274
 31
-0.0000000000000752
210
0.0
220
1.0
230
-0.0000000000000002
  0
LINE
  5
1CC6
  8
0
  6
CONTINUOUS
 62
     3
 10
-48.4999400000037113
 20
340.0000000000002274
 30
-0.0000000000000755
 11
-41.5000600000017599
 21
340.0000000000002274
 31
-0.0000000000000755
210
0.0
220
1.0
230
-0.0000000000000002
  0
LINE
  5
1CC7
  8
0
  6
CONTINUOUS
 62
     3
 10
-48.4999400000037113
 20
337.0000000000002274
 30
-0.0000000000000748
 11
-41.5000600000017599
 21
337.0000000000002274
 31
-0.0000000000000748
210
0.0
220
1.0
230
-0.0000000000000002
  0
LINE
  5
1CC8
  8
0
  6
CONTINUOUS
 62
     3
 10
-49.9999400000008478
 20
335.5000000000002274
 30
-0.0000000000000745
 11
-40.0000600000009783
 21
335.5000000000002274
 31
-0.0000000000000745
210
0.0
220
1.0
230
-0.0000000000000002
  0
LINE
  5
1CC9
  8
0
  6
CONTINUOUS
 62
     3
 10
-48.4999400000037113
 20
333.9999999999993179
 30
-0.0000000000000742
 11
-41.5000600000017599
 21
333.9999999999993179
 31
-0.0000000000000742
210
0.0
220
1.0
230
-0.0000000000000002
  0
LINE
  5
1CCA
  8
0
  6
CONTINUOUS
 62
     3
 10
-49.9999400000008478
 20
332.4999999999993179
 30
-0.0000000000000738
 11
-40.0000600000009783
 21
332.4999999999993179
 31
-0.0000000000000738
210
0.0
220
1.0
230
-0.0000000000000002
  0
LINE
  5
1CCB
  8
0
  6
CONTINUOUS
 62
     3
 10
-48.4999400000037113
 20
330.9999999999984084
 30
-0.0000000000000735
 11
-41.5000600000017599
 21
330.9999999999984084
 31
-0.0000000000000735
210
0.0
220
1.0
230
-0.0000000000000002
  0
LINE
  5
1CCC
  8
0
  6
CONTINUOUS
 62
     3
 10
-49.9999400000023826
 20
329.4999999999984084
 30
-0.0000000000000732
 11
-40.0000600000012696
 21
329.4999999999984084
 31
-0.0000000000000732
210
0.0
220
1.0
230
-0.0000000000000002
  0
LINE
  5
1CCD
  8
0
  6
CONTINUOUS
 62
     3
 10
-48.4999400000037113
 20
327.9999999999974989
 30
-0.0000000000000728
 11
-41.5000600000017599
 21
327.9999999999974989
 31
-0.0000000000000728
210
0.0
220
1.0
230
-0.0000000000000002
  0
LINE
  5
1CCE
  8
0
  6
CONTINUOUS
 62
     3
 10
-49.9999400000023826
 20
326.4999999999974989
 30
-0.0000000000000725
 11
-40.0000600000012696
 21
326.4999999999974989
 31
-0.0000000000000725
210
0.0
220
1.0
230
-0.0000000000000002
  0
LINE
  5
1CCF
  8
0
  6
CONTINUOUS
 62
     3
 10
-48.4999400000037113
 20
324.9999999999965894
 30
-0.0000000000000722
 11
-41.5000600000017599
 21
324.9999999999965894
 31
-0.0000000000000722
210
0.0
220
1.0
230
-0.0000000000000002
  0
LINE
  5
1CD0
  8
0
  6
CONTINUOUS
 62
     3
 10
-49.9999400000023826
 20
323.4999999999965894
 30
-0.0000000000000718
 11
-40.0000600000012696
 21
323.4999999999965894
 31
-0.0000000000000718
210
0.0
220
1.0
230
-0.0000000000000002
  0
LINE
  5
1CD1
  8
0
  6
CONTINUOUS
 62
     3
 10
-48.4999400000037113
 20
321.9999999999965894
 30
-0.0000000000000715
 11
-41.5000600000017599
 21
321.9999999999965894
 31
-0.0000000000000715
210
0.0
220
1.0
230
-0.0000000000000002
  0
LINE
  5
1CD2
  8
0
  6
CONTINUOUS
 62
     3
 10
-49.9999400000008407
 20
320.4999999999965894
 30
-0.0000000000000712
 11
-40.0000600000009925
 21
320.4999999999965894
 31
-0.0000000000000712
210
0.0
220
1.0
230
-0.0000000000000002
  0
LINE
  5
1CD3
  8
0
  6
CONTINUOUS
 62
     3
 10
-48.4999400000037113
 20
318.9999999999956231
 30
-0.0000000000000708
 11
-41.5000600000017599
 21
318.9999999999956231
 31
-0.0000000000000708
210
0.0
220
1.0
230
-0.0000000000000002
  0
LINE
  5
1CD4
  8
0
  6
CONTINUOUS
 62
     3
 10
-49.9999400000008407
 20
317.4999999999956231
 30
-0.0000000000000705
 11
-40.0000600000009925
 21
317.4999999999956231
 31
-0.0000000000000705
210
0.0
220
1.0
230
-0.0000000000000002
  0
LINE
  5
1CD5
  8
0
  6
CONTINUOUS
 62
     3
 10
-48.4999400000037113
 20
315.9999999999947136
 30
-0.0000000000000702
 11
-41.5000600000017599
 21
315.9999999999947136
 31
-0.0000000000000702
210
0.0
220
1.0
230
-0.0000000000000002
  0
LINE
  5
1CD6
  8
0
  6
CONTINUOUS
 62
     3
 10
-41.5000599999997632
 20
340.0000000000038085
 30
-0.0000000000000755
 11
-40.0000599999999267
 21
338.5000000000035811
 31
-0.0000000000000752
210
0.0
220
1.0
230
-0.0000000000000002
  0
LINE
  5
1CD7
  8
0
  6
CONTINUOUS
 62
     3
 10
-48.4999400000002296
 20
340.0000000000038085
 30
-0.0000000000000755
 11
-49.9999400000000733
 21
338.5000000000035811
 31
-0.0000000000000752
210
0.0
220
1.0
230
-0.0000000000000002
  0
LINE
  5
1CD8
  8
0
  6
CONTINUOUS
 62
     3
 10
-48.4999400000002296
 20
337.0000000000035811
 30
-0.0000000000000748
 11
-49.9999400000000733
 21
338.5000000000038085
 31
-0.0000000000000752
210
0.0
220
1.0
230
-0.0000000000000002
  0
LINE
  5
1CD9
  8
0
  6
CONTINUOUS
 62
     3
 10
-41.5000599999997632
 20
337.0000000000035811
 30
-0.0000000000000748
 11
-40.0000599999999267
 21
338.5000000000038085
 31
-0.0000000000000752
210
0.0
220
1.0
230
-0.0000000000000002
  0
LINE
  5
1CDA
  8
0
  6
CONTINUOUS
 62
     3
 10
-41.5000599999998485
 20
337.0000000000036948
 30
-0.0000000000000748
 11
-40.0000599999998414
 21
335.5000000000036948
 31
-0.0000000000000745
210
0.0
220
1.0
230
-0.0000000000000002
  0
LINE
  5
1CDB
  8
0
  6
CONTINUOUS
 62
     3
 10
-48.4999400000001515
 20
337.0000000000036948
 30
-0.0000000000000748
 11
-49.9999400000001515
 21
335.5000000000036948
 31
-0.0000000000000745
210
0.0
220
1.0
230
-0.0000000000000002
  0
LINE
  5
1CDC
  8
0
  6
CONTINUOUS
 62
     3
 10
-48.499940000000322
 20
334.0000000000026148
 30
-0.0000000000000742
 11
-49.9999400000004286
 21
335.5000000000034106
 31
-0.0000000000000745
210
0.0
220
1.0
230
-0.0000000000000002
  0
LINE
  5
1CDD
  8
0
  6
CONTINUOUS
 62
     3
 10
-41.500059999999678
 20
334.0000000000026148
 30
-0.0000000000000742
 11
-40.0000599999995572
 21
335.5000000000034106
 31
-0.0000000000000745
210
0.0
220
1.0
230
-0.0000000000000002
  0
LINE
  5
1CDE
  8
0
  6
CONTINUOUS
 62
     3
 10
-41.5000599999998485
 20
334.0000000000027853
 30
-0.0000000000000742
 11
-40.0000599999998414
 21
332.5000000000027853
 31
-0.0000000000000738
210
0.0
220
1.0
230
-0.0000000000000002
  0
LINE
  5
1CDF
  8
0
  6
CONTINUOUS
 62
     3
 10
-48.4999400000001515
 20
334.0000000000027853
 30
-0.0000000000000742
 11
-49.9999400000001515
 21
332.5000000000027853
 31
-0.0000000000000738
210
0.0
220
1.0
230
-0.0000000000000002
  0
LINE
  5
1CE0
  8
0
  6
CONTINUOUS
 62
     3
 10
-48.499940000000322
 20
331.0000000000017053
 30
-0.0000000000000735
 11
-49.9999400000004286
 21
332.5000000000025011
 31
-0.0000000000000738
210
0.0
220
1.0
230
-0.0000000000000002
  0
LINE
  5
1CE1
  8
0
  6
CONTINUOUS
 62
     3
 10
-41.500059999999678
 20
331.0000000000017053
 30
-0.0000000000000735
 11
-40.0000599999995572
 21
332.5000000000025011
 31
-0.0000000000000738
210
0.0
220
1.0
230
-0.0000000000000002
  0
LINE
  5
1CE2
  8
0
  6
CONTINUOUS
 62
     3
 10
-41.5000599999997632
 20
331.0000000000019895
 30
-0.0000000000000735
 11
-40.000059999999479
 21
329.500000000001819
 31
-0.0000000000000732
210
0.0
220
1.0
230
-0.0000000000000002
  0
LINE
  5
1CE3
  8
0
  6
CONTINUOUS
 62
     3
 10
-48.4999400000002296
 20
331.0000000000019895
 30
-0.0000000000000735
 11
-49.999940000000521
 21
329.500000000001819
 31
-0.0000000000000732
210
0.0
220
1.0
230
-0.0000000000000002
  0
LINE
  5
1CE4
  8
0
  6
CONTINUOUS
 62
     3
 10
-48.499939999999782
 20
328.0000000000013074
 30
-0.0000000000000728
 11
-49.999940000000521
 21
329.5000000000019895
 31
-0.0000000000000732
210
0.0
220
1.0
230
-0.0000000000000002
  0
LINE
  5
1CE5
  8
0
  6
CONTINUOUS
 62
     3
 10
-41.5000600000002109
 20
328.0000000000013074
 30
-0.0000000000000728
 11
-40.000059999999479
 21
329.5000000000019895
 31
-0.0000000000000732
210
0.0
220
1.0
230
-0.0000000000000002
  0
LINE
  5
1CE6
  8
0
  6
CONTINUOUS
 62
     3
 10
-41.5000599999997632
 20
328.00000000000108
 30
-0.0000000000000728
 11
-40.000059999999479
 21
326.5000000000009095
 31
-0.0000000000000725
210
0.0
220
1.0
230
-0.0000000000000002
  0
LINE
  5
1CE7
  8
0
  6
CONTINUOUS
 62
     3
 10
-48.4999400000002296
 20
328.00000000000108
 30
-0.0000000000000728
 11
-49.999940000000521
 21
326.5000000000009095
 31
-0.0000000000000725
210
0.0
220
1.0
230
-0.0000000000000002
  0
LINE
  5
1CE8
  8
0
  6
CONTINUOUS
 62
     3
 10
-48.499939999999782
 20
325.0000000000003979
 30
-0.0000000000000722
 11
-49.999940000000521
 21
326.50000000000108
 31
-0.0000000000000725
210
0.0
220
1.0
230
-0.0000000000000002
  0
LINE
  5
1CE9
  8
0
  6
CONTINUOUS
 62
     3
 10
-41.5000600000002109
 20
325.0000000000003979
 30
-0.0000000000000722
 11
-40.000059999999479
 21
326.50000000000108
 31
-0.0000000000000725
210
0.0
220
1.0
230
-0.0000000000000002
  0
LINE
  5
1CEA
  8
0
  6
CONTINUOUS
 62
     3
 10
-41.5000599999997632
 20
325.0000000000002274
 30
-0.0000000000000722
 11
-40.000059999999479
 21
323.4999999999998863
 31
-0.0000000000000718
210
0.0
220
1.0
230
-0.0000000000000002
  0
LINE
  5
1CEB
  8
0
  6
CONTINUOUS
 62
     3
 10
-48.4999400000002296
 20
325.0000000000002274
 30
-0.0000000000000722
 11
-49.999940000000521
 21
323.4999999999998863
 31
-0.0000000000000718
210
0.0
220
1.0
230
-0.0000000000000002
  0
LINE
  5
1CEC
  8
0
  6
CONTINUOUS
 62
     3
 10
-48.4999400000002296
 20
321.9999999999998863
 30
-0.0000000000000715
 11
-49.999940000000521
 21
323.5000000000002274
 31
-0.0000000000000718
210
0.0
220
1.0
230
-0.0000000000000002
  0
LINE
  5
1CED
  8
0
  6
CONTINUOUS
 62
     3
 10
-41.5000599999997632
 20
321.9999999999998863
 30
-0.0000000000000715
 11
-40.000059999999479
 21
323.5000000000002274
 31
-0.0000000000000718
210
0.0
220
1.0
230
-0.0000000000000002
  0
LINE
  5
1CEE
  8
0
  6
CONTINUOUS
 62
     3
 10
-41.5000599999998485
 20
322.0000000000001137
 30
-0.0000000000000715
 11
-40.0000599999998414
 21
320.5
 31
-0.0000000000000712
210
0.0
220
1.0
230
-0.0000000000000002
  0
LINE
  5
1CEF
  8
0
  6
CONTINUOUS
 62
     3
 10
-48.4999400000001515
 20
322.0000000000001137
 30
-0.0000000000000715
 11
-49.9999400000001515
 21
320.5
 31
-0.0000000000000712
210
0.0
220
1.0
230
-0.0000000000000002
  0
LINE
  5
1CF0
  8
0
  6
CONTINUOUS
 62
     3
 10
-48.499940000000322
 20
318.9999999999989768
 30
-0.0000000000000708
 11
-49.9999400000004286
 21
320.4999999999997726
 31
-0.0000000000000712
210
0.0
220
1.0
230
-0.0000000000000002
  0
LINE
  5
1CF1
  8
0
  6
CONTINUOUS
 62
     3
 10
-41.500059999999678
 20
318.9999999999989768
 30
-0.0000000000000708
 11
-40.0000599999995572
 21
320.4999999999997726
 31
-0.0000000000000712
210
0.0
220
1.0
230
-0.0000000000000002
  0
LINE
  5
1CF2
  8
0
  6
CONTINUOUS
 62
     3
 10
-41.5000599999998485
 20
318.9999999999990905
 30
-0.0000000000000708
 11
-40.0000599999998414
 21
317.4999999999990905
 31
-0.0000000000000705
210
0.0
220
1.0
230
-0.0000000000000002
  0
LINE
  5
1CF3
  8
0
  6
CONTINUOUS
 62
     3
 10
-48.4999400000001515
 20
318.9999999999990905
 30
-0.0000000000000708
 11
-49.9999400000001515
 21
317.4999999999990905
 31
-0.0000000000000705
210
0.0
220
1.0
230
-0.0000000000000002
  0
LINE
  5
1CF4
  8
0
  6
CONTINUOUS
 62
     3
 10
-48.4999399999998673
 20
315.9999999999985221
 30
-0.0000000000000702
 11
-49.999939999999981
 21
317.4999999999993179
 31
-0.0000000000000705
210
0.0
220
1.0
230
-0.0000000000000002
  0
LINE
  5
1CF5
  8
0
  6
CONTINUOUS
 62
     3
 10
-41.5000600000001327
 20
315.9999999999985221
 30
-0.0000000000000702
 11
-40.0000600000000119
 21
317.4999999999993179
 31
-0.0000000000000705
210
0.0
220
1.0
230
-0.0000000000000002
  0
LINE
  5
1CF6
  8
0
  6
CONTINUOUS
 62
     3
 10
-41.5000599999998485
 20
315.999999999998181
 30
-0.0000000000000702
 11
-40.0000599999998414
 21
315.0000000000036948
 31
-0.0000000000000699
210
0.0
220
1.0
230
-0.0000000000000002
  0
LINE
  5
1CF7
  8
0
  6
CONTINUOUS
 62
     3
 10
-48.4999400000001515
 20
315.999999999998181
 30
-0.0000000000000702
 11
-49.9999400000001515
 21
315.0000000000036948
 31
-0.0000000000000699
210
0.0
220
1.0
230
-0.0000000000000002
  0
LINE
  5
1CF8
  8
0
  6
CONTINUOUS
 62
     3
 10
49.9999399999992207
 20
338.50000000000108
 30
-0.0000000000000752
 11
40.0000599999992019
 21
338.50000000000108
 31
-0.0000000000000752
210
0.0
220
1.0
230
-0.0000000000000002
  0
LINE
  5
1CF9
  8
0
  6
CONTINUOUS
 62
     3
 10
48.4999399999996328
 20
340.00000000000108
 30
-0.0000000000000755
 11
41.5000599999992374
 21
340.00000000000108
 31
-0.0000000000000755
210
0.0
220
1.0
230
-0.0000000000000002
  0
LINE
  5
1CFA
  8
0
  6
CONTINUOUS
 62
     3
 10
48.4999399999996328
 20
337.0000000000011937
 30
-0.0000000000000748
 11
41.5000599999992374
 21
337.0000000000011937
 31
-0.0000000000000748
210
0.0
220
1.0
230
-0.0000000000000002
  0
LINE
  5
1CFB
  8
0
  6
CONTINUOUS
 62
     3
 10
49.9999399999992207
 20
335.50000000000108
 30
-0.0000000000000745
 11
40.0000599999992019
 21
335.50000000000108
 31
-0.0000000000000745
210
0.0
220
1.0
230
-0.0000000000000002
  0
LINE
  5
1CFC
  8
0
  6
CONTINUOUS
 62
     3
 10
48.4999399999996328
 20
334.0000000000002274
 30
-0.0000000000000742
 11
41.5000599999992374
 21
334.0000000000002274
 31
-0.0000000000000742
210
0.0
220
1.0
230
-0.0000000000000002
  0
LINE
  5
1CFD
  8
0
  6
CONTINUOUS
 62
     3
 10
49.9999399999992207
 20
332.5000000000002274
 30
-0.0000000000000738
 11
40.0000599999992019
 21
332.5000000000002274
 31
-0.0000000000000738
210
0.0
220
1.0
230
-0.0000000000000002
  0
LINE
  5
1CFE
  8
0
  6
CONTINUOUS
 62
     3
 10
48.4999399999996328
 20
330.9999999999993179
 30
-0.0000000000000735
 11
41.5000599999992374
 21
330.9999999999993179
 31
-0.0000000000000735
210
0.0
220
1.0
230
-0.0000000000000002
  0
LINE
  5
1CFF
  8
0
  6
CONTINUOUS
 62
     3
 10
49.999940000000052
 20
329.4999999999993179
 30
-0.0000000000000732
 11
40.0000599999988182
 21
329.4999999999993179
 31
-0.0000000000000732
210
0.0
220
1.0
230
-0.0000000000000002
  0
LINE
  5
1D00
  8
0
  6
CONTINUOUS
 62
     3
 10
48.4999399999996328
 20
327.9999999999984084
 30
-0.0000000000000728
 11
41.5000599999992374
 21
327.9999999999984084
 31
-0.0000000000000728
210
0.0
220
1.0
230
-0.0000000000000002
  0
LINE
  5
1D01
  8
0
  6
CONTINUOUS
 62
     3
 10
49.999940000000052
 20
326.4999999999984084
 30
-0.0000000000000725
 11
40.0000599999988182
 21
326.4999999999984084
 31
-0.0000000000000725
210
0.0
220
1.0
230
-0.0000000000000002
  0
LINE
  5
1D02
  8
0
  6
CONTINUOUS
 62
     3
 10
48.4999399999996328
 20
324.9999999999974989
 30
-0.0000000000000722
 11
41.5000599999992374
 21
324.9999999999974989
 31
-0.0000000000000722
210
0.0
220
1.0
230
-0.0000000000000002
  0
LINE
  5
1D03
  8
0
  6
CONTINUOUS
 62
     3
 10
49.999940000000052
 20
323.4999999999974989
 30
-0.0000000000000718
 11
40.0000599999988182
 21
323.4999999999974989
 31
-0.0000000000000718
210
0.0
220
1.0
230
-0.0000000000000002
  0
LINE
  5
1D04
  8
0
  6
CONTINUOUS
 62
     3
 10
48.4999399999996328
 20
321.9999999999974989
 30
-0.0000000000000715
 11
41.5000599999992374
 21
321.9999999999974989
 31
-0.0000000000000715
210
0.0
220
1.0
230
-0.0000000000000002
  0
LINE
  5
1D05
  8
0
  6
CONTINUOUS
 62
     3
 10
49.9999399999992207
 20
320.4999999999974989
 30
-0.0000000000000712
 11
40.0000599999992019
 21
320.4999999999974989
 31
-0.0000000000000712
210
0.0
220
1.0
230
-0.0000000000000002
  0
LINE
  5
1D06
  8
0
  6
CONTINUOUS
 62
     3
 10
48.4999399999996328
 20
318.9999999999964757
 30
-0.0000000000000708
 11
41.5000599999992374
 21
318.9999999999964757
 31
-0.0000000000000708
210
0.0
220
1.0
230
-0.0000000000000002
  0
LINE
  5
1D07
  8
0
  6
CONTINUOUS
 62
     3
 10
49.9999399999992207
 20
317.4999999999964757
 30
-0.0000000000000705
 11
40.0000599999992019
 21
317.4999999999964757
 31
-0.0000000000000705
210
0.0
220
1.0
230
-0.0000000000000002
  0
LINE
  5
1D08
  8
0
  6
CONTINUOUS
 62
     3
 10
48.4999399999996328
 20
315.9999999999956231
 30
-0.0000000000000702
 11
41.5000599999992374
 21
315.9999999999956231
 31
-0.0000000000000702
210
0.0
220
1.0
230
-0.0000000000000002
  0
LINE
  5
1D09
  8
0
  6
CONTINUOUS
 62
     3
 10
48.4999400000000094
 20
340.000000000004718
 30
-0.0000000000000755
 11
49.9999399999998388
 21
338.5000000000044906
 31
-0.0000000000000752
210
0.0
220
1.0
230
-0.0000000000000002
  0
LINE
  5
1D0A
  8
0
  6
CONTINUOUS
 62
     3
 10
41.500059999999543
 20
340.000000000004718
 30
-0.0000000000000755
 11
40.0000599999996993
 21
338.5000000000044906
 31
-0.0000000000000752
210
0.0
220
1.0
230
-0.0000000000000002
  0
LINE
  5
1D0B
  8
0
  6
CONTINUOUS
 62
     3
 10
41.500059999999543
 20
337.0000000000044906
 30
-0.0000000000000748
 11
40.0000599999996993
 21
338.500000000004718
 31
-0.0000000000000752
210
0.0
220
1.0
230
-0.0000000000000002
  0
LINE
  5
1D0C
  8
0
  6
CONTINUOUS
 62
     3
 10
48.4999400000000094
 20
337.0000000000044906
 30
-0.0000000000000748
 11
49.9999399999998388
 21
338.500000000004718
 31
-0.0000000000000752
210
0.0
220
1.0
230
-0.0000000000000002
  0
LINE
  5
1D0D
  8
0
  6
CONTINUOUS
 62
     3
 10
48.499939999999917
 20
337.0000000000046043
 30
-0.0000000000000748
 11
49.999939999999917
 21
335.5000000000046043
 31
-0.0000000000000745
210
0.0
220
1.0
230
-0.0000000000000002
  0
LINE
  5
1D0E
  8
0
  6
CONTINUOUS
 62
     3
 10
41.5000599999996211
 20
337.0000000000046043
 30
-0.0000000000000748
 11
40.0000599999996211
 21
335.5000000000046043
 31
-0.0000000000000745
210
0.0
220
1.0
230
-0.0000000000000002
  0
LINE
  5
1D0F
  8
0
  6
CONTINUOUS
 62
     3
 10
41.5000599999994506
 20
334.0000000000035243
 30
-0.0000000000000742
 11
40.0000599999993369
 21
335.5000000000043201
 31
-0.0000000000000745
210
0.0
220
1.0
230
-0.0000000000000002
  0
LINE
  5
1D10
  8
0
  6
CONTINUOUS
 62
     3
 10
48.4999400000000875
 20
334.0000000000035243
 30
-0.0000000000000742
 11
49.9999400000002083
 21
335.5000000000043201
 31
-0.0000000000000745
210
0.0
220
1.0
230
-0.0000000000000002
  0
LINE
  5
1D11
  8
0
  6
CONTINUOUS
 62
     3
 10
48.499939999999917
 20
334.0000000000036948
 30
-0.0000000000000742
 11
49.999939999999917
 21
332.5000000000036948
 31
-0.0000000000000738
210
0.0
220
1.0
230
-0.0000000000000002
  0
LINE
  5
1D12
  8
0
  6
CONTINUOUS
 62
     3
 10
41.5000599999996211
 20
334.0000000000036948
 30
-0.0000000000000742
 11
40.0000599999996211
 21
332.5000000000036948
 31
-0.0000000000000738
210
0.0
220
1.0
230
-0.0000000000000002
  0
LINE
  5
1D13
  8
0
  6
CONTINUOUS
 62
     3
 10
41.5000599999994506
 20
331.0000000000026148
 30
-0.0000000000000735
 11
40.0000599999993369
 21
332.5000000000034106
 31
-0.0000000000000738
210
0.0
220
1.0
230
-0.0000000000000002
  0
LINE
  5
1D14
  8
0
  6
CONTINUOUS
 62
     3
 10
48.4999400000000875
 20
331.0000000000026148
 30
-0.0000000000000735
 11
49.9999400000002083
 21
332.5000000000034106
 31
-0.0000000000000738
210
0.0
220
1.0
230
-0.0000000000000002
  0
LINE
  5
1D15
  8
0
  6
CONTINUOUS
 62
     3
 10
48.4999400000000094
 20
331.000000000002899
 30
-0.0000000000000735
 11
49.9999400000002865
 21
329.5000000000026716
 31
-0.0000000000000732
210
0.0
220
1.0
230
-0.0000000000000002
  0
LINE
  5
1D16
  8
0
  6
CONTINUOUS
 62
     3
 10
41.500059999999543
 20
331.000000000002899
 30
-0.0000000000000735
 11
40.0000599999992517
 21
329.5000000000026716
 31
-0.0000000000000732
210
0.0
220
1.0
230
-0.0000000000000002
  0
LINE
  5
1D17
  8
0
  6
CONTINUOUS
 62
     3
 10
41.5000599999999906
 20
328.0000000000022169
 30
-0.0000000000000728
 11
40.0000599999992517
 21
329.500000000002899
 31
-0.0000000000000732
210
0.0
220
1.0
230
-0.0000000000000002
  0
LINE
  5
1D18
  8
0
  6
CONTINUOUS
 62
     3
 10
48.4999399999995617
 20
328.0000000000022169
 30
-0.0000000000000728
 11
49.9999400000002865
 21
329.500000000002899
 31
-0.0000000000000732
210
0.0
220
1.0
230
-0.0000000000000002
  0
LINE
  5
1D19
  8
0
  6
CONTINUOUS
 62
     3
 10
48.4999400000000094
 20
328.0000000000019895
 30
-0.0000000000000728
 11
49.9999400000002865
 21
326.500000000001819
 31
-0.0000000000000725
210
0.0
220
1.0
230
-0.0000000000000002
  0
LINE
  5
1D1A
  8
0
  6
CONTINUOUS
 62
     3
 10
41.500059999999543
 20
328.0000000000019895
 30
-0.0000000000000728
 11
40.0000599999992517
 21
326.500000000001819
 31
-0.0000000000000725
210
0.0
220
1.0
230
-0.0000000000000002
  0
LINE
  5
1D1B
  8
0
  6
CONTINUOUS
 62
     3
 10
41.5000599999999906
 20
325.0000000000013074
 30
-0.0000000000000722
 11
40.0000599999992517
 21
326.5000000000019895
 31
-0.0000000000000725
210
0.0
220
1.0
230
-0.0000000000000002
  0
LINE
  5
1D1C
  8
0
  6
CONTINUOUS
 62
     3
 10
48.4999399999995617
 20
325.0000000000013074
 30
-0.0000000000000722
 11
49.9999400000002865
 21
326.5000000000019895
 31
-0.0000000000000725
210
0.0
220
1.0
230
-0.0000000000000002
  0
LINE
  5
1D1D
  8
0
  6
CONTINUOUS
 62
     3
 10
48.4999400000000094
 20
325.00000000000108
 30
-0.0000000000000722
 11
49.9999400000002865
 21
323.5000000000009095
 31
-0.0000000000000718
210
0.0
220
1.0
230
-0.0000000000000002
  0
LINE
  5
1D1E
  8
0
  6
CONTINUOUS
 62
     3
 10
41.500059999999543
 20
325.00000000000108
 30
-0.0000000000000722
 11
40.0000599999992517
 21
323.5000000000009095
 31
-0.0000000000000718
210
0.0
220
1.0
230
-0.0000000000000002
  0
LINE
  5
1D1F
  8
0
  6
CONTINUOUS
 62
     3
 10
41.500059999999543
 20
322.0000000000009095
 30
-0.0000000000000715
 11
40.0000599999992517
 21
323.50000000000108
 31
-0.0000000000000718
210
0.0
220
1.0
230
-0.0000000000000002
  0
LINE
  5
1D20
  8
0
  6
CONTINUOUS
 62
     3
 10
48.4999400000000094
 20
322.0000000000009095
 30
-0.0000000000000715
 11
49.9999400000002865
 21
323.50000000000108
 31
-0.0000000000000718
210
0.0
220
1.0
230
-0.0000000000000002
  0
LINE
  5
1D21
  8
0
  6
CONTINUOUS
 62
     3
 10
48.499939999999917
 20
322.0000000000009095
 30
-0.0000000000000715
 11
49.999939999999917
 21
320.5000000000010232
 31
-0.0000000000000712
210
0.0
220
1.0
230
-0.0000000000000002
  0
LINE
  5
1D22
  8
0
  6
CONTINUOUS
 62
     3
 10
41.5000599999996211
 20
322.0000000000009095
 30
-0.0000000000000715
 11
40.0000599999996211
 21
320.5000000000010232
 31
-0.0000000000000712
210
0.0
220
1.0
230
-0.0000000000000002
  0
LINE
  5
1D23
  8
0
  6
CONTINUOUS
 62
     3
 10
41.5000599999994506
 20
318.9999999999998863
 30
-0.0000000000000708
 11
40.0000599999993369
 21
320.5000000000006821
 31
-0.0000000000000712
210
0.0
220
1.0
230
-0.0000000000000002
  0
LINE
  5
1D24
  8
0
  6
CONTINUOUS
 62
     3
 10
48.4999400000000875
 20
318.9999999999998863
 30
-0.0000000000000708
 11
49.9999400000002083
 21
320.5000000000006821
 31
-0.0000000000000712
210
0.0
220
1.0
230
-0.0000000000000002
  0
LINE
  5
1D25
  8
0
  6
CONTINUOUS
 62
     3
 10
48.499939999999917
 20
319.0000000000001137
 30
-0.0000000000000708
 11
49.999939999999917
 21
317.5000000000001137
 31
-0.0000000000000705
210
0.0
220
1.0
230
-0.0000000000000002
  0
LINE
  5
1D26
  8
0
  6
CONTINUOUS
 62
     3
 10
41.5000599999996211
 20
319.0000000000001137
 30
-0.0000000000000708
 11
40.0000599999996211
 21
317.5000000000001137
 31
-0.0000000000000705
210
0.0
220
1.0
230
-0.0000000000000002
  0
LINE
  5
1D27
  8
0
  6
CONTINUOUS
 62
     3
 10
41.5000599999998983
 20
315.9999999999993747
 30
-0.0000000000000702
 11
40.0000599999997917
 21
317.5000000000002274
 31
-0.0000000000000705
210
0.0
220
1.0
230
-0.0000000000000002
  0
LINE
  5
1D28
  8
0
  6
CONTINUOUS
 62
     3
 10
48.4999399999996399
 20
315.9999999999993747
 30
-0.0000000000000702
 11
49.9999399999997607
 21
317.5000000000002274
 31
-0.0000000000000705
210
0.0
220
1.0
230
-0.0000000000000002
  0
LINE
  5
1D29
  8
0
  6
CONTINUOUS
 62
     3
 10
48.499939999999917
 20
315.9999999999992042
 30
-0.0000000000000702
 11
49.999939999999917
 21
315.0000000000046043
 31
-0.0000000000000699
210
0.0
220
1.0
230
-0.0000000000000002
  0
LINE
  5
1D2A
  8
0
  6
CONTINUOUS
 62
     3
 10
41.5000599999996211
 20
315.9999999999992042
 30
-0.0000000000000702
 11
40.0000599999996211
 21
315.0000000000046043
 31
-0.0000000000000699
210
0.0
220
1.0
230
-0.0000000000000002
  0
LINE
  5
1D2B
  8
0
  6
CONTINUOUS
 62
     3
 10
85.0000599999998343
 20
338.4999999999996021
 30
-0.0000000000000752
 11
94.9999400000001515
 21
338.4999999999996021
 31
-0.0000000000000752
210
0.0
220
1.0
230
-0.0000000000000002
  0
LINE
  5
1D2C
  8
0
  6
CONTINUOUS
 62
     3
 10
86.5000599999998485
 20
339.9999999999998863
 30
-0.0000000000000755
 11
93.4999400000001373
 21
339.9999999999998863
 31
-0.0000000000000755
210
0.0
220
1.0
230
-0.0000000000000002
  0
LINE
  5
1D2D
  8
0
  6
CONTINUOUS
 62
     3
 10
86.5000599999998485
 20
336.9999999999993179
 30
-0.0000000000000748
 11
93.4999400000001373
 21
336.9999999999993179
 31
-0.0000000000000748
210
0.0
220
1.0
230
-0.0000000000000002
  0
LINE
  5
1D2E
  8
0
  6
CONTINUOUS
 62
     3
 10
85.0000599999998343
 20
335.4999999999993179
 30
-0.0000000000000745
 11
94.9999400000001515
 21
335.4999999999993179
 31
-0.0000000000000745
210
0.0
220
1.0
230
-0.0000000000000002
  0
LINE
  5
1D2F
  8
0
  6
CONTINUOUS
 62
     3
 10
86.5000599999998485
 20
333.9999999999985789
 30
-0.0000000000000742
 11
93.4999400000001373
 21
333.9999999999985789
 31
-0.0000000000000742
210
0.0
220
1.0
230
-0.0000000000000002
  0
LINE
  5
1D30
  8
0
  6
CONTINUOUS
 62
     3
 10
85.0000599999998343
 20
332.4999999999985789
 30
-0.0000000000000738
 11
94.9999400000001515
 21
332.4999999999985789
 31
-0.0000000000000738
210
0.0
220
1.0
230
-0.0000000000000002
  0
LINE
  5
1D31
  8
0
  6
CONTINUOUS
 62
     3
 10
86.5000599999998485
 20
330.9999999999978968
 30
-0.0000000000000735
 11
93.4999400000001373
 21
330.9999999999978968
 31
-0.0000000000000735
210
0.0
220
1.0
230
-0.0000000000000002
  0
LINE
  5
1D32
  8
0
  6
CONTINUOUS
 62
     3
 10
85.0000599999993938
 20
329.4999999999974989
 30
-0.0000000000000732
 11
94.9999400000006062
 21
329.4999999999974989
 31
-0.0000000000000732
210
0.0
220
1.0
230
-0.0000000000000002
  0
LINE
  5
1D33
  8
0
  6
CONTINUOUS
 62
     3
 10
86.5000599999998485
 20
327.9999999999972147
 30
-0.0000000000000728
 11
93.4999400000001373
 21
327.9999999999972147
 31
-0.0000000000000728
210
0.0
220
1.0
230
-0.0000000000000002
  0
LINE
  5
1D34
  8
0
  6
CONTINUOUS
 62
     3
 10
85.0000599999993938
 20
326.4999999999968736
 30
-0.0000000000000725
 11
94.9999400000006062
 21
326.4999999999968736
 31
-0.0000000000000725
210
0.0
220
1.0
230
-0.0000000000000002
  0
LINE
  5
1D35
  8
0
  6
CONTINUOUS
 62
     3
 10
86.5000599999998485
 20
324.9999999999964757
 30
-0.0000000000000722
 11
93.4999400000001373
 21
324.9999999999964757
 31
-0.0000000000000722
210
0.0
220
1.0
230
-0.0000000000000002
  0
LINE
  5
1D36
  8
0
  6
CONTINUOUS
 62
     3
 10
85.0000599999993938
 20
323.4999999999961915
 30
-0.0000000000000718
 11
94.9999400000006062
 21
323.4999999999961915
 31
-0.0000000000000718
210
0.0
220
1.0
230
-0.0000000000000002
  0
LINE
  5
1D37
  8
0
  6
CONTINUOUS
 62
     3
 10
86.5000599999998485
 20
321.9999999999957936
 30
-0.0000000000000715
 11
93.4999400000001373
 21
321.9999999999957936
 31
-0.0000000000000715
210
0.0
220
1.0
230
-0.0000000000000002
  0
LINE
  5
1D38
  8
0
  6
CONTINUOUS
 62
     3
 10
85.0000599999998343
 20
320.4999999999959073
 30
-0.0000000000000712
 11
94.9999400000001515
 21
320.4999999999959073
 31
-0.0000000000000712
210
0.0
220
1.0
230
-0.0000000000000002
  0
LINE
  5
1D39
  8
0
  6
CONTINUOUS
 62
     3
 10
86.5000599999998485
 20
318.9999999999951115
 30
-0.0000000000000708
 11
93.4999400000001373
 21
318.9999999999951115
 31
-0.0000000000000708
210
0.0
220
1.0
230
-0.0000000000000002
  0
LINE
  5
1D3A
  8
0
  6
CONTINUOUS
 62
     3
 10
85.0000599999998343
 20
317.4999999999952252
 30
-0.0000000000000705
 11
94.9999400000001515
 21
317.4999999999952252
 31
-0.0000000000000705
210
0.0
220
1.0
230
-0.0000000000000002
  0
LINE
  5
1D3B
  8
0
  6
CONTINUOUS
 62
     3
 10
86.5000599999998485
 20
315.9999999999944862
 30
-0.0000000000000702
 11
93.4999400000001373
 21
315.9999999999944862
 31
-0.0000000000000702
210
0.0
220
1.0
230
-0.0000000000000002
  0
LINE
  5
1D3C
  8
0
  6
CONTINUOUS
 62
     3
 10
93.4999400000001231
 20
339.9999999999998863
 30
-0.0000000000000755
 11
94.9999400000001231
 21
338.4999999999994884
 31
-0.0000000000000752
210
0.0
220
1.0
230
-0.0000000000000002
  0
LINE
  5
1D3D
  8
0
  6
CONTINUOUS
 62
     3
 10
86.5000599999998769
 20
339.9999999999998863
 30
-0.0000000000000755
 11
85.0000599999998769
 21
338.4999999999994884
 31
-0.0000000000000752
210
0.0
220
1.0
230
-0.0000000000000002
  0
LINE
  5
1D3E
  8
0
  6
CONTINUOUS
 62
     3
 10
86.5000599999998769
 20
336.9999999999993179
 30
-0.0000000000000748
 11
85.0000599999998769
 21
338.4999999999997158
 31
-0.0000000000000752
210
0.0
220
1.0
230
-0.0000000000000002
  0
LINE
  5
1D3F
  8
0
  6
CONTINUOUS
 62
     3
 10
93.4999400000001231
 20
336.9999999999993179
 30
-0.0000000000000748
 11
94.9999400000001231
 21
338.4999999999997158
 31
-0.0000000000000752
210
0.0
220
1.0
230
-0.0000000000000002
  0
LINE
  5
1D40
  8
0
  6
CONTINUOUS
 62
     3
 10
93.4999400000001373
 20
336.9999999999993179
 30
-0.0000000000000748
 11
94.9999400000001515
 21
335.4999999999993179
 31
-0.0000000000000745
210
0.0
220
1.0
230
-0.0000000000000002
  0
LINE
  5
1D41
  8
0
  6
CONTINUOUS
 62
     3
 10
86.5000599999998485
 20
336.9999999999993179
 30
-0.0000000000000748
 11
85.0000599999998343
 21
335.4999999999993179
 31
-0.0000000000000745
210
0.0
220
1.0
230
-0.0000000000000002
  0
LINE
  5
1D42
  8
0
  6
CONTINUOUS
 62
     3
 10
86.5000599999998485
 20
333.9999999999985789
 30
-0.0000000000000742
 11
85.0000599999998343
 21
335.4999999999993179
 31
-0.0000000000000745
210
0.0
220
1.0
230
-0.0000000000000002
  0
LINE
  5
1D43
  8
0
  6
CONTINUOUS
 62
     3
 10
93.4999400000001373
 20
333.9999999999985789
 30
-0.0000000000000742
 11
94.9999400000001515
 21
335.4999999999993179
 31
-0.0000000000000745
210
0.0
220
1.0
230
-0.0000000000000002
  0
LINE
  5
1D44
  8
0
  6
CONTINUOUS
 62
     3
 10
93.4999400000001373
 20
333.9999999999985789
 30
-0.0000000000000742
 11
94.9999400000001515
 21
332.4999999999985789
 31
-0.0000000000000738
210
0.0
220
1.0
230
-0.0000000000000002
  0
LINE
  5
1D45
  8
0
  6
CONTINUOUS
 62
     3
 10
86.5000599999998485
 20
333.9999999999985789
 30
-0.0000000000000742
 11
85.0000599999998343
 21
332.4999999999985789
 31
-0.0000000000000738
210
0.0
220
1.0
230
-0.0000000000000002
  0
LINE
  5
1D46
  8
0
  6
CONTINUOUS
 62
     3
 10
86.5000599999998485
 20
330.9999999999978968
 30
-0.0000000000000735
 11
85.0000599999998343
 21
332.4999999999985789
 31
-0.0000000000000738
210
0.0
220
1.0
230
-0.0000000000000002
  0
LINE
  5
1D47
  8
0
  6
CONTINUOUS
 62
     3
 10
93.4999400000001373
 20
330.9999999999978968
 30
-0.0000000000000735
 11
94.9999400000001515
 21
332.4999999999985789
 31
-0.0000000000000738
210
0.0
220
1.0
230
-0.0000000000000002
  0
LINE
  5
1D48
  8
0
  6
CONTINUOUS
 62
     3
 10
93.4999400000001231
 20
330.9999999999978968
 30
-0.0000000000000735
 11
94.9999400000005636
 21
329.4999999999974989
 31
-0.0000000000000732
210
0.0
220
1.0
230
-0.0000000000000002
  0
LINE
  5
1D49
  8
0
  6
CONTINUOUS
 62
     3
 10
86.5000599999998769
 20
330.9999999999978968
 30
-0.0000000000000735
 11
85.0000599999994222
 21
329.4999999999974989
 31
-0.0000000000000732
210
0.0
220
1.0
230
-0.0000000000000002
  0
LINE
  5
1D4A
  8
0
  6
CONTINUOUS
 62
     3
 10
86.5000599999998769
 20
327.9999999999972147
 30
-0.0000000000000728
 11
85.0000599999994222
 21
329.4999999999974989
 31
-0.0000000000000732
210
0.0
220
1.0
230
-0.0000000000000002
  0
LINE
  5
1D4B
  8
0
  6
CONTINUOUS
 62
     3
 10
93.4999400000001231
 20
327.9999999999972147
 30
-0.0000000000000728
 11
94.9999400000005636
 21
329.4999999999974989
 31
-0.0000000000000732
210
0.0
220
1.0
230
-0.0000000000000002
  0
LINE
  5
1D4C
  8
0
  6
CONTINUOUS
 62
     3
 10
93.4999400000001231
 20
327.9999999999972147
 30
-0.0000000000000728
 11
94.9999400000005636
 21
326.4999999999968736
 31
-0.0000000000000725
210
0.0
220
1.0
230
-0.0000000000000002
  0
LINE
  5
1D4D
  8
0
  6
CONTINUOUS
 62
     3
 10
86.5000599999998769
 20
327.9999999999972147
 30
-0.0000000000000728
 11
85.0000599999994222
 21
326.4999999999968736
 31
-0.0000000000000725
210
0.0
220
1.0
230
-0.0000000000000002
  0
LINE
  5
1D4E
  8
0
  6
CONTINUOUS
 62
     3
 10
86.5000599999998769
 20
324.9999999999964757
 30
-0.0000000000000722
 11
85.0000599999994222
 21
326.4999999999968736
 31
-0.0000000000000725
210
0.0
220
1.0
230
-0.0000000000000002
  0
LINE
  5
1D4F
  8
0
  6
CONTINUOUS
 62
     3
 10
93.4999400000001231
 20
324.9999999999964757
 30
-0.0000000000000722
 11
94.9999400000005636
 21
326.4999999999968736
 31
-0.0000000000000725
210
0.0
220
1.0
230
-0.0000000000000002
  0
LINE
  5
1D50
  8
0
  6
CONTINUOUS
 62
     3
 10
93.4999400000001231
 20
324.9999999999964757
 30
-0.0000000000000722
 11
94.9999400000005636
 21
323.4999999999961915
 31
-0.0000000000000718
210
0.0
220
1.0
230
-0.0000000000000002
  0
LINE
  5
1D51
  8
0
  6
CONTINUOUS
 62
     3
 10
86.5000599999998769
 20
324.9999999999964757
 30
-0.0000000000000722
 11
85.0000599999994222
 21
323.4999999999961915
 31
-0.0000000000000718
210
0.0
220
1.0
230
-0.0000000000000002
  0
LINE
  5
1D52
  8
0
  6
CONTINUOUS
 62
     3
 10
86.5000599999998769
 20
321.9999999999957936
 30
-0.0000000000000715
 11
85.0000599999994222
 21
323.4999999999961915
 31
-0.0000000000000718
210
0.0
220
1.0
230
-0.0000000000000002
  0
LINE
  5
1D53
  8
0
  6
CONTINUOUS
 62
     3
 10
93.4999400000001231
 20
321.9999999999957936
 30
-0.0000000000000715
 11
94.9999400000005636
 21
323.4999999999961915
 31
-0.0000000000000718
210
0.0
220
1.0
230
-0.0000000000000002
  0
LINE
  5
1D54
  8
0
  6
CONTINUOUS
 62
     3
 10
93.4999400000001373
 20
321.9999999999957936
 30
-0.0000000000000715
 11
94.9999400000001515
 21
320.4999999999959073
 31
-0.0000000000000712
210
0.0
220
1.0
230
-0.0000000000000002
  0
LINE
  5
1D55
  8
0
  6
CONTINUOUS
 62
     3
 10
86.5000599999998485
 20
321.9999999999957936
 30
-0.0000000000000715
 11
85.0000599999998343
 21
320.4999999999959073
 31
-0.0000000000000712
210
0.0
220
1.0
230
-0.0000000000000002
  0
LINE
  5
1D56
  8
0
  6
CONTINUOUS
 62
     3
 10
86.5000599999998485
 20
318.9999999999951115
 30
-0.0000000000000708
 11
85.0000599999998343
 21
320.4999999999959073
 31
-0.0000000000000712
210
0.0
220
1.0
230
-0.0000000000000002
  0
LINE
  5
1D57
  8
0
  6
CONTINUOUS
 62
     3
 10
93.4999400000001373
 20
318.9999999999951115
 30
-0.0000000000000708
 11
94.9999400000001515
 21
320.4999999999959073
 31
-0.0000000000000712
210
0.0
220
1.0
230
-0.0000000000000002
  0
LINE
  5
1D58
  8
0
  6
CONTINUOUS
 62
     3
 10
93.4999400000001373
 20
318.9999999999951115
 30
-0.0000000000000708
 11
94.9999400000001515
 21
317.4999999999952252
 31
-0.0000000000000705
210
0.0
220
1.0
230
-0.0000000000000002
  0
LINE
  5
1D59
  8
0
  6
CONTINUOUS
 62
     3
 10
86.5000599999998485
 20
318.9999999999951115
 30
-0.0000000000000708
 11
85.0000599999998343
 21
317.4999999999952252
 31
-0.0000000000000705
210
0.0
220
1.0
230
-0.0000000000000002
  0
LINE
  5
1D5A
  8
0
  6
CONTINUOUS
 62
     3
 10
86.5000599999998485
 20
315.9999999999944862
 30
-0.0000000000000702
 11
85.0000599999998343
 21
317.4999999999952252
 31
-0.0000000000000705
210
0.0
220
1.0
230
-0.0000000000000002
  0
LINE
  5
1D5B
  8
0
  6
CONTINUOUS
 62
     3
 10
93.4999400000001373
 20
315.9999999999944862
 30
-0.0000000000000702
 11
94.9999400000001515
 21
317.4999999999952252
 31
-0.0000000000000705
210
0.0
220
1.0
230
-0.0000000000000002
  0
LINE
  5
1D5C
  8
0
  6
CONTINUOUS
 62
     3
 10
93.4999400000001373
 20
315.9999999999944862
 30
-0.0000000000000702
 11
94.9999400000001515
 21
314.9999999999998863
 31
-0.0000000000000699
210
0.0
220
1.0
230
-0.0000000000000002
  0
LINE
  5
1D5D
  8
0
  6
CONTINUOUS
 62
     3
 10
86.5000599999998485
 20
315.9999999999944862
 30
-0.0000000000000702
 11
85.0000599999998343
 21
314.9999999999998863
 31
-0.0000000000000699
210
0.0
220
1.0
230
-0.0000000000000002
  0
LINE
  5
1D5E
  8
0
  6
CONTINUOUS
 62
     3
 10
-94.9999400000001515
 20
338.4999999999993747
 30
-0.0000000000000752
 11
-85.0000599999998343
 21
338.4999999999993747
 31
-0.0000000000000752
210
0.0
220
1.0
230
-0.0000000000000002
  0
LINE
  5
1D5F
  8
0
  6
CONTINUOUS
 62
     3
 10
-93.4999400000001373
 20
339.9999999999997158
 30
-0.0000000000000755
 11
-86.5000599999998485
 21
339.9999999999997158
 31
-0.0000000000000755
210
0.0
220
1.0
230
-0.0000000000000002
  0
LINE
  5
1D60
  8
0
  6
CONTINUOUS
 62
     3
 10
-93.4999400000001373
 20
336.9999999999989768
 30
-0.0000000000000748
 11
-86.5000599999998485
 21
336.9999999999989768
 31
-0.0000000000000748
210
0.0
220
1.0
230
-0.0000000000000002
  0
LINE
  5
1D61
  8
0
  6
CONTINUOUS
 62
     3
 10
-94.9999400000001515
 20
335.4999999999989768
 30
-0.0000000000000745
 11
-85.0000599999998343
 21
335.4999999999989768
 31
-0.0000000000000745
210
0.0
220
1.0
230
-0.0000000000000002
  0
LINE
  5
1D62
  8
0
  6
CONTINUOUS
 62
     3
 10
-93.4999400000001373
 20
333.9999999999982947
 30
-0.0000000000000742
 11
-86.5000599999998485
 21
333.9999999999982947
 31
-0.0000000000000742
210
0.0
220
1.0
230
-0.0000000000000002
  0
LINE
  5
1D63
  8
0
  6
CONTINUOUS
 62
     3
 10
-94.9999400000001515
 20
332.4999999999984084
 30
-0.0000000000000738
 11
-85.0000599999998343
 21
332.4999999999984084
 31
-0.0000000000000738
210
0.0
220
1.0
230
-0.0000000000000002
  0
LINE
  5
1D64
  8
0
  6
CONTINUOUS
 62
     3
 10
-93.4999400000001373
 20
330.9999999999977263
 30
-0.0000000000000735
 11
-86.5000599999998485
 21
330.9999999999977263
 31
-0.0000000000000735
210
0.0
220
1.0
230
-0.0000000000000002
  0
LINE
  5
1D65
  8
0
  6
CONTINUOUS
 62
     3
 10
-94.9999400000006062
 20
329.4999999999973284
 30
-0.0000000000000732
 11
-85.0000599999993938
 21
329.4999999999973284
 31
-0.0000000000000732
210
0.0
220
1.0
230
-0.0000000000000002
  0
LINE
  5
1D66
  8
0
  6
CONTINUOUS
 62
     3
 10
-93.4999400000001373
 20
327.9999999999969873
 30
-0.0000000000000728
 11
-86.5000599999998485
 21
327.9999999999969873
 31
-0.0000000000000728
210
0.0
220
1.0
230
-0.0000000000000002
  0
LINE
  5
1D67
  8
0
  6
CONTINUOUS
 62
     3
 10
-94.9999400000006062
 20
326.4999999999965894
 30
-0.0000000000000725
 11
-85.0000599999993938
 21
326.4999999999965894
 31
-0.0000000000000725
210
0.0
220
1.0
230
-0.0000000000000002
  0
LINE
  5
1D68
  8
0
  6
CONTINUOUS
 62
     3
 10
-93.4999400000001373
 20
324.9999999999963052
 30
-0.0000000000000722
 11
-86.5000599999998485
 21
324.9999999999963052
 31
-0.0000000000000722
210
0.0
220
1.0
230
-0.0000000000000002
  0
LINE
  5
1D69
  8
0
  6
CONTINUOUS
 62
     3
 10
-94.9999400000006062
 20
323.499999999996021
 30
-0.0000000000000718
 11
-85.0000599999993938
 21
323.499999999996021
 31
-0.0000000000000718
210
0.0
220
1.0
230
-0.0000000000000002
  0
LINE
  5
1D6A
  8
0
  6
CONTINUOUS
 62
     3
 10
-93.4999400000001373
 20
321.9999999999956231
 30
-0.0000000000000715
 11
-86.5000599999998485
 21
321.9999999999956231
 31
-0.0000000000000715
210
0.0
220
1.0
230
-0.0000000000000002
  0
LINE
  5
1D6B
  8
0
  6
CONTINUOUS
 62
     3
 10
-94.9999400000001515
 20
320.4999999999956231
 30
-0.0000000000000712
 11
-85.0000599999998343
 21
320.4999999999956231
 31
-0.0000000000000712
210
0.0
220
1.0
230
-0.0000000000000002
  0
LINE
  5
1D6C
  8
0
  6
CONTINUOUS
 62
     3
 10
-93.4999400000001373
 20
318.9999999999948841
 30
-0.0000000000000708
 11
-86.5000599999998485
 21
318.9999999999948841
 31
-0.0000000000000708
210
0.0
220
1.0
230
-0.0000000000000002
  0
LINE
  5
1D6D
  8
0
  6
CONTINUOUS
 62
     3
 10
-94.9999400000001515
 20
317.4999999999949978
 30
-0.0000000000000705
 11
-85.0000599999998343
 21
317.4999999999949978
 31
-0.0000000000000705
210
0.0
220
1.0
230
-0.0000000000000002
  0
LINE
  5
1D6E
  8
0
  6
CONTINUOUS
 62
     3
 10
-93.4999400000001373
 20
315.9999999999943157
 30
-0.0000000000000702
 11
-86.5000599999998485
 21
315.9999999999943157
 31
-0.0000000000000702
210
0.0
220
1.0
230
-0.0000000000000002
  0
LINE
  5
1D6F
  8
0
  6
CONTINUOUS
 62
     3
 10
-86.5000599999998769
 20
339.9999999999997158
 30
-0.0000000000000755
 11
-85.0000599999998769
 21
338.4999999999993179
 31
-0.0000000000000752
210
0.0
220
1.0
230
-0.0000000000000002
  0
LINE
  5
1D70
  8
0
  6
CONTINUOUS
 62
     3
 10
-93.4999400000001231
 20
339.9999999999997158
 30
-0.0000000000000755
 11
-94.9999400000001231
 21
338.4999999999993179
 31
-0.0000000000000752
210
0.0
220
1.0
230
-0.0000000000000002
  0
LINE
  5
1D71
  8
0
  6
CONTINUOUS
 62
     3
 10
-93.4999400000001231
 20
336.9999999999989768
 30
-0.0000000000000748
 11
-94.9999400000001231
 21
338.4999999999993747
 31
-0.0000000000000752
210
0.0
220
1.0
230
-0.0000000000000002
  0
LINE
  5
1D72
  8
0
  6
CONTINUOUS
 62
     3
 10
-86.5000599999998769
 20
336.9999999999989768
 30
-0.0000000000000748
 11
-85.0000599999998769
 21
338.4999999999993747
 31
-0.0000000000000752
210
0.0
220
1.0
230
-0.0000000000000002
  0
LINE
  5
1D73
  8
0
  6
CONTINUOUS
 62
     3
 10
-86.5000599999998485
 20
336.9999999999989768
 30
-0.0000000000000748
 11
-85.0000599999998343
 21
335.4999999999989768
 31
-0.0000000000000745
210
0.0
220
1.0
230
-0.0000000000000002
  0
LINE
  5
1D74
  8
0
  6
CONTINUOUS
 62
     3
 10
-93.4999400000001373
 20
336.9999999999989768
 30
-0.0000000000000748
 11
-94.9999400000001515
 21
335.4999999999989768
 31
-0.0000000000000745
210
0.0
220
1.0
230
-0.0000000000000002
  0
LINE
  5
1D75
  8
0
  6
CONTINUOUS
 62
     3
 10
-93.4999400000001373
 20
333.9999999999982947
 30
-0.0000000000000742
 11
-94.9999400000001515
 21
335.4999999999989768
 31
-0.0000000000000745
210
0.0
220
1.0
230
-0.0000000000000002
  0
LINE
  5
1D76
  8
0
  6
CONTINUOUS
 62
     3
 10
-86.5000599999998485
 20
333.9999999999982947
 30
-0.0000000000000742
 11
-85.0000599999998343
 21
335.4999999999989768
 31
-0.0000000000000745
210
0.0
220
1.0
230
-0.0000000000000002
  0
LINE
  5
1D77
  8
0
  6
CONTINUOUS
 62
     3
 10
-86.5000599999998485
 20
333.9999999999982947
 30
-0.0000000000000742
 11
-85.0000599999998343
 21
332.4999999999984084
 31
-0.0000000000000738
210
0.0
220
1.0
230
-0.0000000000000002
  0
LINE
  5
1D78
  8
0
  6
CONTINUOUS
 62
     3
 10
-93.4999400000001373
 20
333.9999999999982947
 30
-0.0000000000000742
 11
-94.9999400000001515
 21
332.4999999999984084
 31
-0.0000000000000738
210
0.0
220
1.0
230
-0.0000000000000002
  0
LINE
  5
1D79
  8
0
  6
CONTINUOUS
 62
     3
 10
-93.4999400000001373
 20
330.9999999999977263
 30
-0.0000000000000735
 11
-94.9999400000001515
 21
332.4999999999984084
 31
-0.0000000000000738
210
0.0
220
1.0
230
-0.0000000000000002
  0
LINE
  5
1D7A
  8
0
  6
CONTINUOUS
 62
     3
 10
-86.5000599999998485
 20
330.9999999999977263
 30
-0.0000000000000735
 11
-85.0000599999998343
 21
332.4999999999984084
 31
-0.0000000000000738
210
0.0
220
1.0
230
-0.0000000000000002
  0
LINE
  5
1D7B
  8
0
  6
CONTINUOUS
 62
     3
 10
-86.5000599999998769
 20
330.9999999999977263
 30
-0.0000000000000735
 11
-85.0000599999994222
 21
329.4999999999973284
 31
-0.0000000000000732
210
0.0
220
1.0
230
-0.0000000000000002
  0
LINE
  5
1D7C
  8
0
  6
CONTINUOUS
 62
     3
 10
-93.4999400000001231
 20
330.9999999999977263
 30
-0.0000000000000735
 11
-94.9999400000005636
 21
329.4999999999973284
 31
-0.0000000000000732
210
0.0
220
1.0
230
-0.0000000000000002
  0
LINE
  5
1D7D
  8
0
  6
CONTINUOUS
 62
     3
 10
-93.4999400000001231
 20
327.9999999999969873
 30
-0.0000000000000728
 11
-94.9999400000005636
 21
329.4999999999973284
 31
-0.0000000000000732
210
0.0
220
1.0
230
-0.0000000000000002
  0
LINE
  5
1D7E
  8
0
  6
CONTINUOUS
 62
     3
 10
-86.5000599999998769
 20
327.9999999999969873
 30
-0.0000000000000728
 11
-85.0000599999994222
 21
329.4999999999973284
 31
-0.0000000000000732
210
0.0
220
1.0
230
-0.0000000000000002
  0
LINE
  5
1D7F
  8
0
  6
CONTINUOUS
 62
     3
 10
-86.5000599999998769
 20
327.9999999999969873
 30
-0.0000000000000728
 11
-85.0000599999994222
 21
326.4999999999965894
 31
-0.0000000000000725
210
0.0
220
1.0
230
-0.0000000000000002
  0
LINE
  5
1D80
  8
0
  6
CONTINUOUS
 62
     3
 10
-93.4999400000001231
 20
327.9999999999969873
 30
-0.0000000000000728
 11
-94.9999400000005636
 21
326.4999999999965894
 31
-0.0000000000000725
210
0.0
220
1.0
230
-0.0000000000000002
  0
LINE
  5
1D81
  8
0
  6
CONTINUOUS
 62
     3
 10
-93.4999400000001231
 20
324.9999999999963052
 30
-0.0000000000000722
 11
-94.9999400000005636
 21
326.4999999999965894
 31
-0.0000000000000725
210
0.0
220
1.0
230
-0.0000000000000002
  0
LINE
  5
1D82
  8
0
  6
CONTINUOUS
 62
     3
 10
-86.5000599999998769
 20
324.9999999999963052
 30
-0.0000000000000722
 11
-85.0000599999994222
 21
326.4999999999965894
 31
-0.0000000000000725
210
0.0
220
1.0
230
-0.0000000000000002
  0
LINE
  5
1D83
  8
0
  6
CONTINUOUS
 62
     3
 10
-86.5000599999998769
 20
324.9999999999963052
 30
-0.0000000000000722
 11
-85.0000599999994222
 21
323.499999999996021
 31
-0.0000000000000718
210
0.0
220
1.0
230
-0.0000000000000002
  0
LINE
  5
1D84
  8
0
  6
CONTINUOUS
 62
     3
 10
-93.4999400000001231
 20
324.9999999999963052
 30
-0.0000000000000722
 11
-94.9999400000005636
 21
323.499999999996021
 31
-0.0000000000000718
210
0.0
220
1.0
230
-0.0000000000000002
  0
LINE
  5
1D85
  8
0
  6
CONTINUOUS
 62
     3
 10
-93.4999400000001231
 20
321.9999999999956231
 30
-0.0000000000000715
 11
-94.9999400000005636
 21
323.499999999996021
 31
-0.0000000000000718
210
0.0
220
1.0
230
-0.0000000000000002
  0
LINE
  5
1D86
  8
0
  6
CONTINUOUS
 62
     3
 10
-86.5000599999998769
 20
321.9999999999956231
 30
-0.0000000000000715
 11
-85.0000599999994222
 21
323.499999999996021
 31
-0.0000000000000718
210
0.0
220
1.0
230
-0.0000000000000002
  0
LINE
  5
1D87
  8
0
  6
CONTINUOUS
 62
     3
 10
-86.5000599999998485
 20
321.9999999999956231
 30
-0.0000000000000715
 11
-85.0000599999998343
 21
320.4999999999956231
 31
-0.0000000000000712
210
0.0
220
1.0
230
-0.0000000000000002
  0
LINE
  5
1D88
  8
0
  6
CONTINUOUS
 62
     3
 10
-93.4999400000001373
 20
321.9999999999956231
 30
-0.0000000000000715
 11
-94.9999400000001515
 21
320.4999999999956231
 31
-0.0000000000000712
210
0.0
220
1.0
230
-0.0000000000000002
  0
LINE
  5
1D89
  8
0
  6
CONTINUOUS
 62
     3
 10
-93.4999400000001373
 20
318.9999999999948841
 30
-0.0000000000000708
 11
-94.9999400000001515
 21
320.4999999999956231
 31
-0.0000000000000712
210
0.0
220
1.0
230
-0.0000000000000002
  0
LINE
  5
1D8A
  8
0
  6
CONTINUOUS
 62
     3
 10
-86.5000599999998485
 20
318.9999999999948841
 30
-0.0000000000000708
 11
-85.0000599999998343
 21
320.4999999999956231
 31
-0.0000000000000712
210
0.0
220
1.0
230
-0.0000000000000002
  0
LINE
  5
1D8B
  8
0
  6
CONTINUOUS
 62
     3
 10
-86.5000599999998485
 20
318.9999999999948841
 30
-0.0000000000000708
 11
-85.0000599999998343
 21
317.4999999999949978
 31
-0.0000000000000705
210
0.0
220
1.0
230
-0.0000000000000002
  0
LINE
  5
1D8C
  8
0
  6
CONTINUOUS
 62
     3
 10
-93.4999400000001373
 20
318.9999999999948841
 30
-0.0000000000000708
 11
-94.9999400000001515
 21
317.4999999999949978
 31
-0.0000000000000705
210
0.0
220
1.0
230
-0.0000000000000002
  0
LINE
  5
1D8D
  8
0
  6
CONTINUOUS
 62
     3
 10
-93.4999400000001373
 20
315.9999999999943157
 30
-0.0000000000000702
 11
-94.9999400000001515
 21
317.4999999999949978
 31
-0.0000000000000705
210
0.0
220
1.0
230
-0.0000000000000002
  0
LINE
  5
1D8E
  8
0
  6
CONTINUOUS
 62
     3
 10
-86.5000599999998485
 20
315.9999999999943157
 30
-0.0000000000000702
 11
-85.0000599999998343
 21
317.4999999999949978
 31
-0.0000000000000705
210
0.0
220
1.0
230
-0.0000000000000002
  0
LINE
  5
1D8F
  8
0
  6
CONTINUOUS
 62
     3
 10
-86.5000599999998485
 20
315.9999999999943157
 30
-0.0000000000000702
 11
-85.0000599999998343
 21
314.9999999999997158
 31
-0.0000000000000699
210
0.0
220
1.0
230
-0.0000000000000002
  0
LINE
  5
1D90
  8
0
  6
CONTINUOUS
 62
     3
 10
-93.4999400000001373
 20
315.9999999999943157
 30
-0.0000000000000702
 11
-94.9999400000001515
 21
314.9999999999997158
 31
-0.0000000000000699
210
0.0
220
1.0
230
-0.0000000000000002
  0
LINE
  5
1D91
  8
0
  6
CONTINUOUS
 62
     3
 10
39.2594616805550913
 20
317.9999999999997726
 30
-0.0000000000000706
 11
-39.2594616805546295
 21
317.9999999999997726
 31
-0.0000000000000706
210
0.0
220
1.0
230
-0.0000000000000002
  0
LINE
  5
1D92
  8
0
  6
CONTINUOUS
 62
     3
 10
-35.8875793553182802
 20
-0.0000000000002842
 30
0.0
 11
35.8875793553187279
 21
-0.0000000000002842
 31
0.0
210
0.0
220
1.0
230
-0.0000000000000002
  0
LINE
  5
1D93
  8
0
  6
CONTINUOUS
 62
     3
 10
39.2594616805550984
 20
317.9999999999997726
 30
-0.0000000000000706
 11
39.5670638972127406
 21
317.3403449176134927
 31
-0.0000000000000705
210
0.0
220
1.0
230
-0.0000000000000002
  0
LINE
  5
1D94
  8
0
  6
CONTINUOUS
 62
     3
 10
-39.2594616805546721
 20
317.9999999999997158
 30
-0.0000000000000706
 11
-39.567063897212293
 21
317.3403449176134927
 31
-0.0000000000000705
210
0.0
220
1.0
230
-0.0000000000000002
  0
ARC
  5
1D95
  8
0
  6
CONTINUOUS
 62
     3
 10
-17.0000000000242792
 20
306.8171502002753073
 30
0.0
 40
24.8999999999759716
210
0.0
220
-0.0000000000000002
230
-1.0
 50
154.9999999999872102
 51
160.1338936654753979
  0
ARC
  5
1D96
  8
0
  6
CONTINUOUS
 62
     3
 10
17.0000000000318714
 20
306.8171502002784905
 30
0.0
 40
24.8999999999672816
210
0.0
220
-0.0000000000000002
230
-1.0
 50
19.8661063345210884
 51
25.0000000000137597
  0
ARC
  5
1D97
  8
0
  6
CONTINUOUS
 62
     3
 10
27.3000000000151886
 20
7.4016806747579968
 30
0.0
 40
9.1999999999845841
210
0.0
220
-0.0000000000000002
230
-1.0
 50
354.9999999999949978
 51
0.0000000000034464
  0
ARC
  5
1D98
  8
0
  6
CONTINUOUS
 62
     3
 10
-27.3000000000156504
 20
7.401680674757996
 30
0.0
 40
9.1999999999845734
210
0.0
220
-0.0000000000000002
230
-1.0
 50
179.9999999999965041
 51
185.0000000000048885
  0
LINE
  5
1D99
  8
0
  6
CONTINUOUS
 62
     3
 10
-35.8875793553182234
 20
-0.0000000000002789
 30
0.0
 11
-36.4649912224437571
 21
6.5998478414801003
 31
-0.0000000000000015
210
0.0
220
1.0
230
-0.0000000000000002
  0
LINE
  5
1D9A
  8
0
  6
CONTINUOUS
 62
     3
 10
35.8875793553186782
 20
-0.0000000000002789
 30
0.0
 11
36.4649912224442119
 21
6.5998478414801003
 31
-0.0000000000000015
210
0.0
220
1.0
230
-0.0000000000000002
  0
LINE
  5
1D9B
  8
0
  6
CONTINUOUS
 62
     3
 10
36.5000000000002274
 20
97.9598727973916823
 30
-0.0000000000000218
 11
36.5000000000002274
 21
7.4016806747585528
 31
-0.0000000000000016
210
0.0
220
1.0
230
-0.0000000000000002
  0
LINE
  5
1D9C
  8
0
  6
CONTINUOUS
 62
     3
 10
-36.4999999999997726
 20
97.9598727973916823
 30
-0.0000000000000218
 11
-36.4999999999997726
 21
7.4016806747585528
 31
-0.0000000000000016
210
0.0
220
1.0
230
-0.0000000000000002
  0
LINE
  5
1D9D
  8
0
  6
CONTINUOUS
 62
     3
 10
-51.0
 20
97.9598727973916823
 30
-0.0000000000000218
 11
51.0
 21
97.9598727973916823
 31
-0.0000000000000218
210
0.0
220
1.0
230
-0.0000000000000002
  0
LINE
  5
1D9E
  8
0
  6
CONTINUOUS
 62
     3
 10
51.0
 20
99.9598727973916823
 30
-0.0000000000000222
 11
51.0
 21
97.9598727973916823
 31
-0.0000000000000218
210
0.0
220
1.0
230
-0.0000000000000002
  0
LINE
  5
1D9F
  8
0
  6
CONTINUOUS
 62
     3
 10
-51.0
 20
99.9598727973916823
 30
-0.0000000000000222
 11
-51.0
 21
97.9598727973916823
 31
-0.0000000000000218
210
0.0
220
1.0
230
-0.0000000000000002
  0
LINE
  5
1DA0
  8
0
  6
CONTINUOUS
 62
     3
 10
-116.2360389693211005
 20
315.0000000000002274
 30
-0.0000000000000699
 11
116.2360389693209015
 21
315.0000000000002274
 31
-0.0000000000000699
210
0.0
220
1.0
230
-0.0000000000000002
  0
LINE
  5
1DA1
  8
0
  6
CONTINUOUS
 62
     3
 10
-122.5
 20
311.0142135623732997
 30
-0.0000000000000691
 11
122.4999999999999005
 21
311.0142135623732997
 31
-0.0000000000000691
210
0.0
220
1.0
230
-0.0000000000000002
  0
LINE
  5
1DA2
  8
0
  6
CONTINUOUS
 62
     3
 10
-121.085786437626993
 20
309.6000000000001933
 30
-0.0000000000000687
 11
121.0857864376266946
 21
309.6000000000001933
 31
-0.0000000000000687
210
0.0
220
1.0
230
-0.0000000000000002
  0
ARC
  5
1DA3
  8
0
  6
CONTINUOUS
 62
     3
 10
116.2360389693211999
 20
309.5000000000003979
 30
0.0
 40
5.4999999999997726
210
0.0
220
-0.0000000000000002
230
-1.0
 50
44.9999999999994884
 51
90.0000000000011937
  0
ARC
  5
1DA4
  8
0
  6
CONTINUOUS
 62
     3
 10
-116.2360389693211005
 20
309.5000000000003979
 30
0.0
 40
5.4999999999997717
210
0.0
220
-0.0000000000000002
230
-1.0
 50
89.9999999999988347
 51
135.0000000000005116
  0
LINE
  5
1DA5
  8
0
  6
CONTINUOUS
 62
     3
 10
120.1251262658469017
 20
313.3890872965260996
 30
-0.0000000000000696
 11
122.499999999999801
 21
311.0142135623731861
 31
-0.0000000000000691
210
0.0
220
1.0
230
-0.0000000000000002
  0
LINE
  5
1DA6
  8
0
  6
CONTINUOUS
 62
     3
 10
-120.1251262658471006
 20
313.3890872965260996
 30
-0.0000000000000696
 11
-122.4999999999999005
 21
311.0142135623731861
 31
-0.0000000000000691
210
0.0
220
1.0
230
-0.0000000000000002
  0
LINE
  5
1DA7
  8
0
  6
CONTINUOUS
 62
     3
 10
-121.0857864376268935
 20
309.6000000000001933
 30
-0.0000000000000687
 11
-122.5
 21
311.0142135623732997
 31
-0.0000000000000691
210
0.0
220
1.0
230
-0.0000000000000002
  0
LINE
  5
1DA8
  8
0
  6
CONTINUOUS
 62
     3
 10
121.0857864376267941
 20
309.6000000000001933
 30
-0.0000000000000687
 11
122.499999999999801
 21
311.0142135623732997
 31
-0.0000000000000691
210
0.0
220
1.0
230
-0.0000000000000002
  0
LINE
  5
1DA9
  8
0
  6
CONTINUOUS
 62
     3
 10
-49.6860621314169322
 20
306.582221158823188
 30
-0.0000000000000681
 11
-52.5854067173165731
 21
309.6000000000001933
 31
-0.0000000000000687
210
0.0
220
1.0
230
-0.0000000000000002
  0
LINE
  5
1DAA
  8
0
  6
CONTINUOUS
 62
     3
 10
49.6860621314168327
 20
306.582221158823188
 30
-0.0000000000000681
 11
52.5854067173164594
 21
309.6000000000001933
 31
-0.0000000000000687
210
0.0
220
1.0
230
-0.0000000000000002
  0
LINE
  5
1DAB
  8
0
  6
CONTINUOUS
 62
     3
 10
51.4999999999999929
 20
99.959872797391526
 30
-0.0000000000000222
 11
-51.4999999999999929
 21
99.959872797391526
 31
-0.0000000000000222
210
0.0
220
1.0
230
-0.0000000000000002
  0
LINE
  5
1DAC
  8
0
  6
CONTINUOUS
 62
     3
 10
51.4999999999999929
 20
306.582221158823188
 30
-0.0000000000000681
 11
-51.4999999999999929
 21
306.582221158823188
 31
-0.0000000000000681
210
0.0
220
1.0
230
-0.0000000000000002
  0
LINE
  5
1DAD
  8
0
  6
CONTINUOUS
 62
     3
 10
-51.5
 20
99.959872797391526
 30
-0.0000000000000222
 11
-51.5
 21
306.582221158823188
 31
-0.0000000000000681
210
0.0
220
1.0
230
-0.0000000000000002
  0
LINE
  5
1DAE
  8
0
  6
CONTINUOUS
 62
     3
 10
51.5
 20
99.9598727973915402
 30
-0.0000000000000222
 11
51.5
 21
306.582221158823188
 31
-0.0000000000000681
210
0.0
220
1.0
230
-0.0000000000000002
  0
LINE
  5
1DAF
  8
0
  6
VERDECKT
 62
     1
 10
37.9000000000001975
 20
317.3660726073886167
 30
-0.0000000000000705
 11
-37.8999999999997499
 21
317.3660726073886167
 31
-0.0000000000000705
210
0.0
220
1.0
230
-0.0000000000000002
  0
LINE
  5
1DB0
  8
0
  6
VERDECKT
 62
     1
 10
-34.3932873081806818
 20
0.1307336141211977
 30
0.0
 11
34.3932873081811294
 21
0.1307336141211977
 31
0.0
210
0.0
220
1.0
230
-0.0000000000000002
  0
LINE
  5
1DB1
  8
0
  6
VERDECKT
 62
     1
 10
-40.3999999999991815
 20
302.6392734874035
 30
-0.0000000000000672
 11
-40.3999999999991815
 21
306.8171502002697935
 31
-0.0000000000000681
210
0.0
220
1.0
230
-0.0000000000000002
  0
LINE
  5
1DB2
  8
0
  6
VERDECKT
 62
     1
 10
40.3999999999996291
 20
302.6392734874035
 30
-0.0000000000000672
 11
40.3999999999996291
 21
306.8171502002697935
 31
-0.0000000000000681
210
0.0
220
1.0
230
-0.0000000000000002
  0
ARC
  5
1DB3
  8
0
  6
VERDECKT
 62
     1
 10
-17.0000000000210107
 20
306.8171502002776947
 30
0.0
 40
23.3999999999779185
210
0.0
220
-0.0000000000000002
230
-1.0
 50
154.9999999999955946
 51
180.000000000019412
  0
ARC
  5
1DB4
  8
0
  6
VERDECKT
 62
     1
 10
17.0000000000205489
 20
306.8171502002776947
 30
0.0
 40
23.3999999999779504
210
0.0
220
-0.0000000000000002
230
-1.0
 50
359.9999999999805027
 51
25.0000000000043485
  0
LINE
  5
1DB5
  8
0
  6
VERDECKT
 62
     1
 10
37.9000000000001975
 20
317.3660726073886167
 30
-0.0000000000000705
 11
38.2076022166578468
 21
316.7064175250022799
 31
-0.0000000000000703
210
0.0
220
1.0
230
-0.0000000000000002
  0
LINE
  5
1DB6
  8
0
  6
VERDECKT
 62
     1
 10
-37.8999999999997499
 20
317.3660726073886167
 30
-0.0000000000000705
 11
-38.2076022166573921
 21
316.7064175250022799
 31
-0.0000000000000703
210
0.0
220
1.0
230
-0.0000000000000002
  0
LINE
  5
1DB7
  8
0
  6
VERDECKT
 62
     1
 10
-37.8999999999997428
 20
317.3660726073886735
 30
-0.0000000000000705
 11
-39.2594616805546082
 21
317.9999999999997726
 31
-0.0000000000000706
210
0.0
220
1.0
230
-0.0000000000000002
  0
LINE
  5
1DB8
  8
0
  6
VERDECKT
 62
     1
 10
37.9000000000001904
 20
317.3660726073886735
 30
-0.0000000000000705
 11
39.2594616805550913
 21
317.9999999999997726
 31
-0.0000000000000706
210
0.0
220
1.0
230
-0.0000000000000002
  0
ARC
  5
1DB9
  8
0
  6
VERDECKT
 62
     1
 10
-17.0000000000226201
 20
306.817150200274682
 30
0.0
 40
24.8999999999777017
210
0.0
220
-0.0000000000000002
230
-1.0
 50
160.1338936654755969
 51
180.0000000000113971
  0
ARC
  5
1DBA
  8
0
  6
VERDECKT
 62
     1
 10
17.0000000000222187
 20
306.817150200274682
 30
0.0
 40
24.8999999999776485
210
0.0
220
-0.0000000000000002
230
-1.0
 50
359.9999999999885176
 51
19.8661063345217812
  0
LINE
  5
1DBB
  8
0
  6
VERDECKT
 62
     1
 10
-41.8999999999998565
 20
302.6392734874035
 30
-0.0000000000000672
 11
-41.8999999999998565
 21
306.8171502002697935
 31
-0.0000000000000681
210
0.0
220
1.0
230
-0.0000000000000002
  0
LINE
  5
1DBC
  8
0
  6
VERDECKT
 62
     1
 10
41.9000000000003183
 20
302.6392734874035
 30
-0.0000000000000672
 11
41.9000000000003183
 21
306.8171502002697935
 31
-0.0000000000000681
210
0.0
220
1.0
230
-0.0000000000000002
  0
ARC
  5
1DBD
  8
0
  6
VERDECKT
 62
     1
 10
-16.2705343039153085
 20
302.6392734874042958
 30
0.0
 40
25.629465696084889
210
0.0
220
-0.0000000000000002
230
-1.0
 50
180.0000000000017053
 51
190.348956049596012
  0
ARC
  5
1DBE
  8
0
  6
VERDECKT
 62
     1
 10
16.2705343039148609
 20
302.6392734874042958
 30
0.0
 40
25.629465696084889
210
0.0
220
-0.0000000000000002
230
-1.0
 50
349.6510439504039027
 51
359.999999999998181
  0
ARC
  5
1DBF
  8
0
  6
VERDECKT
 62
     1
 10
-17.6632712343795006
 20
302.3849407818975124
 30
0.0
 40
24.2136969004938614
210
0.0
220
-0.0000000000000002
230
-1.0
 50
190.3489560495995931
 51
201.1668520397921043
  0
ARC
  5
1DC0
  8
0
  6
VERDECKT
 62
     1
 10
17.6632712343770599
 20
302.3849407818980808
 30
0.0
 40
24.213696900495929
210
0.0
220
-0.0000000000000002
230
-1.0
 50
338.8331479602080094
 51
349.6510439503996963
  0
ARC
  5
1DC1
  8
0
  6
VERDECKT
 62
     1
 10
-51.9000000000037005
 20
289.1281710573131249
 30
0.0
 40
12.5000000000033697
210
0.0
220
-0.0000000000000002
230
-1.0
 50
0.0000000000023536
 51
21.1668520397814213
  0
ARC
  5
1DC2
  8
0
  6
VERDECKT
 62
     1
 10
51.90000000000299
 20
289.1281710573131249
 30
0.0
 40
12.5000000000031299
210
0.0
220
-0.0000000000000002
230
-1.0
 50
158.8331479602180991
 51
179.9999999999978968
  0
ARC
  5
1DC3
  8
0
  6
VERDECKT
 62
     1
 10
-51.9000000000013273
 20
289.1281710573131818
 30
0.0
 40
14.0000000000010107
210
0.0
220
-0.0000000000000002
230
-1.0
 50
0.0
 51
21.1668520397830413
  0
ARC
  5
1DC4
  8
0
  6
VERDECKT
 62
     1
 10
51.9000000000007304
 20
289.1281710573132955
 30
0.0
 40
14.0000000000008704
210
0.0
220
-0.0000000000000002
230
-1.0
 50
158.8331479602155127
 51
179.9999999999990905
  0
ARC
  5
1DC5
  8
0
  6
VERDECKT
 62
     1
 10
-17.6632712343681
 20
302.3849407819002977
 30
0.0
 40
22.7136969005055391
210
0.0
220
-0.0000000000000002
230
-1.0
 50
190.34895604960181
 51
201.1668520397890916
  0
ARC
  5
1DC6
  8
0
  6
VERDECKT
 62
     1
 10
17.6632712343691303
 20
302.3849407818997861
 30
0.0
 40
22.7136969005039902
210
0.0
220
-0.0000000000000002
230
-1.0
 50
338.8331479602106242
 51
349.6510439503986163
  0
ARC
  5
1DC7
  8
0
  6
VERDECKT
 62
     1
 10
-16.2705343039330685
 20
302.6392734874031021
 30
0.0
 40
24.1294656960671396
210
0.0
220
-0.0000000000000002
230
-1.0
 50
179.9999999999990052
 51
190.3489560496009005
  0
ARC
  5
1DC8
  8
0
  6
VERDECKT
 62
     1
 10
16.2705343039317505
 20
302.6392734874032158
 30
0.0
 40
24.1294656960680101
210
0.0
220
-0.0000000000000002
230
-1.0
 50
349.6510439503991847
 51
0.0000000000006475
  0
ARC
  5
1DC9
  8
0
  6
VERDECKT
 62
     1
 10
-27.4999999999995914
 20
203.8515060100289134
 30
0.0
 40
11.9000000000006096
210
0.0
220
-0.0000000000000002
230
-1.0
 50
180.0000000000015064
 51
211.3206695884124997
  0
ARC
  5
1DCA
  8
0
  6
VERDECKT
 62
     1
 10
27.4999999999991402
 20
203.8515060100289134
 30
0.0
 40
11.9000000000006096
210
0.0
220
-0.0000000000000002
230
-1.0
 50
328.6793304115875003
 51
359.9999999999982947
  0
ARC
  5
1DCB
  8
0
  6
VERDECKT
 62
     1
 10
-44.5000000000014708
 20
193.5069422202884084
 30
0.0
 40
8.0000000000012506
210
0.0
220
-0.0000000000000002
230
-1.0
 50
0.0000000000008142
 51
31.3206695884097996
  0
ARC
  5
1DCC
  8
0
  6
VERDECKT
 62
     1
 10
44.5000000000010232
 20
193.5069422202884084
 30
0.0
 40
8.0000000000012488
210
0.0
220
-0.0000000000000002
230
-1.0
 50
148.6793304115902004
 51
179.9999999999992042
  0
ARC
  5
1DCD
  8
0
  6
VERDECKT
 62
     1
 10
-44.5000000000014424
 20
193.5069422202882947
 30
0.0
 40
9.500000000001215
210
0.0
220
-0.0000000000000002
230
-1.0
 50
0.0000000000015521
 51
31.3206695884114907
  0
ARC
  5
1DCE
  8
0
  6
VERDECKT
 62
     1
 10
44.5000000000009166
 20
193.5069422202882947
 30
0.0
 40
9.5000000000011458
210
0.0
220
-0.0000000000000002
230
-1.0
 50
148.6793304115882108
 51
179.9999999999984084
  0
ARC
  5
1DCF
  8
0
  6
VERDECKT
 62
     1
 10
-27.4999999999994493
 20
203.8515060100287997
 30
0.0
 40
10.4000000000007606
210
0.0
220
-0.0000000000000002
230
-1.0
 50
180.0000000000011084
 51
211.320669588411107
  0
ARC
  5
1DD0
  8
0
  6
VERDECKT
 62
     1
 10
27.499999999998991
 20
203.8515060100287997
 30
0.0
 40
10.40000000000075
210
0.0
220
-0.0000000000000002
230
-1.0
 50
328.6793304115889214
 51
359.9999999999988063
  0
LINE
  5
1DD1
  8
0
  6
VERDECKT
 62
     1
 10
-39.3999999999998707
 20
203.8515060100286007
 30
-0.0000000000000453
 11
-39.3999999999998707
 21
289.1281710573135797
 31
-0.0000000000000642
210
0.0
220
1.0
230
-0.0000000000000002
  0
LINE
  5
1DD2
  8
0
  6
VERDECKT
 62
     1
 10
39.4000000000003183
 20
203.8515060100286007
 30
-0.0000000000000453
 11
39.4000000000003183
 21
289.1281710573135797
 31
-0.0000000000000642
210
0.0
220
1.0
230
-0.0000000000000002
  0
LINE
  5
1DD3
  8
0
  6
VERDECKT
 62
     1
 10
-37.8999999999998707
 20
203.8515060100286007
 30
-0.0000000000000453
 11
-37.8999999999998707
 21
289.1281710573135797
 31
-0.0000000000000642
210
0.0
220
1.0
230
-0.0000000000000002
  0
LINE
  5
1DD4
  8
0
  6
VERDECKT
 62
     1
 10
37.9000000000003183
 20
203.8515060100286007
 30
-0.0000000000000453
 11
37.9000000000003183
 21
289.1281710573135797
 31
-0.0000000000000642
210
0.0
220
1.0
230
-0.0000000000000002
  0
LINE
  5
1DD5
  8
0
  6
VERDECKT
 62
     1
 10
34.3932873081811294
 20
0.1307336141211977
 30
0.0
 11
35.8875793553187279
 21
-0.0000000000002842
 31
0.0
210
0.0
220
1.0
230
-0.0000000000000002
  0
LINE
  5
1DD6
  8
0
  6
VERDECKT
 62
     1
 10
-34.3932873081806818
 20
0.1307336141211977
 30
0.0
 11
-35.8875793553182802
 21
-0.0000000000002842
 31
0.0
210
0.0
220
1.0
230
-0.0000000000000002
  0
LINE
  5
1DD7
  8
0
  6
VERDECKT
 62
     1
 10
-34.3932873081806179
 20
0.130733614121203
 30
0.0
 11
-34.9706991753061516
 21
6.7305814556015724
 31
-0.0000000000000015
210
0.0
220
1.0
230
-0.0000000000000002
  0
LINE
  5
1DD8
  8
0
  6
VERDECKT
 62
     1
 10
34.3932873081810726
 20
0.130733614121203
 30
0.0
 11
34.9706991753066134
 21
6.7305814556015724
 31
-0.0000000000000015
210
0.0
220
1.0
230
-0.0000000000000002
  0
ARC
  5
1DD9
  8
0
  6
VERDECKT
 62
     1
 10
27.3000000000401215
 20
7.4016806747568289
 30
0.0
 40
7.6999999999596529
210
0.0
220
-0.0000000000000002
230
-1.0
 50
354.9999999999865281
 51
0.00000000001281
  0
ARC
  5
1DDA
  8
0
  6
VERDECKT
 62
     1
 10
-27.3000000000405514
 20
7.4016806747568289
 30
0.0
 40
7.6999999999596751
210
0.0
220
-0.0000000000000002
230
-1.0
 50
179.9999999999872102
 51
185.0000000000133866
  0
LINE
  5
1DDB
  8
0
  6
VERDECKT
 62
     1
 10
35.0000000000002274
 20
193.5069422202884937
 30
-0.000000000000043
 11
35.0000000000002274
 21
7.4016806747585528
 31
-0.0000000000000016
210
0.0
220
1.0
230
-0.0000000000000002
  0
LINE
  5
1DDC
  8
0
  6
VERDECKT
 62
     1
 10
-34.9999999999997726
 20
193.5069422202886074
 30
-0.000000000000043
 11
-34.9999999999997726
 21
7.4016806747585528
 31
-0.0000000000000016
210
0.0
220
1.0
230
-0.0000000000000002
  0
LINE
  5
1DDD
  8
0
  6
VERDECKT
 62
     1
 10
36.5000000000002274
 20
193.5069422202884937
 30
-0.000000000000043
 11
36.5000000000002274
 21
97.9598727973916823
 31
-0.0000000000000218
210
0.0
220
1.0
230
-0.0000000000000002
  0
LINE
  5
1DDE
  8
0
  6
VERDECKT
 62
     1
 10
-36.4999999999997726
 20
193.5069422202886074
 30
-0.000000000000043
 11
-36.4999999999997726
 21
97.9598727973916823
 31
-0.0000000000000218
210
0.0
220
1.0
230
-0.0000000000000002
  0
LINE
  5
1DDF
  8
0
  6
VERDECKT
 62
     1
 10
-48.4412676881311128
 20
115.9598727973916965
 30
-0.0000000000000257
 11
48.4412676881311128
 21
115.9598727973916965
 31
-0.0000000000000257
210
0.0
220
1.0
230
-0.0000000000000002
  0
LINE
  5
1DE0
  8
0
  6
VERDECKT
 62
     1
 10
43.25
 20
108.9598727973916965
 30
-0.0000000000000242
 11
-43.25
 21
108.9598727973916965
 31
-0.0000000000000242
210
0.0
220
1.0
230
-0.0000000000000002
  0
LINE
  5
1DE1
  8
0
  6
VERDECKT
 62
     1
 10
-39.3999999999996433
 20
105.959872797391597
 30
-0.0000000000000235
 11
39.3999999999996433
 21
105.959872797391597
 31
-0.0000000000000235
210
0.0
220
1.0
230
-0.0000000000000002
  0
LINE
  5
1DE2
  8
0
  6
VERDECKT
 62
     1
 10
48.4412676881320294
 20
115.9598727973916965
 30
-0.0000000000000257
 11
49.0000000000009024
 21
99.9598727973917107
 31
-0.0000000000000222
210
0.0
220
1.0
230
-0.0000000000000002
  0
LINE
  5
1DE3
  8
0
  6
VERDECKT
 62
     1
 10
-48.4412676881320294
 20
115.9598727973916965
 30
-0.0000000000000257
 11
-49.0000000000009024
 21
99.9598727973917107
 31
-0.0000000000000222
210
0.0
220
1.0
230
-0.0000000000000002
  0
LINE
  5
1DE4
  8
0
  6
VERDECKT
 62
     1
 10
-43.25
 20
108.9598727973916965
 30
-0.0000000000000242
 11
-46.2213237134674273
 21
115.9598727973916965
 31
-0.0000000000000257
210
0.0
220
1.0
230
-0.0000000000000002
  0
LINE
  5
1DE5
  8
0
  6
VERDECKT
 62
     1
 10
43.25
 20
108.9598727973916965
 30
-0.0000000000000242
 11
46.2213237134674273
 21
115.9598727973916965
 31
-0.0000000000000257
210
0.0
220
1.0
230
-0.0000000000000002
  0
LINE
  5
1DE6
  8
0
  6
VERDECKT
 62
     1
 10
39.3999999999996433
 20
105.959872797391597
 30
-0.0000000000000235
 11
44.018802153515928
 21
97.9598727973916823
 31
-0.0000000000000218
210
0.0
220
1.0
230
-0.0000000000000002
  0
LINE
  5
1DE7
  8
0
  6
VERDECKT
 62
     1
 10
-39.3999999999996433
 20
105.959872797391597
 30
-0.0000000000000235
 11
-44.018802153515928
 21
97.9598727973916823
 31
-0.0000000000000218
210
0.0
220
1.0
230
-0.0000000000000002
  0
LINE
  5
1DE8
  8
0
  6
VERDECKT
 62
     1
 10
36.5
 20
115.9598727973916965
 30
-0.0000000000000257
 11
36.5
 21
105.9598727973913981
 31
-0.0000000000000235
210
0.0
220
1.0
230
-0.0000000000000002
  0
LINE
  5
1DE9
  8
0
  6
VERDECKT
 62
     1
 10
-36.5
 20
115.9598727973916965
 30
-0.0000000000000257
 11
-36.5
 21
105.9598727973913981
 31
-0.0000000000000235
210
0.0
220
1.0
230
-0.0000000000000002
  0
LINE
  5
1DEA
  8
0
  6
VERDECKT
 62
     1
 10
40.25
 20
115.9598727973916965
 30
-0.0000000000000257
 11
40.25
 21
108.9598727973916965
 31
-0.0000000000000242
210
0.0
220
1.0
230
-0.0000000000000002
  0
LINE
  5
1DEB
  8
0
  6
VERDECKT
 62
     1
 10
-40.25
 20
115.9598727973916965
 30
-0.0000000000000257
 11
-40.25
 21
108.9598727973916965
 31
-0.0000000000000242
210
0.0
220
1.0
230
-0.0000000000000002
  0
LINE
  5
1DEC
  8
0
  6
VERDECKT
 62
     1
 10
-41.9500000000000384
 20
301.4169253737944132
 30
-0.0000000000000669
 11
41.9499999999999318
 21
301.4169253737944132
 31
-0.0000000000000669
210
0.0
220
1.0
230
-0.0000000000000002
  0
LINE
  5
1DED
  8
0
  6
VERDECKT
 62
     1
 10
-116.2360389693211005
 20
313.0000000000002274
 30
-0.0000000000000695
 11
116.2360389693209015
 21
313.0000000000002274
 31
-0.0000000000000695
210
0.0
220
1.0
230
-0.0000000000000002
  0
LINE
  5
1DEE
  8
0
  6
VERDECKT
 62
     1
 10
-43.3621635674704677
 20
300.0000000000002274
 30
-0.0000000000000666
 11
43.3621635674702475
 21
300.0000000000002274
 31
-0.0000000000000666
210
0.0
220
1.0
230
-0.0000000000000002
  0
LINE
  5
1DEF
  8
0
  6
VERDECKT
 62
     1
 10
-41.9499999999999673
 20
301.4169253737944132
 30
-0.0000000000000669
 11
-52.6389643737683031
 21
312.5425193022043118
 31
-0.0000000000000694
210
0.0
220
1.0
230
-0.0000000000000002
  0
LINE
  5
1DF0
  8
0
  6
VERDECKT
 62
     1
 10
41.9499999999998607
 20
301.4169253737944132
 30
-0.0000000000000669
 11
52.6389643737681894
 21
312.5425193022043118
 31
-0.0000000000000694
210
0.0
220
1.0
230
-0.0000000000000002
  0
ARC
  5
1DF1
  8
0
  6
VERDECKT
 62
     1
 10
58.4078879982145267
 20
307.0000000000002274
 30
0.0
 40
7.9999999999999432
210
0.0
220
-0.0000000000000002
230
-1.0
 50
89.9999999999993889
 51
136.1466512577347885
  0
ARC
  5
1DF2
  8
0
  6
VERDECKT
 62
     1
 10
-58.407887998214413
 20
307.0000000000002274
 30
0.0
 40
7.9999999999998872
210
0.0
220
-0.0000000000000002
230
-1.0
 50
43.8533487422649273
 51
90.0000000000006679
  0
LINE
  5
1DF3
  8
0
  6
VERDECKT
 62
     1
 10
118.7109127034738947
 20
311.9748737341531069
 30
-0.0000000000000693
 11
121.0857864376267941
 21
309.6000000000001933
 31
-0.0000000000000687
210
0.0
220
1.0
230
-0.0000000000000002
  0
LINE
  5
1DF4
  8
0
  6
VERDECKT
 62
     1
 10
-118.7109127034739942
 20
311.9748737341531069
 30
-0.0000000000000693
 11
-121.0857864376268935
 21
309.6000000000001933
 31
-0.0000000000000687
210
0.0
220
1.0
230
-0.0000000000000002
  0
ARC
  5
1DF5
  8
0
  6
VERDECKT
 62
     1
 10
116.2360389693209015
 20
309.4999999999997726
 30
0.0
 40
3.5000000000004499
210
0.0
220
-0.0000000000000002
230
-1.0
 50
45.0000000000010019
 51
89.9999999999965041
  0
ARC
  5
1DF6
  8
0
  6
VERDECKT
 62
     1
 10
-116.2360389693207026
 20
309.4999999999994884
 30
0.0
 40
3.5000000000007381
210
0.0
220
-0.0000000000000002
230
-1.0
 50
90.0000000000048743
 51
134.9999999999957083
  0
ARC
  5
1DF7
  8
0
  6
VERDECKT
 62
     1
 10
58.4078879982145267
 20
307.0000000000002842
 30
0.0
 40
5.9999999999998286
210
0.0
220
-0.0000000000000002
230
-1.0
 50
89.9999999999992042
 51
136.1466512577356127
  0
ARC
  5
1DF8
  8
0
  6
VERDECKT
 62
     1
 10
-58.4078879982143491
 20
307.0000000000006253
 30
0.0
 40
5.9999999999996128
210
0.0
220
-0.0000000000000002
230
-1.0
 50
43.8533487422626109
 51
90.0000000000014211
  0
LINE
  5
1DF9
  8
0
  6
VERDECKT
 62
     1
 10
-43.3621635674704109
 20
300.0000000000002274
 30
-0.0000000000000666
 11
-49.6860621314169322
 21
306.582221158823188
 31
-0.0000000000000681
210
0.0
220
1.0
230
-0.0000000000000002
  0
LINE
  5
1DFA
  8
0
  6
VERDECKT
 62
     1
 10
-52.5854067173165731
 20
309.6000000000001933
 30
-0.0000000000000687
 11
-54.0811952798798998
 21
311.1568894766531912
 31
-0.0000000000000691
210
0.0
220
1.0
230
-0.0000000000000002
  0
LINE
  5
1DFB
  8
0
  6
VERDECKT
 62
     1
 10
43.3621635674702901
 20
300.0000000000002274
 30
-0.0000000000000666
 11
49.6860621314168327
 21
306.582221158823188
 31
-0.0000000000000681
210
0.0
220
1.0
230
-0.0000000000000002
  0
LINE
  5
1DFC
  8
0
  6
VERDECKT
 62
     1
 10
52.5854067173164594
 20
309.6000000000001933
 30
-0.0000000000000687
 11
54.081195279879779
 21
311.1568894766531912
 31
-0.0000000000000691
210
0.0
220
1.0
230
-0.0000000000000002
  0
LINE
  5
1DFD
  8
0
  6
VERDECKT
 62
     1
 10
41.9499999999998394
 20
301.4169253737942995
 30
-0.0000000000000669
 11
43.362163567470283
 21
300.0000000000002274
 31
-0.0000000000000666
210
0.0
220
1.0
230
-0.0000000000000002
  0
LINE
  5
1DFE
  8
0
  6
VERDECKT
 62
     1
 10
-41.9499999999999531
 20
301.4169253737942995
 30
-0.0000000000000669
 11
-43.3621635674703967
 21
300.0000000000002274
 31
-0.0000000000000666
210
0.0
220
1.0
230
-0.0000000000000002
  0
LINE
  5
1DFF
  8
0
  6
VERDECKT
 62
     1
 10
-43.1177747533188409
 20
302.6324021263558848
 30
-0.0000000000000672
 11
43.1177747533184998
 21
302.6324021263558848
 31
-0.0000000000000672
210
0.0
220
1.0
230
-0.0000000000000002
  0
LINE
  5
1E00
  8
0
  6
VERDECKT
 62
     1
 10
-41.9500000000007134
 20
301.4231303829972148
 30
-0.0000000000000669
 11
41.9500000000007276
 21
301.4231303829972148
 31
-0.0000000000000669
210
0.0
220
1.0
230
-0.0000000000000002
  0
LINE
  5
1E01
  8
0
  6
VERDECKT
 62
     1
 10
-41.9500000000001023
 20
301.4169253737944132
 30
-0.0000000000000669
 11
41.9499999999997613
 21
301.4169253737944132
 31
-0.0000000000000669
210
0.0
220
1.0
230
-0.0000000000000002
  0
LINE
  5
1E02
  8
0
  6
VERDECKT
 62
     1
 10
-43.3621635674705317
 20
300.0000000000002274
 30
-0.0000000000000666
 11
43.3621635674701835
 21
300.0000000000002274
 31
-0.0000000000000666
210
0.0
220
1.0
230
-0.0000000000000002
  0
LINE
  5
1E03
  8
0
  6
VERDECKT
 62
     1
 10
-48.4412676881311128
 20
115.9598727973918955
 30
-0.0000000000000257
 11
48.4412676881311128
 21
115.9598727973918955
 31
-0.0000000000000257
210
0.0
220
1.0
230
-0.0000000000000002
  0
LINE
  5
1E04
  8
0
  6
VERDECKT
 62
     1
 10
43.25
 20
108.9598727973918955
 30
-0.0000000000000242
 11
-43.25
 21
108.9598727973918955
 31
-0.0000000000000242
210
0.0
220
1.0
230
-0.0000000000000002
  0
LINE
  5
1E05
  8
0
  6
VERDECKT
 62
     1
 10
-41.9500000000006992
 20
301.4231303829971012
 30
-0.0000000000000669
 11
-43.1177747533187201
 21
302.6324021263559985
 31
-0.0000000000000672
210
0.0
220
1.0
230
-0.0000000000000002
  0
LINE
  5
1E06
  8
0
  6
VERDECKT
 62
     1
 10
41.9500000000006992
 20
301.4231303829971012
 30
-0.0000000000000669
 11
43.1177747533185496
 21
302.6324021263558279
 31
-0.0000000000000672
210
0.0
220
1.0
230
-0.0000000000000002
  0
LINE
  5
1E07
  8
0
  6
VERDECKT
 62
     1
 10
-41.9500000000000881
 20
301.4169253737944132
 30
-0.0000000000000669
 11
-43.1177747533188196
 21
302.6324021263558848
 31
-0.0000000000000672
210
0.0
220
1.0
230
-0.0000000000000002
  0
LINE
  5
1E08
  8
0
  6
VERDECKT
 62
     1
 10
41.9499999999997399
 20
301.4169253737944132
 30
-0.0000000000000669
 11
43.1177747533184714
 21
302.6324021263558848
 31
-0.0000000000000672
210
0.0
220
1.0
230
-0.0000000000000002
  0
LINE
  5
1E09
  8
0
  6
VERDECKT
 62
     1
 10
-43.3621635674704891
 20
300.0000000000002274
 30
-0.0000000000000666
 11
-49.6860621314170103
 21
306.582221158823188
 31
-0.0000000000000681
210
0.0
220
1.0
230
-0.0000000000000002
  0
LINE
  5
1E0A
  8
0
  6
VERDECKT
 62
     1
 10
43.362163567470148
 20
300.0000000000002274
 30
-0.0000000000000666
 11
49.6860621314166622
 21
306.582221158823188
 31
-0.0000000000000681
210
0.0
220
1.0
230
-0.0000000000000002
  0
LINE
  5
1E0B
  8
0
  6
VERDECKT
 62
     1
 10
41.949999999999747
 20
301.4169253737944132
 30
-0.0000000000000669
 11
43.3621635674701906
 21
300.0000000000002274
 31
-0.0000000000000666
210
0.0
220
1.0
230
-0.0000000000000002
  0
LINE
  5
1E0C
  8
0
  6
VERDECKT
 62
     1
 10
-41.9500000000001023
 20
301.4169253737944132
 30
-0.0000000000000669
 11
-43.3621635674705388
 21
300.0000000000002274
 31
-0.0000000000000666
210
0.0
220
1.0
230
-0.0000000000000002
  0
LINE
  5
1E0D
  8
0
  6
VERDECKT
 62
     1
 10
36.5000000000001066
 20
193.5069422202886074
 30
-0.000000000000043
 11
36.5000000000001066
 21
115.9598727973918955
 31
-0.0000000000000257
210
0.0
220
1.0
230
-0.0000000000000002
  0
LINE
  5
1E0E
  8
0
  6
VERDECKT
 62
     1
 10
-36.4999999999998934
 20
193.5069422202886074
 30
-0.000000000000043
 11
-36.4999999999998934
 21
115.9598727973918955
 31
-0.0000000000000257
210
0.0
220
1.0
230
-0.0000000000000002
  0
ARC
  5
1E0F
  8
0
  6
VERDECKT
 62
     1
 10
-16.2705343039155395
 20
302.6392734874044095
 30
0.0
 40
25.6294656960845515
210
0.0
220
-0.0000000000000002
230
-1.0
 50
182.7197618161492016
 51
190.3489560495962962
  0
ARC
  5
1E10
  8
0
  6
VERDECKT
 62
     1
 10
16.2705343039153192
 20
302.6392734874044095
 30
0.0
 40
25.6294656960845408
210
0.0
220
-0.0000000000000002
230
-1.0
 50
349.6510439504036185
 51
357.2802381838507131
  0
ARC
  5
1E11
  8
0
  6
VERDECKT
 62
     1
 10
-17.6632712343800904
 20
302.3849407818973987
 30
0.0
 40
24.2136969004931615
210
0.0
220
-0.0000000000000002
230
-1.0
 50
190.3489560495997068
 51
201.1668520397925874
  0
ARC
  5
1E12
  8
0
  6
VERDECKT
 62
     1
 10
17.6632712343791205
 20
302.384940781897626
 30
0.0
 40
24.2136969004939111
210
0.0
220
-0.0000000000000002
230
-1.0
 50
338.8331479602076115
 51
349.6510439504000942
  0
ARC
  5
1E13
  8
0
  6
VERDECKT
 62
     1
 10
-51.9000000000035229
 20
289.1281710573130113
 30
0.0
 40
12.50000000000332
210
0.0
220
-0.0000000000000002
230
-1.0
 50
0.0
 51
21.1668520397788917
  0
ARC
  5
1E14
  8
0
  6
VERDECKT
 62
     1
 10
51.9000000000033026
 20
289.1281710573130113
 30
0.0
 40
12.5000000000033307
210
0.0
220
-0.0000000000000002
230
-1.0
 50
158.8331479602182981
 51
179.999999999997101
  0
ARC
  5
1E15
  8
0
  6
VERDECKT
 62
     1
 10
-27.4999999999994813
 20
203.8515060100289986
 30
0.0
 40
11.9000000000006096
210
0.0
220
-0.0000000000000002
230
-1.0
 50
180.0000000000015064
 51
211.3206695884124997
  0
ARC
  5
1E16
  8
0
  6
VERDECKT
 62
     1
 10
27.4999999999992504
 20
203.8515060100289986
 30
0.0
 40
11.9000000000006096
210
0.0
220
-0.0000000000000002
230
-1.0
 50
328.6793304115875003
 51
359.9999999999982947
  0
ARC
  5
1E17
  8
0
  6
VERDECKT
 62
     1
 10
-44.5000000000013571
 20
193.5069422202884937
 30
0.0
 40
8.0000000000012506
210
0.0
220
-0.0000000000000002
230
-1.0
 50
0.0000000000008142
 51
31.3206695884097996
  0
ARC
  5
1E18
  8
0
  6
VERDECKT
 62
     1
 10
44.5000000000011298
 20
193.5069422202884937
 30
0.0
 40
8.0000000000012488
210
0.0
220
-0.0000000000000002
230
-1.0
 50
148.6793304115902004
 51
179.9999999999992042
  0
LINE
  5
1E19
  8
0
  6
VERDECKT
 62
     1
 10
-39.3999999999999773
 20
203.851506010028686
 30
-0.0000000000000453
 11
-39.3999999999999773
 21
289.1281710573136934
 31
-0.0000000000000642
210
0.0
220
1.0
230
-0.0000000000000002
  0
LINE
  5
1E1A
  8
0
  6
VERDECKT
 62
     1
 10
39.4000000000002117
 20
203.851506010028686
 30
-0.0000000000000453
 11
39.4000000000002117
 21
289.1281710573136934
 31
-0.0000000000000642
210
0.0
220
1.0
230
-0.0000000000000002
  0
LINE
  5
1E1B
  8
0
  6
VERDECKT
 62
     1
 10
48.4412676881320294
 20
115.9598727973918955
 30
-0.0000000000000257
 11
49.0000000000009024
 21
99.9598727973919381
 31
-0.0000000000000222
210
0.0
220
1.0
230
-0.0000000000000002
  0
LINE
  5
1E1C
  8
0
  6
VERDECKT
 62
     1
 10
-48.4412676881320294
 20
115.9598727973918955
 30
-0.0000000000000257
 11
-49.0000000000009024
 21
99.9598727973919381
 31
-0.0000000000000222
210
0.0
220
1.0
230
-0.0000000000000002
  0
LINE
  5
1E1D
  8
0
  6
VERDECKT
 62
     1
 10
-43.25
 20
108.9598727973918955
 30
-0.0000000000000242
 11
-46.2213237134674273
 21
115.9598727973918955
 31
-0.0000000000000257
210
0.0
220
1.0
230
-0.0000000000000002
  0
LINE
  5
1E1E
  8
0
  6
VERDECKT
 62
     1
 10
43.25
 20
108.9598727973918955
 30
-0.0000000000000242
 11
46.2213237134674273
 21
115.9598727973918955
 31
-0.0000000000000257
210
0.0
220
1.0
230
-0.0000000000000002
  0
LINE
  5
1E1F
  8
0
  6
VERDECKT
 62
     1
 10
40.25
 20
115.9598727973918955
 30
-0.0000000000000257
 11
40.25
 21
108.9598727973918955
 31
-0.0000000000000242
210
0.0
220
1.0
230
-0.0000000000000002
  0
LINE
  5
1E20
  8
0
  6
VERDECKT
 62
     1
 10
-40.25
 20
115.9598727973918955
 30
-0.0000000000000257
 11
-40.25
 21
108.9598727973918955
 31
-0.0000000000000242
210
0.0
220
1.0
230
-0.0000000000000002
  0
LINE
  5
1E21
  8
0
  6
VERDECKT
 62
     1
 10
50.0
 20
306.582221158823188
 30
-0.0000000000000681
 11
50.0
 21
99.9598727973919097
 31
-0.0000000000000222
210
0.0
220
1.0
230
-0.0000000000000002
  0
LINE
  5
1E22
  8
0
  6
VERDECKT
 62
     1
 10
-50.0
 20
306.582221158823188
 30
-0.0000000000000681
 11
-50.0
 21
99.9598727973919097
 31
-0.0000000000000222
210
0.0
220
1.0
230
-0.0000000000000002
  0
LINE
  5
1E23
  8
0
  6
VERDECKT
 62
     1
 10
-50.0
 20
99.959872797391526
 30
-0.0000000000000222
 11
-50.0
 21
306.582221158823188
 31
-0.0000000000000681
210
0.0
220
1.0
230
-0.0000000000000002
  0
LINE
  5
1E24
  8
0
  6
VERDECKT
 62
     1
 10
50.0
 20
99.9598727973915402
 30
-0.0000000000000222
 11
50.0
 21
306.582221158823188
 31
-0.0000000000000681
210
0.0
220
1.0
230
-0.0000000000000002
  0
ENDBLK
  5
1E26
  8
0
  0
ENDSEC
  0
SECTION
  2
ENTITIES
  0
INSERT
  5
B3E
  8
ADSK_ASSOC_ENTITY_BACKUPS
  2
*S2
 10
0.0
 20
0.0
 30
0.0
  0
INSERT
  5
1CC2
  8
0
  2
A$C6E3B08BD
 10
0.0
 20
-0.0000000000000928
 30
115.959872797391597
  0
INSERT
  5
1E27
  8
0
  2
A$C375363BD
 10
0.0
 20
194.1347781531692078
 30
115.9598727973918955
  0
VIEWPORT
  5
B1F
 67
     1
  8
0
 10
68.3992863758485896
 20
688.9373759805558848
 30
0.0
 40
1604.4958066433330259
 41
846.315789473684049
 68
     1
 69
     1
1001
ACAD
1000
MVIEW
1002
{
1070
    16
1010
0.0
1020
0.0
1030
0.0
1010
0.0
1020
0.0
1030
1.0
1040
0.0
1040
846.315789473684049
1040
68.3992863758485896
1040
688.9373759805558848
1040
50.0
1040
0.0
1040
0.0
1070
     0
1070
  1500
1070
     1
1070
     1
1070
     0
1070
     0
1070
     0
1070
     0
1040
0.0
1040
0.0
1040
0.0
1040
10.0
1040
10.0
1040
10.0
1040
10.0
1070
     0
1002
{
1002
}
1002
}
  0
TEXT
  5
170D
 67
     1
  8
VOLL
 10
1487.2766120476489959
 20
838.9506130214497261
 30
0.0
 40
3.6000000000000001
  1

  7
GREEKS
  0
TEXT
  5
170E
 67
     1
  8
VOLL
 10
1730.0821493860109967
 20
1253.5914291119750033
 30
0.0
 40
3.6000000000000001
  1

  7
GREEKS
  0
TEXT
  5
170F
 67
     1
  8
VOLL
 10
2389.7485713148507784
 20
886.4125810437883501
 30
0.0
 40
3.6000000000000001
  1

  7
GREEKS
  0
TEXT
  5
1710
 67
     1
  8
VOLL
 10
2382.0840182861761605
 20
864.0049335868665139
 30
0.0
 40
3.6000000000000001
  1

  7
GREEKS
  0
ENDSEC
  0
EOF
