  0
SECTION
  2
HEADER
  9
$ACADVER
  1
AC1009
  9
$INSBASE
 10
0.0
 20
0.0
 30
0.0
  9
$EXTMIN
 10
-165.0357033870702992
 20
-636.968962411087432
 30
-0.0186148704742664
  9
$EXTMAX
 10
165.0276974437111051
 20
43.5084561407813908
 30
0.0046558480515841
  9
$LIMMIN
 10
0.0
 20
0.0
  9
$LIMMAX
 10
419.9999999999998863
 20
594.0
  9
$ORTHOMODE
 70
     1
  9
$REGENMODE
 70
     1
  9
$FILLMODE
 70
     1
  9
$QTEXTMODE
 70
     0
  9
$MIRRTEXT
 70
     1
  9
$DRAGMODE
 70
     2
  9
$LTSCALE
 40
20.0
  9
$OSMODE
 70
  1327
  9
$ATTMODE
 70
     1
  9
$TEXTSIZE
 40
3.5
  9
$TRACEWID
 40
0.5
  9
$TEXTSTYLE
  7
STANDARD
  9
$CLAYER
  8
0
  9
$CELTYPE
  6
BYLAYER
  9
$CECOLOR
 62
   256
  9
$DIMSCALE
 40
2.0
  9
$DIMASZ
 40
3.5
  9
$DIMEXO
 40
1.0
  9
$DIMDLI
 40
7.0
  9
$DIMRND
 40
0.0
  9
$DIMDLE
 40
0.0
  9
$DIMEXE
 40
1.0
  9
$DIMTP
 40
0.0
  9
$DIMTM
 40
0.0
  9
$DIMTXT
 40
3.5
  9
$DIMCEN
 40
1.5
  9
$DIMTSZ
 40
0.0
  9
$DIMTOL
 70
     0
  9
$DIMLIM
 70
     0
  9
$DIMTIH
 70
     0
  9
$DIMTOH
 70
     0
  9
$DIMSE1
 70
     0
  9
$DIMSE2
 70
     0
  9
$DIMTAD
 70
     1
  9
$DIMZIN
 70
     8
  9
$DIMBLK
  1

  9
$DIMASO
 70
     1
  9
$DIMSHO
 70
     0
  9
$DIMPOST
  1

  9
$DIMAPOST
  1

  9
$DIMALT
 70
     0
  9
$DIMALTD
 70
     2
  9
$DIMALTF
 40
25.3999999999999986
  9
$DIMLFAC
 40
1.0
  9
$DIMTOFL
 70
     1
  9
$DIMTVP
 40
0.0
  9
$DIMTIX
 70
     0
  9
$DIMSOXD
 70
     0
  9
$DIMSAH
 70
     0
  9
$DIMBLK1
  1

  9
$DIMBLK2
  1

  9
$DIMSTYLE
  2
STANDARD
  9
$DIMCLRD
 70
     0
  9
$DIMCLRE
 70
     0
  9
$DIMCLRT
 70
     1
  9
$DIMTFAC
 40
0.5142857142857143
  9
$DIMGAP
 40
1.5
  9
$LUNITS
 70
     2
  9
$LUPREC
 70
     2
  9
$SKETCHINC
 40
1.0
  9
$FILLETRAD
 40
6.5
  9
$AUNITS
 70
     0
  9
$AUPREC
 70
     0
  9
$MENU
  1
ACAD
  9
$ELEVATION
 40
0.0
  9
$PELEVATION
 40
0.0
  9
$THICKNESS
 40
0.0
  9
$LIMCHECK
 70
     0
  9
$BLIPMODE
 70
     0
  9
$CHAMFERA
 40
0.0
  9
$CHAMFERB
 40
0.0
  9
$SKPOLY
 70
     0
  9
$TDCREATE
 40
2455397.8646990740671754
  9
$TDUPDATE
 40
2458403.3109375000931323
  9
$TDINDWG
 40
0.0658935764
  9
$TDUSRTIMER
 40
0.0658935764
  9
$USRTIMER
 70
     1
  9
$ANGBASE
 50
0.0
  9
$ANGDIR
 70
     0
  9
$PDMODE
 70
     0
  9
$PDSIZE
 40
0.0
  9
$PLINEWID
 40
0.0
  9
$COORDS
 70
     1
  9
$SPLFRAME
 70
     0
  9
$SPLINETYPE
 70
     6
  9
$SPLINESEGS
 70
     8
  9
$ATTDIA
 70
     0
  9
$ATTREQ
 70
     0
  9
$HANDLING
 70
     1
  9
$HANDSEED
  5
CDD
  9
$SURFTAB1
 70
     6
  9
$SURFTAB2
 70
     6
  9
$SURFTYPE
 70
     6
  9
$SURFU
 70
     6
  9
$SURFV
 70
     6
  9
$UCSNAME
  2

  9
$UCSORG
 10
0.0
 20
0.0
 30
0.0
  9
$UCSXDIR
 10
1.0
 20
0.0
 30
0.0
  9
$UCSYDIR
 10
0.0
 20
1.0
 30
0.0
  9
$PUCSNAME
  2

  9
$PUCSORG
 10
0.0
 20
0.0
 30
0.0
  9
$PUCSXDIR
 10
1.0
 20
0.0
 30
0.0
  9
$PUCSYDIR
 10
0.0
 20
1.0
 30
0.0
  9
$USERI1
 70
     0
  9
$USERI2
 70
     0
  9
$USERI3
 70
     0
  9
$USERI4
 70
     0
  9
$USERI5
 70
     0
  9
$USERR1
 40
0.0
  9
$USERR2
 40
0.0
  9
$USERR3
 40
0.0
  9
$USERR4
 40
0.0
  9
$USERR5
 40
0.0
  9
$WORLDVIEW
 70
     1
  9
$SHADEDGE
 70
     3
  9
$SHADEDIF
 70
    70
  9
$TILEMODE
 70
     1
  9
$MAXACTVP
 70
    16
  9
$PLIMCHECK
 70
     0
  9
$PEXTMIN
 10
-0.1378786349720507
 20
-0.1355302448512212
 30
-0.0000000000000058
  9
$PEXTMAX
 10
6.2646328164920737
 20
8.7024071750846232
 30
0.0000000000000104
  9
$PLIMMIN
 10
-0.2500002402958907
 20
-0.2499999962453767
  9
$PLIMMAX
 10
10.7499995194082203
 20
8.2499997634587334
  9
$UNITMODE
 70
     0
  9
$VISRETAIN
 70
     0
  9
$PLINEGEN
 70
     0
  9
$PSLTSCALE
 70
     0
  0
ENDSEC
  0
SECTION
  2
TABLES
  0
TABLE
  2
VPORT
 70
     1
  0
VPORT
  2
*ACTIVE
 70
     0
 10
0.0
 20
0.0
 11
1.0
 21
1.0
 12
-0.0040014063702074
 22
-248.4636382365218878
 13
0.0
 23
0.0
 14
1.0
 24
1.0
 15
10.0
 25
10.0
 16
-0.0000000000003569
 26
0.0
 36
1607.2479339955400519
 17
-0.0000015653093897
 27
-48.2666148986311327
 37
152.5
 40
685.5746276795982794
 41
1.889999999999999
 42
50.0
 43
0.0
 44
0.0
 50
0.0
 51
0.0
 71
     0
 72
  1500
 73
     1
 74
     0
 75
     0
 76
     0
 77
     0
 78
     0
  0
ENDTAB
  0
TABLE
  2
LTYPE
 70
     4
  0
LTYPE
  2
CONTINUOUS
 70
     0
  3
Solid line
 72
    65
 73
     0
 40
0.0
  0
LTYPE
  2
AUSGEZOGEN
 70
     0
  3
Ausgezogene Linie
 72
    65
 73
     0
 40
0.0
  0
LTYPE
  2
VERDECKT
 70
     0
  3
Verdeckt __ __ __ __ __ __ __ __ __ __ __ __ __
 72
    65
 73
     2
 40
0.375
 49
0.25
 49
-0.125
  0
ENDTAB
  0
TABLE
  2
LAYER
 70
    10
  0
LAYER
  2
0
 70
     0
 62
     7
  6
CONTINUOUS
  0
LAYER
  2
VOLL
 70
     0
 62
     1
  6
CONTINUOUS
  0
LAYER
  2
DEFPOINTS
 70
     0
 62
     7
  6
AUSGEZOGEN
  0
ENDTAB
  0
TABLE
  2
STYLE
 70
     4
  0
STYLE
  2
STANDARD
 70
     0
 40
0.0
 41
0.8
 50
0.0
 71
     0
 42
3.5
  3
simplex.shx
  4

  0
STYLE
  2
GREEKS
 70
     0
 40
0.0
 41
0.8
 50
0.0
 71
     0
 42
2.5
  3
SIMPLEX.shx
  4

  0
ENDTAB
  0
TABLE
  2
VIEW
 70
     2
  0
ENDTAB
  0
TABLE
  2
UCS
 70
     0
  0
ENDTAB
  0
TABLE
  2
APPID
 70
    10
  0
APPID
  2
ACAD
 70
     0
  0
APPID
  2
ACAD_EXEMPT_FROM_CAD_STANDARDS
 70
     0
  0
APPID
  2
ACAD_NAV_VCDISPLAY
 70
     0
  0
APPID
  2
GRADIENTCOLOR1ACI
 70
     0
  0
APPID
  2
GRADIENTCOLOR2ACI
 70
     0
  0
APPID
  2
ACAECLAYERSTANDARD
 70
     0
  0
APPID
  2
ACCMTRANSPARENCY
 70
     0
  0
APPID
  2
ACAD_PSEXT
 70
     0
  0
APPID
  2
ACAD_MLEADERVER
 70
     0
  0
APPID
  2
ACAD_OBJECT_CHANGE_GUID
 70
     0
  0
ENDTAB
  0
TABLE
  2
DIMSTYLE
 70
     2
  0
DIMSTYLE
  2
STANDARD
 70
     0
  3

  4

  5

  6

  7

 40
1.0
 41
0.18
 42
0.0625
 43
0.38
 44
0.18
 45
0.0
 46
0.0
 47
0.0
 48
0.0
140
0.18
141
0.09
142
0.0
143
25.3999999999999986
144
1.0
145
0.0
146
1.0
147
0.09
 71
     0
 72
     0
 73
     1
 74
     1
 75
     0
 76
     0
 77
     0
 78
     0
170
     0
171
     2
172
     0
173
     0
174
     0
175
     0
176
     0
177
     0
178
     0
  0
ENDTAB
  0
ENDSEC
  0
SECTION
  2
BLOCKS
  0
BLOCK
  8
0
  2
$MODEL_SPACE
 70
     0
 10
0.0
 20
0.0
 30
0.0
  3
$MODEL_SPACE
  1

  0
ENDBLK
  5
36
  8
0
  0
BLOCK
 67
     1
  8
0
  2
$PAPER_SPACE
 70
     0
 10
0.0
 20
0.0
 30
0.0
  3
$PAPER_SPACE
  1

  0
ENDBLK
  5
34
 67
     1
  8
0
  0
BLOCK
  8
0
  2
A$C619B33AD
 70
     0
 10
0.0
 20
0.0
 30
0.0
  3
A$C619B33AD
  1

  0
LINE
  5
B12
  8
0
  6
CONTINUOUS
 62
     3
 10
-216.878846699665786
 20
301.8953662883541256
 30
-0.0000000000000622
 11
100.393231238976
 21
301.8953662883532729
 31
-0.0000000000000622
210
0.0
220
1.0
230
-0.0000000000000002
  0
LINE
  5
B13
  8
0
  6
CONTINUOUS
 62
     3
 10
-223.2428077303453051
 20
298.0166866319132737
 30
-0.0000000000000613
 11
106.7571922696555049
 21
298.016686631912421
 31
-0.0000000000000613
210
0.0
220
1.0
230
-0.0000000000000002
  0
LINE
  5
B14
  8
0
  6
CONTINUOUS
 62
     3
 10
-221.1214873867847928
 20
295.8953662883541256
 30
-0.0000000000000608
 11
104.6358719260950068
 21
295.8953662883532161
 31
-0.0000000000000608
210
0.0
220
1.0
230
-0.0000000000000002
  0
ARC
  5
B15
  8
0
  6
CONTINUOUS
 62
     3
 10
216.8788466996684861
 20
295.8953662883566835
 30
-0.0000000000000049
 40
5.9999999999974349
210
0.0
220
-0.0000000000000002
230
-1.0
 50
44.9999999999821512
 51
90.0000000000256364
  0
ARC
  5
B16
  8
0
  6
CONTINUOUS
 62
     3
 10
-100.3932312389787995
 20
295.8953662883562856
 30
-0.0000000000000049
 40
5.9999999999970441
210
0.0
220
-0.0000000000000002
230
-1.0
 50
89.9999999999735536
 51
135.0000000000204921
  0
LINE
  5
B17
  8
0
  6
CONTINUOUS
 62
     3
 10
104.6358719260974937
 20
300.1380069754719102
 30
-0.0000000000000618
 11
106.7571922696555049
 21
298.0166866319123073
 31
-0.0000000000000613
210
0.0
220
1.0
230
-0.0000000000000002
  0
LINE
  5
B18
  8
0
  6
CONTINUOUS
 62
     3
 10
-221.1214873867872939
 20
300.1380069754728197
 30
-0.0000000000000618
 11
-223.2428077303453051
 21
298.0166866319132737
 31
-0.0000000000000613
210
0.0
220
1.0
230
-0.0000000000000002
  0
LINE
  5
B19
  8
0
  6
CONTINUOUS
 62
     3
 10
-221.1214873867847928
 20
295.8953662883541256
 30
-0.0000000000000608
 11
-223.2428077303453904
 21
298.0166866319132737
 31
-0.0000000000000613
210
0.0
220
1.0
230
-0.0000000000000002
  0
LINE
  5
B1A
  8
0
  6
CONTINUOUS
 62
     3
 10
104.6358719260950068
 20
295.8953662883532161
 30
-0.0000000000000608
 11
106.7571922696556044
 21
298.0166866319123073
 31
-0.0000000000000613
210
0.0
220
1.0
230
-0.0000000000000002
  0
LINE
  5
B1B
  8
0
  6
CONTINUOUS
 62
     3
 10
-137.5978207171361021
 20
285.1116180298542986
 30
-0.0000000000000584
 11
-144.5208640578939026
 21
295.8953662883540119
 31
-0.0000000000000608
210
0.0
220
1.0
230
-0.0000000000000002
  0
LINE
  5
B1C
  8
0
  6
CONTINUOUS
 62
     3
 10
21.1122052564463694
 20
285.1116180298539007
 30
-0.0000000000000584
 11
28.0352485972041308
 21
295.8953662883535003
 31
-0.0000000000000608
210
0.0
220
1.0
230
-0.0000000000000002
  0
LINE
  5
B1D
  8
0
  6
CONTINUOUS
 62
     3
 10
-190.2428077303449925
 20
325.8953662883537845
 30
-0.0000000000000675
 11
-180.2428077303447935
 21
325.8953662883537845
 31
-0.0000000000000675
210
0.0
220
1.0
230
-0.0000000000000002
  0
LINE
  5
B1E
  8
0
  6
CONTINUOUS
 62
     3
 10
-189.2428077303449072
 20
326.8953662883537277
 30
-0.0000000000000677
 11
-181.2428077303449072
 21
326.8953662883537277
 31
-0.0000000000000677
210
0.0
220
1.0
230
-0.0000000000000002
  0
LINE
  5
B1F
  8
0
  6
CONTINUOUS
 62
     3
 10
-189.2428077303449072
 20
324.8953662883537277
 30
-0.0000000000000673
 11
-181.2428077303449072
 21
324.8953662883537277
 31
-0.0000000000000673
210
0.0
220
1.0
230
-0.0000000000000002
  0
LINE
  5
B20
  8
0
  6
CONTINUOUS
 62
     3
 10
-190.2428077303447935
 20
323.8953662883537845
 30
-0.0000000000000671
 11
-180.2428077303449925
 21
323.8953662883537845
 31
-0.0000000000000671
210
0.0
220
1.0
230
-0.0000000000000002
  0
LINE
  5
B21
  8
0
  6
CONTINUOUS
 62
     3
 10
-189.2428077303449072
 20
322.8953662883538982
 30
-0.0000000000000668
 11
-181.2428077303449072
 21
322.8953662883538982
 31
-0.0000000000000668
210
0.0
220
1.0
230
-0.0000000000000002
  0
LINE
  5
B22
  8
0
  6
CONTINUOUS
 62
     3
 10
-190.2428077303447935
 20
321.8953662883537845
 30
-0.0000000000000666
 11
-180.2428077303449925
 21
321.8953662883537845
 31
-0.0000000000000666
210
0.0
220
1.0
230
-0.0000000000000002
  0
LINE
  5
B23
  8
0
  6
CONTINUOUS
 62
     3
 10
-189.2428077303449072
 20
320.8953662883541256
 30
-0.0000000000000664
 11
-181.2428077303449072
 21
320.8953662883541256
 31
-0.0000000000000664
210
0.0
220
1.0
230
-0.0000000000000002
  0
LINE
  5
B24
  8
0
  6
CONTINUOUS
 62
     3
 10
-190.2428077303447935
 20
319.8953662883538982
 30
-0.0000000000000662
 11
-180.2428077303449925
 21
319.8953662883538982
 31
-0.0000000000000662
210
0.0
220
1.0
230
-0.0000000000000002
  0
LINE
  5
B25
  8
0
  6
CONTINUOUS
 62
     3
 10
-189.2428077303443104
 20
318.8953662883537845
 30
-0.0000000000000659
 11
-181.2428077303455041
 21
318.8953662883537845
 31
-0.0000000000000659
210
0.0
220
1.0
230
-0.0000000000000002
  0
LINE
  5
B26
  8
0
  6
CONTINUOUS
 62
     3
 10
-190.2428077303449925
 20
317.8953662883527045
 30
-0.0000000000000657
 11
-180.2428077303447935
 21
317.8953662883527045
 31
-0.0000000000000657
210
0.0
220
1.0
230
-0.0000000000000002
  0
LINE
  5
B27
  8
0
  6
CONTINUOUS
 62
     3
 10
-189.2428077303449072
 20
316.8953662883537845
 30
-0.0000000000000655
 11
-181.2428077303449072
 21
316.8953662883537845
 31
-0.0000000000000655
210
0.0
220
1.0
230
-0.0000000000000002
  0
LINE
  5
B28
  8
0
  6
CONTINUOUS
 62
     3
 10
-190.2428077303434861
 20
315.8953662883538982
 30
-0.0000000000000653
 11
-180.2428077303461862
 21
315.8953662883538982
 31
-0.0000000000000653
210
0.0
220
1.0
230
-0.0000000000000002
  0
LINE
  5
B29
  8
0
  6
CONTINUOUS
 62
     3
 10
-189.2428077303449072
 20
314.8953662883553193
 30
-0.0000000000000651
 11
-181.2428077303449072
 21
314.8953662883553193
 31
-0.0000000000000651
210
0.0
220
1.0
230
-0.0000000000000002
  0
LINE
  5
B2A
  8
0
  6
CONTINUOUS
 62
     3
 10
-190.2428077303447935
 20
313.8953662883538982
 30
-0.0000000000000648
 11
-180.2428077303449925
 21
313.8953662883538982
 31
-0.0000000000000648
210
0.0
220
1.0
230
-0.0000000000000002
  0
LINE
  5
B2B
  8
0
  6
CONTINUOUS
 62
     3
 10
-189.2428077303432872
 20
312.8953662883538982
 30
-0.0000000000000646
 11
-181.2428077303464988
 21
312.8953662883538982
 31
-0.0000000000000646
210
0.0
220
1.0
230
-0.0000000000000002
  0
LINE
  5
B2C
  8
0
  6
CONTINUOUS
 62
     3
 10
-190.2428077303447935
 20
311.8953662883538982
 30
-0.0000000000000644
 11
-180.2428077303449925
 21
311.8953662883538982
 31
-0.0000000000000644
210
0.0
220
1.0
230
-0.0000000000000002
  0
LINE
  5
B2D
  8
0
  6
CONTINUOUS
 62
     3
 10
-189.2428077303449072
 20
310.8953662883540119
 30
-0.0000000000000642
 11
-181.2428077303449072
 21
310.8953662883540119
 31
-0.0000000000000642
210
0.0
220
1.0
230
-0.0000000000000002
  0
LINE
  5
B2E
  8
0
  6
CONTINUOUS
 62
     3
 10
-190.2428077303447935
 20
309.8953662883538982
 30
-0.0000000000000639
 11
-180.2428077303449925
 21
309.8953662883538982
 31
-0.0000000000000639
210
0.0
220
1.0
230
-0.0000000000000002
  0
LINE
  5
B2F
  8
0
  6
CONTINUOUS
 62
     3
 10
-189.2428077303449072
 20
308.8953662883541256
 30
-0.0000000000000637
 11
-181.2428077303449072
 21
308.8953662883541256
 31
-0.0000000000000637
210
0.0
220
1.0
230
-0.0000000000000002
  0
LINE
  5
B30
  8
0
  6
CONTINUOUS
 62
     3
 10
-190.2428077303447935
 20
307.8953662883538982
 30
-0.0000000000000635
 11
-180.2428077303449925
 21
307.8953662883538982
 31
-0.0000000000000635
210
0.0
220
1.0
230
-0.0000000000000002
  0
LINE
  5
B31
  8
0
  6
CONTINUOUS
 62
     3
 10
-189.2428077303443956
 20
306.8953662883540119
 30
-0.0000000000000633
 11
-181.2428077303453051
 21
306.8953662883540119
 31
-0.0000000000000633
210
0.0
220
1.0
230
-0.0000000000000002
  0
LINE
  5
B32
  8
0
  6
CONTINUOUS
 62
     3
 10
-190.2428077303449925
 20
305.8953662883531024
 30
-0.0000000000000631
 11
-180.2428077303447935
 21
305.8953662883531024
 31
-0.0000000000000631
210
0.0
220
1.0
230
-0.0000000000000002
  0
LINE
  5
B33
  8
0
  6
CONTINUOUS
 62
     3
 10
-189.2428077303449072
 20
304.8953662883544098
 30
-0.0000000000000628
 11
-181.2428077303449072
 21
304.8953662883544098
 31
-0.0000000000000628
210
0.0
220
1.0
230
-0.0000000000000002
  0
LINE
  5
B34
  8
0
  6
CONTINUOUS
 62
     3
 10
-190.2428077303447935
 20
303.8953662883538982
 30
-0.0000000000000626
 11
-180.2428077303449925
 21
303.8953662883538982
 31
-0.0000000000000626
210
0.0
220
1.0
230
-0.0000000000000002
  0
LINE
  5
B35
  8
0
  6
CONTINUOUS
 62
     3
 10
-189.2428077303441967
 20
302.8953662883540119
 30
-0.0000000000000624
 11
-181.2428077303455893
 21
302.8953662883540119
 31
-0.0000000000000624
210
0.0
220
1.0
230
-0.0000000000000002
  0
LINE
  5
B36
  8
0
  6
CONTINUOUS
 62
     3
 10
-181.2428077303447935
 20
326.8953662883537845
 30
-0.0000000000000677
 11
-180.2428077303447083
 21
325.8953662883537845
 31
-0.0000000000000675
210
0.0
220
1.0
230
-0.0000000000000002
  0
LINE
  5
B37
  8
0
  6
CONTINUOUS
 62
     3
 10
-189.2428077303449072
 20
326.8953662883537845
 30
-0.0000000000000677
 11
-190.2428077303451062
 21
325.8953662883537845
 31
-0.0000000000000675
210
0.0
220
1.0
230
-0.0000000000000002
  0
LINE
  5
B38
  8
0
  6
CONTINUOUS
 62
     3
 10
-189.2428077303449072
 20
324.8953662883537277
 30
-0.0000000000000673
 11
-190.2428077303449925
 21
325.8953662883537845
 31
-0.0000000000000675
210
0.0
220
1.0
230
-0.0000000000000002
  0
LINE
  5
B39
  8
0
  6
CONTINUOUS
 62
     3
 10
-181.2428077303449072
 20
324.8953662883537277
 30
-0.0000000000000673
 11
-180.2428077303447935
 21
325.8953662883537845
 31
-0.0000000000000675
210
0.0
220
1.0
230
-0.0000000000000002
  0
LINE
  5
B3A
  8
0
  6
CONTINUOUS
 62
     3
 10
-181.2428077303449072
 20
324.8953662883537277
 30
-0.0000000000000673
 11
-180.2428077303449925
 21
323.8953662883537845
 31
-0.0000000000000671
210
0.0
220
1.0
230
-0.0000000000000002
  0
LINE
  5
B3B
  8
0
  6
CONTINUOUS
 62
     3
 10
-189.2428077303449072
 20
324.8953662883537277
 30
-0.0000000000000673
 11
-190.2428077303447935
 21
323.8953662883537845
 31
-0.0000000000000671
210
0.0
220
1.0
230
-0.0000000000000002
  0
LINE
  5
B3C
  8
0
  6
CONTINUOUS
 62
     3
 10
-189.2428077303447935
 20
322.8953662883538982
 30
-0.0000000000000668
 11
-190.2428077303447935
 21
323.8953662883538982
 31
-0.0000000000000671
210
0.0
220
1.0
230
-0.0000000000000002
  0
LINE
  5
B3D
  8
0
  6
CONTINUOUS
 62
     3
 10
-181.2428077303449072
 20
322.8953662883538982
 30
-0.0000000000000668
 11
-180.2428077303449925
 21
323.8953662883538982
 31
-0.0000000000000671
210
0.0
220
1.0
230
-0.0000000000000002
  0
LINE
  5
B3E
  8
0
  6
CONTINUOUS
 62
     3
 10
-181.2428077303449072
 20
322.8953662883537845
 30
-0.0000000000000668
 11
-180.2428077303449925
 21
321.8953662883537845
 31
-0.0000000000000666
210
0.0
220
1.0
230
-0.0000000000000002
  0
LINE
  5
B3F
  8
0
  6
CONTINUOUS
 62
     3
 10
-189.2428077303449072
 20
322.8953662883537845
 30
-0.0000000000000668
 11
-190.2428077303447083
 21
321.8953662883537845
 31
-0.0000000000000666
210
0.0
220
1.0
230
-0.0000000000000002
  0
LINE
  5
B40
  8
0
  6
CONTINUOUS
 62
     3
 10
-189.2428077303449072
 20
320.8953662883541824
 30
-0.0000000000000664
 11
-190.2428077303447083
 21
321.8953662883537845
 31
-0.0000000000000666
210
0.0
220
1.0
230
-0.0000000000000002
  0
LINE
  5
B41
  8
0
  6
CONTINUOUS
 62
     3
 10
-181.2428077303449072
 20
320.8953662883541256
 30
-0.0000000000000664
 11
-180.2428077303449925
 21
321.8953662883538982
 31
-0.0000000000000666
210
0.0
220
1.0
230
-0.0000000000000002
  0
LINE
  5
B42
  8
0
  6
CONTINUOUS
 62
     3
 10
-181.2428077303449072
 20
320.8953662883541256
 30
-0.0000000000000664
 11
-180.2428077303449925
 21
319.8953662883538982
 31
-0.0000000000000662
210
0.0
220
1.0
230
-0.0000000000000002
  0
LINE
  5
B43
  8
0
  6
CONTINUOUS
 62
     3
 10
-189.2428077303449072
 20
320.8953662883541256
 30
-0.0000000000000664
 11
-190.2428077303447935
 21
319.8953662883538982
 31
-0.0000000000000662
210
0.0
220
1.0
230
-0.0000000000000002
  0
LINE
  5
B44
  8
0
  6
CONTINUOUS
 62
     3
 10
-189.2428077303443104
 20
318.8953662883537845
 30
-0.0000000000000659
 11
-190.2428077303447935
 21
319.8953662883538982
 31
-0.0000000000000662
210
0.0
220
1.0
230
-0.0000000000000002
  0
LINE
  5
B45
  8
0
  6
CONTINUOUS
 62
     3
 10
-181.2428077303455041
 20
318.8953662883537845
 30
-0.0000000000000659
 11
-180.2428077303449925
 21
319.8953662883538982
 31
-0.0000000000000662
210
0.0
220
1.0
230
-0.0000000000000002
  0
LINE
  5
B46
  8
0
  6
CONTINUOUS
 62
     3
 10
-181.2428077303455041
 20
318.8953662883537845
 30
-0.0000000000000659
 11
-180.2428077303447935
 21
317.8953662883527045
 31
-0.0000000000000657
210
0.0
220
1.0
230
-0.0000000000000002
  0
LINE
  5
B47
  8
0
  6
CONTINUOUS
 62
     3
 10
-189.2428077303443104
 20
318.8953662883537845
 30
-0.0000000000000659
 11
-190.2428077303449925
 21
317.8953662883527045
 31
-0.0000000000000657
210
0.0
220
1.0
230
-0.0000000000000002
  0
LINE
  5
B48
  8
0
  6
CONTINUOUS
 62
     3
 10
-189.2428077303449072
 20
316.8953662883537845
 30
-0.0000000000000655
 11
-190.2428077303451062
 21
317.8953662883525908
 31
-0.0000000000000657
210
0.0
220
1.0
230
-0.0000000000000002
  0
LINE
  5
B49
  8
0
  6
CONTINUOUS
 62
     3
 10
-181.2428077303447935
 20
316.8953662883537845
 30
-0.0000000000000655
 11
-180.2428077303447083
 21
317.8953662883525908
 31
-0.0000000000000657
210
0.0
220
1.0
230
-0.0000000000000002
  0
LINE
  5
B4A
  8
0
  6
CONTINUOUS
 62
     3
 10
-181.2428077303449072
 20
316.8953662883537845
 30
-0.0000000000000655
 11
-180.2428077303461862
 21
315.8953662883538982
 31
-0.0000000000000653
210
0.0
220
1.0
230
-0.0000000000000002
  0
LINE
  5
B4B
  8
0
  6
CONTINUOUS
 62
     3
 10
-189.2428077303449072
 20
316.8953662883537845
 30
-0.0000000000000655
 11
-190.2428077303434861
 21
315.8953662883538982
 31
-0.0000000000000653
210
0.0
220
1.0
230
-0.0000000000000002
  0
LINE
  5
B4C
  8
0
  6
CONTINUOUS
 62
     3
 10
-189.2428077303449072
 20
314.8953662883553193
 30
-0.0000000000000651
 11
-190.2428077303434861
 21
315.8953662883538982
 31
-0.0000000000000653
210
0.0
220
1.0
230
-0.0000000000000002
  0
LINE
  5
B4D
  8
0
  6
CONTINUOUS
 62
     3
 10
-181.2428077303449072
 20
314.8953662883553193
 30
-0.0000000000000651
 11
-180.2428077303461862
 21
315.8953662883538982
 31
-0.0000000000000653
210
0.0
220
1.0
230
-0.0000000000000002
  0
LINE
  5
B4E
  8
0
  6
CONTINUOUS
 62
     3
 10
-181.2428077303449072
 20
314.8953662883552056
 30
-0.0000000000000651
 11
-180.2428077303449925
 21
313.8953662883538982
 31
-0.0000000000000648
210
0.0
220
1.0
230
-0.0000000000000002
  0
LINE
  5
B4F
  8
0
  6
CONTINUOUS
 62
     3
 10
-189.2428077303447935
 20
314.8953662883552056
 30
-0.0000000000000651
 11
-190.2428077303447083
 21
313.8953662883538982
 31
-0.0000000000000648
210
0.0
220
1.0
230
-0.0000000000000002
  0
LINE
  5
B50
  8
0
  6
CONTINUOUS
 62
     3
 10
-189.2428077303432872
 20
312.8953662883537845
 30
-0.0000000000000646
 11
-190.2428077303447935
 21
313.8953662883538982
 31
-0.0000000000000648
210
0.0
220
1.0
230
-0.0000000000000002
  0
LINE
  5
B51
  8
0
  6
CONTINUOUS
 62
     3
 10
-181.2428077303464136
 20
312.8953662883537845
 30
-0.0000000000000646
 11
-180.2428077303449925
 21
313.8953662883538982
 31
-0.0000000000000648
210
0.0
220
1.0
230
-0.0000000000000002
  0
LINE
  5
B52
  8
0
  6
CONTINUOUS
 62
     3
 10
-181.2428077303464988
 20
312.8953662883538982
 30
-0.0000000000000646
 11
-180.2428077303449925
 21
311.8953662883538982
 31
-0.0000000000000644
210
0.0
220
1.0
230
-0.0000000000000002
  0
LINE
  5
B53
  8
0
  6
CONTINUOUS
 62
     3
 10
-189.2428077303432872
 20
312.8953662883538982
 30
-0.0000000000000646
 11
-190.2428077303447935
 21
311.8953662883538982
 31
-0.0000000000000644
210
0.0
220
1.0
230
-0.0000000000000002
  0
LINE
  5
B54
  8
0
  6
CONTINUOUS
 62
     3
 10
-189.2428077303447935
 20
310.8953662883540119
 30
-0.0000000000000642
 11
-190.2428077303447083
 21
311.8953662883538982
 31
-0.0000000000000644
210
0.0
220
1.0
230
-0.0000000000000002
  0
LINE
  5
B55
  8
0
  6
CONTINUOUS
 62
     3
 10
-181.2428077303449072
 20
310.8953662883540119
 30
-0.0000000000000642
 11
-180.2428077303449925
 21
311.8953662883538982
 31
-0.0000000000000644
210
0.0
220
1.0
230
-0.0000000000000002
  0
LINE
  5
B56
  8
0
  6
CONTINUOUS
 62
     3
 10
-181.2428077303449072
 20
310.8953662883538982
 30
-0.0000000000000642
 11
-180.2428077303449925
 21
309.8953662883538982
 31
-0.0000000000000639
210
0.0
220
1.0
230
-0.0000000000000002
  0
LINE
  5
B57
  8
0
  6
CONTINUOUS
 62
     3
 10
-189.2428077303447935
 20
310.8953662883538982
 30
-0.0000000000000642
 11
-190.2428077303447083
 21
309.8953662883538982
 31
-0.0000000000000639
210
0.0
220
1.0
230
-0.0000000000000002
  0
LINE
  5
B58
  8
0
  6
CONTINUOUS
 62
     3
 10
-189.2428077303447935
 20
308.8953662883541256
 30
-0.0000000000000637
 11
-190.2428077303447935
 21
309.8953662883538982
 31
-0.0000000000000639
210
0.0
220
1.0
230
-0.0000000000000002
  0
LINE
  5
B59
  8
0
  6
CONTINUOUS
 62
     3
 10
-181.2428077303449072
 20
308.8953662883541256
 30
-0.0000000000000637
 11
-180.2428077303449925
 21
309.8953662883538982
 31
-0.0000000000000639
210
0.0
220
1.0
230
-0.0000000000000002
  0
LINE
  5
B5A
  8
0
  6
CONTINUOUS
 62
     3
 10
-181.2428077303449072
 20
308.8953662883541256
 30
-0.0000000000000637
 11
-180.2428077303451062
 21
307.8953662883538982
 31
-0.0000000000000635
210
0.0
220
1.0
230
-0.0000000000000002
  0
LINE
  5
B5B
  8
0
  6
CONTINUOUS
 62
     3
 10
-189.2428077303447935
 20
308.8953662883541256
 30
-0.0000000000000637
 11
-190.2428077303447083
 21
307.8953662883538982
 31
-0.0000000000000635
210
0.0
220
1.0
230
-0.0000000000000002
  0
LINE
  5
B5C
  8
0
  6
CONTINUOUS
 62
     3
 10
-189.2428077303443956
 20
306.8953662883540119
 30
-0.0000000000000633
 11
-190.2428077303447083
 21
307.8953662883538982
 31
-0.0000000000000635
210
0.0
220
1.0
230
-0.0000000000000002
  0
LINE
  5
B5D
  8
0
  6
CONTINUOUS
 62
     3
 10
-181.2428077303453904
 20
306.8953662883540119
 30
-0.0000000000000633
 11
-180.2428077303449925
 21
307.8953662883538982
 31
-0.0000000000000635
210
0.0
220
1.0
230
-0.0000000000000002
  0
LINE
  5
B5E
  8
0
  6
CONTINUOUS
 62
     3
 10
-181.2428077303453051
 20
306.8953662883540119
 30
-0.0000000000000633
 11
-180.2428077303447083
 21
305.8953662883532161
 31
-0.0000000000000631
210
0.0
220
1.0
230
-0.0000000000000002
  0
LINE
  5
B5F
  8
0
  6
CONTINUOUS
 62
     3
 10
-189.2428077303445093
 20
306.8953662883540119
 30
-0.0000000000000633
 11
-190.2428077303451062
 21
305.8953662883532161
 31
-0.0000000000000631
210
0.0
220
1.0
230
-0.0000000000000002
  0
LINE
  5
B60
  8
0
  6
CONTINUOUS
 62
     3
 10
-189.2428077303449072
 20
304.8953662883544098
 30
-0.0000000000000628
 11
-190.2428077303449925
 21
305.8953662883529887
 31
-0.0000000000000631
210
0.0
220
1.0
230
-0.0000000000000002
  0
LINE
  5
B61
  8
0
  6
CONTINUOUS
 62
     3
 10
-181.2428077303449072
 20
304.8953662883542961
 30
-0.0000000000000628
 11
-180.2428077303447935
 21
305.8953662883529887
 31
-0.0000000000000631
210
0.0
220
1.0
230
-0.0000000000000002
  0
LINE
  5
B62
  8
0
  6
CONTINUOUS
 62
     3
 10
-181.2428077303449072
 20
304.8953662883542961
 30
-0.0000000000000628
 11
-180.2428077303451062
 21
303.8953662883538982
 31
-0.0000000000000626
210
0.0
220
1.0
230
-0.0000000000000002
  0
LINE
  5
B63
  8
0
  6
CONTINUOUS
 62
     3
 10
-189.2428077303447935
 20
304.8953662883542961
 30
-0.0000000000000628
 11
-190.2428077303447083
 21
303.8953662883538982
 31
-0.0000000000000626
210
0.0
220
1.0
230
-0.0000000000000002
  0
LINE
  5
B64
  8
0
  6
CONTINUOUS
 62
     3
 10
-189.2428077303441967
 20
302.8953662883540119
 30
-0.0000000000000624
 11
-190.2428077303447935
 21
303.8953662883538982
 31
-0.0000000000000626
210
0.0
220
1.0
230
-0.0000000000000002
  0
LINE
  5
B65
  8
0
  6
CONTINUOUS
 62
     3
 10
-181.2428077303455041
 20
302.8953662883540119
 30
-0.0000000000000624
 11
-180.2428077303449925
 21
303.8953662883538982
 31
-0.0000000000000626
210
0.0
220
1.0
230
-0.0000000000000002
  0
LINE
  5
B66
  8
0
  6
CONTINUOUS
 62
     3
 10
-181.2428077303455893
 20
302.8953662883540119
 30
-0.0000000000000624
 11
-180.2428077303447935
 21
301.8953662883537845
 31
-0.0000000000000622
210
0.0
220
1.0
230
-0.0000000000000002
  0
LINE
  5
B67
  8
0
  6
CONTINUOUS
 62
     3
 10
-189.2428077303441967
 20
302.8953662883540119
 30
-0.0000000000000624
 11
-190.2428077303449925
 21
301.8953662883537845
 31
-0.0000000000000622
210
0.0
220
1.0
230
-0.0000000000000002
  0
LINE
  5
B68
  8
0
  6
CONTINUOUS
 62
     3
 10
7.2073283073431176
 20
21.8953662883541291
 30
0.0
 11
-123.6929437680334019
 21
21.8953662883541291
 31
0.0
210
0.0
220
1.0
230
-0.0000000000000002
  0
LINE
  5
B69
  8
0
  6
CONTINUOUS
 62
     3
 10
22.3744714293624085
 20
284.3012575491385974
 30
-0.0000000000000583
 11
-138.8600868900527132
 21
284.3012575491385974
 31
-0.0000000000000583
210
0.0
220
1.0
230
-0.0000000000000002
  0
LINE
  5
B6A
  8
0
  6
CONTINUOUS
 62
     3
 10
21.1122052564459217
 20
285.1116180298541849
 30
-0.0000000000000584
 11
-137.5978207171361873
 21
285.1116180298541849
 31
-0.0000000000000584
210
0.0
220
1.0
230
-0.0000000000000002
  0
LINE
  5
B6B
  8
0
  6
CONTINUOUS
 62
     3
 10
-123.6929437680333024
 20
21.8953662883541291
 30
0.0
 11
-124.7428077303444951
 21
33.8953662883541611
 31
-0.0000000000000027
210
0.0
220
1.0
230
-0.0000000000000002
  0
LINE
  5
B6C
  8
0
  6
CONTINUOUS
 62
     3
 10
7.2073283073430607
 20
21.8953662883541291
 30
0.0
 11
8.2571922696542401
 21
33.8953662883541611
 31
-0.0000000000000027
210
0.0
220
1.0
230
-0.0000000000000002
  0
LINE
  5
B6D
  8
0
  6
CONTINUOUS
 62
     3
 10
-124.7428077303445946
 20
33.8953662883541469
 30
-0.0000000000000027
 11
-124.7428077303445946
 21
260.8444953739335119
 31
-0.0000000000000531
210
0.0
220
1.0
230
-0.0000000000000002
  0
LINE
  5
B6E
  8
0
  6
CONTINUOUS
 62
     3
 10
8.2571922696544107
 20
33.8953662883541469
 30
-0.0000000000000027
 11
8.2571922696544107
 21
260.8444953739335119
 31
-0.0000000000000531
210
0.0
220
1.0
230
-0.0000000000000002
  0
ARC
  5
B6F
  8
0
  6
CONTINUOUS
 62
     3
 10
-13.2571922696544497
 20
260.8444953739336256
 30
-0.0000000000000049
 40
4.9999999999999281
210
0.0
220
-0.0000000000000002
230
-1.0
 50
359.9999999999989768
 51
32.6999999999991076
  0
ARC
  5
B70
  8
0
  6
CONTINUOUS
 62
     3
 10
129.7428077303447083
 20
260.8444953739336256
 30
-0.0000000000000049
 40
4.9999999999999343
210
0.0
220
-0.0000000000000002
230
-1.0
 50
147.3000000000008924
 51
180.0000000000009948
  0
LINE
  5
B71
  8
0
  6
CONTINUOUS
 62
     3
 10
-125.5352538206180952
 20
263.5456969763217785
 30
-0.0000000000000537
 11
-138.8600868900525995
 21
284.3012575491387111
 31
-0.0000000000000583
210
0.0
220
1.0
230
-0.0000000000000002
  0
LINE
  5
B72
  8
0
  6
CONTINUOUS
 62
     3
 10
9.0496383599278811
 20
263.5456969763217785
 30
-0.0000000000000537
 11
22.3744714293623588
 21
284.3012575491387111
 31
-0.0000000000000583
210
0.0
220
1.0
230
-0.0000000000000002
  0
LINE
  5
B73
  8
0
  6
CONTINUOUS
 62
     3
 10
21.1122052564458897
 20
285.1116180298541849
 30
-0.0000000000000584
 11
22.3744714293624511
 21
284.3012575491385974
 31
-0.0000000000000583
210
0.0
220
1.0
230
-0.0000000000000002
  0
LINE
  5
B74
  8
0
  6
CONTINUOUS
 62
     3
 10
-137.5978207171361873
 20
285.1116180298541849
 30
-0.0000000000000584
 11
-138.8600868900527132
 21
284.3012575491385974
 31
-0.0000000000000583
210
0.0
220
1.0
230
-0.0000000000000002
  0
LINE
  5
B75
  8
0
  6
CONTINUOUS
 62
     3
 10
-126.7428077303451062
 20
325.8953662883537845
 30
-0.0000000000000675
 11
-116.7428077303450067
 21
325.8953662883537845
 31
-0.0000000000000675
210
0.0
220
1.0
230
-0.0000000000000002
  0
LINE
  5
B76
  8
0
  6
CONTINUOUS
 62
     3
 10
-125.7428077303450067
 20
326.8953662883537277
 30
-0.0000000000000677
 11
-117.7428077303451062
 21
326.8953662883537277
 31
-0.0000000000000677
210
0.0
220
1.0
230
-0.0000000000000002
  0
LINE
  5
B77
  8
0
  6
CONTINUOUS
 62
     3
 10
-125.7428077303450067
 20
324.8953662883537277
 30
-0.0000000000000673
 11
-117.7428077303451062
 21
324.8953662883537277
 31
-0.0000000000000673
210
0.0
220
1.0
230
-0.0000000000000002
  0
LINE
  5
B78
  8
0
  6
CONTINUOUS
 62
     3
 10
-126.7428077303450067
 20
323.8953662883537845
 30
-0.0000000000000671
 11
-116.7428077303452056
 21
323.8953662883537845
 31
-0.0000000000000671
210
0.0
220
1.0
230
-0.0000000000000002
  0
LINE
  5
B79
  8
0
  6
CONTINUOUS
 62
     3
 10
-125.7428077303450067
 20
322.8953662883538982
 30
-0.0000000000000668
 11
-117.7428077303451062
 21
322.8953662883538982
 31
-0.0000000000000668
210
0.0
220
1.0
230
-0.0000000000000002
  0
LINE
  5
B7A
  8
0
  6
CONTINUOUS
 62
     3
 10
-126.7428077303450067
 20
321.8953662883537845
 30
-0.0000000000000666
 11
-116.7428077303452056
 21
321.8953662883537845
 31
-0.0000000000000666
210
0.0
220
1.0
230
-0.0000000000000002
  0
LINE
  5
B7B
  8
0
  6
CONTINUOUS
 62
     3
 10
-125.7428077303450067
 20
320.8953662883541256
 30
-0.0000000000000664
 11
-117.7428077303451062
 21
320.8953662883541256
 31
-0.0000000000000664
210
0.0
220
1.0
230
-0.0000000000000002
  0
LINE
  5
B7C
  8
0
  6
CONTINUOUS
 62
     3
 10
-126.7428077303450067
 20
319.8953662883538982
 30
-0.0000000000000662
 11
-116.7428077303452056
 21
319.8953662883538982
 31
-0.0000000000000662
210
0.0
220
1.0
230
-0.0000000000000002
  0
LINE
  5
B7D
  8
0
  6
CONTINUOUS
 62
     3
 10
-125.7428077303443956
 20
318.8953662883537845
 30
-0.0000000000000659
 11
-117.7428077303456035
 21
318.8953662883537845
 31
-0.0000000000000659
210
0.0
220
1.0
230
-0.0000000000000002
  0
LINE
  5
B7E
  8
0
  6
CONTINUOUS
 62
     3
 10
-126.7428077303451062
 20
317.8953662883527045
 30
-0.0000000000000657
 11
-116.7428077303450067
 21
317.8953662883527045
 31
-0.0000000000000657
210
0.0
220
1.0
230
-0.0000000000000002
  0
LINE
  5
B7F
  8
0
  6
CONTINUOUS
 62
     3
 10
-125.7428077303451062
 20
316.8953662883537845
 30
-0.0000000000000655
 11
-117.7428077303450067
 21
316.8953662883537845
 31
-0.0000000000000655
210
0.0
220
1.0
230
-0.0000000000000002
  0
LINE
  5
B80
  8
0
  6
CONTINUOUS
 62
     3
 10
-126.7428077303436993
 20
315.8953662883538982
 30
-0.0000000000000653
 11
-116.7428077303463994
 21
315.8953662883538982
 31
-0.0000000000000653
210
0.0
220
1.0
230
-0.0000000000000002
  0
LINE
  5
B81
  8
0
  6
CONTINUOUS
 62
     3
 10
-125.7428077303451062
 20
314.8953662883553193
 30
-0.0000000000000651
 11
-117.7428077303450067
 21
314.8953662883553193
 31
-0.0000000000000651
210
0.0
220
1.0
230
-0.0000000000000002
  0
LINE
  5
B82
  8
0
  6
CONTINUOUS
 62
     3
 10
-126.7428077303450067
 20
313.8953662883538982
 30
-0.0000000000000648
 11
-116.7428077303452056
 21
313.8953662883538982
 31
-0.0000000000000648
210
0.0
220
1.0
230
-0.0000000000000002
  0
LINE
  5
B83
  8
0
  6
CONTINUOUS
 62
     3
 10
-125.7428077303434009
 20
312.8953662883538982
 30
-0.0000000000000646
 11
-117.7428077303465983
 21
312.8953662883538982
 31
-0.0000000000000646
210
0.0
220
1.0
230
-0.0000000000000002
  0
LINE
  5
B84
  8
0
  6
CONTINUOUS
 62
     3
 10
-126.7428077303450067
 20
311.8953662883538982
 30
-0.0000000000000644
 11
-116.7428077303452056
 21
311.8953662883538982
 31
-0.0000000000000644
210
0.0
220
1.0
230
-0.0000000000000002
  0
LINE
  5
B85
  8
0
  6
CONTINUOUS
 62
     3
 10
-125.7428077303450067
 20
310.8953662883540119
 30
-0.0000000000000642
 11
-117.7428077303450067
 21
310.8953662883540119
 31
-0.0000000000000642
210
0.0
220
1.0
230
-0.0000000000000002
  0
LINE
  5
B86
  8
0
  6
CONTINUOUS
 62
     3
 10
-126.7428077303450067
 20
309.8953662883538982
 30
-0.0000000000000639
 11
-116.7428077303452056
 21
309.8953662883538982
 31
-0.0000000000000639
210
0.0
220
1.0
230
-0.0000000000000002
  0
LINE
  5
B87
  8
0
  6
CONTINUOUS
 62
     3
 10
-125.7428077303450067
 20
308.8953662883541256
 30
-0.0000000000000637
 11
-117.7428077303450067
 21
308.8953662883541256
 31
-0.0000000000000637
210
0.0
220
1.0
230
-0.0000000000000002
  0
LINE
  5
B88
  8
0
  6
CONTINUOUS
 62
     3
 10
-126.7428077303450067
 20
307.8953662883538982
 30
-0.0000000000000635
 11
-116.7428077303452056
 21
307.8953662883538982
 31
-0.0000000000000635
210
0.0
220
1.0
230
-0.0000000000000002
  0
LINE
  5
B89
  8
0
  6
CONTINUOUS
 62
     3
 10
-125.7428077303445946
 20
306.8953662883540119
 30
-0.0000000000000633
 11
-117.7428077303455041
 21
306.8953662883540119
 31
-0.0000000000000633
210
0.0
220
1.0
230
-0.0000000000000002
  0
LINE
  5
B8A
  8
0
  6
CONTINUOUS
 62
     3
 10
-126.7428077303451062
 20
305.8953662883531024
 30
-0.0000000000000631
 11
-116.7428077303450067
 21
305.8953662883531024
 31
-0.0000000000000631
210
0.0
220
1.0
230
-0.0000000000000002
  0
LINE
  5
B8B
  8
0
  6
CONTINUOUS
 62
     3
 10
-125.7428077303450067
 20
304.8953662883544098
 30
-0.0000000000000628
 11
-117.7428077303450067
 21
304.8953662883544098
 31
-0.0000000000000628
210
0.0
220
1.0
230
-0.0000000000000002
  0
LINE
  5
B8C
  8
0
  6
CONTINUOUS
 62
     3
 10
-126.7428077303450067
 20
303.8953662883538982
 30
-0.0000000000000626
 11
-116.7428077303452056
 21
303.8953662883538982
 31
-0.0000000000000626
210
0.0
220
1.0
230
-0.0000000000000002
  0
LINE
  5
B8D
  8
0
  6
CONTINUOUS
 62
     3
 10
-125.7428077303443956
 20
302.8953662883540119
 30
-0.0000000000000624
 11
-117.742807730345703
 21
302.8953662883540119
 31
-0.0000000000000624
210
0.0
220
1.0
230
-0.0000000000000002
  0
LINE
  5
B8E
  8
0
  6
CONTINUOUS
 62
     3
 10
-117.7428077303450067
 20
326.8953662883537845
 30
-0.0000000000000677
 11
-116.742807730344893
 21
325.8953662883537845
 31
-0.0000000000000675
210
0.0
220
1.0
230
-0.0000000000000002
  0
LINE
  5
B8F
  8
0
  6
CONTINUOUS
 62
     3
 10
-125.7428077303451062
 20
326.8953662883537845
 30
-0.0000000000000677
 11
-126.7428077303452056
 21
325.8953662883537845
 31
-0.0000000000000675
210
0.0
220
1.0
230
-0.0000000000000002
  0
LINE
  5
B90
  8
0
  6
CONTINUOUS
 62
     3
 10
-125.7428077303451062
 20
324.8953662883537277
 30
-0.0000000000000673
 11
-126.7428077303452056
 21
325.8953662883537845
 31
-0.0000000000000675
210
0.0
220
1.0
230
-0.0000000000000002
  0
LINE
  5
B91
  8
0
  6
CONTINUOUS
 62
     3
 10
-117.7428077303450067
 20
324.8953662883537277
 30
-0.0000000000000673
 11
-116.742807730344893
 21
325.8953662883537845
 31
-0.0000000000000675
210
0.0
220
1.0
230
-0.0000000000000002
  0
LINE
  5
B92
  8
0
  6
CONTINUOUS
 62
     3
 10
-117.7428077303451062
 20
324.8953662883537277
 30
-0.0000000000000673
 11
-116.7428077303452056
 21
323.8953662883537845
 31
-0.0000000000000671
210
0.0
220
1.0
230
-0.0000000000000002
  0
LINE
  5
B93
  8
0
  6
CONTINUOUS
 62
     3
 10
-125.7428077303450067
 20
324.8953662883537277
 30
-0.0000000000000673
 11
-126.742807730344893
 21
323.8953662883537845
 31
-0.0000000000000671
210
0.0
220
1.0
230
-0.0000000000000002
  0
LINE
  5
B94
  8
0
  6
CONTINUOUS
 62
     3
 10
-125.7428077303450067
 20
322.8953662883538982
 30
-0.0000000000000668
 11
-126.742807730344893
 21
323.8953662883538982
 31
-0.0000000000000671
210
0.0
220
1.0
230
-0.0000000000000002
  0
LINE
  5
B95
  8
0
  6
CONTINUOUS
 62
     3
 10
-117.7428077303451062
 20
322.8953662883538982
 30
-0.0000000000000668
 11
-116.7428077303452056
 21
323.8953662883538982
 31
-0.0000000000000671
210
0.0
220
1.0
230
-0.0000000000000002
  0
LINE
  5
B96
  8
0
  6
CONTINUOUS
 62
     3
 10
-117.7428077303451062
 20
322.8953662883537845
 30
-0.0000000000000668
 11
-116.7428077303452056
 21
321.8953662883537845
 31
-0.0000000000000666
210
0.0
220
1.0
230
-0.0000000000000002
  0
LINE
  5
B97
  8
0
  6
CONTINUOUS
 62
     3
 10
-125.7428077303450067
 20
322.8953662883537845
 30
-0.0000000000000668
 11
-126.742807730344893
 21
321.8953662883537845
 31
-0.0000000000000666
210
0.0
220
1.0
230
-0.0000000000000002
  0
LINE
  5
B98
  8
0
  6
CONTINUOUS
 62
     3
 10
-125.7428077303450067
 20
320.8953662883541824
 30
-0.0000000000000664
 11
-126.742807730344893
 21
321.8953662883537845
 31
-0.0000000000000666
210
0.0
220
1.0
230
-0.0000000000000002
  0
LINE
  5
B99
  8
0
  6
CONTINUOUS
 62
     3
 10
-117.7428077303451062
 20
320.8953662883541824
 30
-0.0000000000000664
 11
-116.7428077303452056
 21
321.8953662883537845
 31
-0.0000000000000666
210
0.0
220
1.0
230
-0.0000000000000002
  0
LINE
  5
B9A
  8
0
  6
CONTINUOUS
 62
     3
 10
-117.7428077303451062
 20
320.8953662883541256
 30
-0.0000000000000664
 11
-116.7428077303452056
 21
319.8953662883538982
 31
-0.0000000000000662
210
0.0
220
1.0
230
-0.0000000000000002
  0
LINE
  5
B9B
  8
0
  6
CONTINUOUS
 62
     3
 10
-125.7428077303450067
 20
320.8953662883541256
 30
-0.0000000000000664
 11
-126.742807730344893
 21
319.8953662883538982
 31
-0.0000000000000662
210
0.0
220
1.0
230
-0.0000000000000002
  0
LINE
  5
B9C
  8
0
  6
CONTINUOUS
 62
     3
 10
-125.7428077303444951
 20
318.8953662883537845
 30
-0.0000000000000659
 11
-126.742807730344893
 21
319.8953662883538982
 31
-0.0000000000000662
210
0.0
220
1.0
230
-0.0000000000000002
  0
LINE
  5
B9D
  8
0
  6
CONTINUOUS
 62
     3
 10
-117.7428077303456035
 20
318.8953662883537845
 30
-0.0000000000000659
 11
-116.7428077303452056
 21
319.8953662883538982
 31
-0.0000000000000662
210
0.0
220
1.0
230
-0.0000000000000002
  0
LINE
  5
B9E
  8
0
  6
CONTINUOUS
 62
     3
 10
-117.7428077303456035
 20
318.8953662883537845
 30
-0.0000000000000659
 11
-116.742807730344893
 21
317.8953662883527045
 31
-0.0000000000000657
210
0.0
220
1.0
230
-0.0000000000000002
  0
LINE
  5
B9F
  8
0
  6
CONTINUOUS
 62
     3
 10
-125.7428077303444951
 20
318.8953662883537845
 30
-0.0000000000000659
 11
-126.7428077303452056
 21
317.8953662883527045
 31
-0.0000000000000657
210
0.0
220
1.0
230
-0.0000000000000002
  0
LINE
  5
BA0
  8
0
  6
CONTINUOUS
 62
     3
 10
-125.7428077303451062
 20
316.8953662883537845
 30
-0.0000000000000655
 11
-126.7428077303452056
 21
317.8953662883525908
 31
-0.0000000000000657
210
0.0
220
1.0
230
-0.0000000000000002
  0
LINE
  5
BA1
  8
0
  6
CONTINUOUS
 62
     3
 10
-117.7428077303450067
 20
316.8953662883537845
 30
-0.0000000000000655
 11
-116.742807730344893
 21
317.8953662883525908
 31
-0.0000000000000657
210
0.0
220
1.0
230
-0.0000000000000002
  0
LINE
  5
BA2
  8
0
  6
CONTINUOUS
 62
     3
 10
-117.7428077303450067
 20
316.8953662883537845
 30
-0.0000000000000655
 11
-116.7428077303463994
 21
315.8953662883538982
 31
-0.0000000000000653
210
0.0
220
1.0
230
-0.0000000000000002
  0
LINE
  5
BA3
  8
0
  6
CONTINUOUS
 62
     3
 10
-125.7428077303451062
 20
316.8953662883537845
 30
-0.0000000000000655
 11
-126.7428077303436993
 21
315.8953662883538982
 31
-0.0000000000000653
210
0.0
220
1.0
230
-0.0000000000000002
  0
LINE
  5
BA4
  8
0
  6
CONTINUOUS
 62
     3
 10
-125.7428077303450067
 20
314.8953662883553193
 30
-0.0000000000000651
 11
-126.7428077303436993
 21
315.8953662883538982
 31
-0.0000000000000653
210
0.0
220
1.0
230
-0.0000000000000002
  0
LINE
  5
BA5
  8
0
  6
CONTINUOUS
 62
     3
 10
-117.7428077303451062
 20
314.8953662883553193
 30
-0.0000000000000651
 11
-116.7428077303463994
 21
315.8953662883538982
 31
-0.0000000000000653
210
0.0
220
1.0
230
-0.0000000000000002
  0
LINE
  5
BA6
  8
0
  6
CONTINUOUS
 62
     3
 10
-117.7428077303451062
 20
314.8953662883553193
 30
-0.0000000000000651
 11
-116.7428077303452056
 21
313.8953662883538982
 31
-0.0000000000000648
210
0.0
220
1.0
230
-0.0000000000000002
  0
LINE
  5
BA7
  8
0
  6
CONTINUOUS
 62
     3
 10
-125.7428077303450067
 20
314.8953662883553193
 30
-0.0000000000000651
 11
-126.742807730344893
 21
313.8953662883538982
 31
-0.0000000000000648
210
0.0
220
1.0
230
-0.0000000000000002
  0
LINE
  5
BA8
  8
0
  6
CONTINUOUS
 62
     3
 10
-125.7428077303435003
 20
312.8953662883537845
 30
-0.0000000000000646
 11
-126.7428077303450067
 21
313.8953662883538982
 31
-0.0000000000000648
210
0.0
220
1.0
230
-0.0000000000000002
  0
LINE
  5
BA9
  8
0
  6
CONTINUOUS
 62
     3
 10
-117.7428077303465983
 20
312.8953662883537845
 30
-0.0000000000000646
 11
-116.7428077303451062
 21
313.8953662883538982
 31
-0.0000000000000648
210
0.0
220
1.0
230
-0.0000000000000002
  0
LINE
  5
BAA
  8
0
  6
CONTINUOUS
 62
     3
 10
-117.7428077303465983
 20
312.8953662883538982
 30
-0.0000000000000646
 11
-116.7428077303451062
 21
311.8953662883538982
 31
-0.0000000000000644
210
0.0
220
1.0
230
-0.0000000000000002
  0
LINE
  5
BAB
  8
0
  6
CONTINUOUS
 62
     3
 10
-125.7428077303435003
 20
312.8953662883538982
 30
-0.0000000000000646
 11
-126.7428077303450067
 21
311.8953662883538982
 31
-0.0000000000000644
210
0.0
220
1.0
230
-0.0000000000000002
  0
LINE
  5
BAC
  8
0
  6
CONTINUOUS
 62
     3
 10
-125.7428077303450067
 20
310.8953662883540119
 30
-0.0000000000000642
 11
-126.742807730344893
 21
311.8953662883538982
 31
-0.0000000000000644
210
0.0
220
1.0
230
-0.0000000000000002
  0
LINE
  5
BAD
  8
0
  6
CONTINUOUS
 62
     3
 10
-117.7428077303451062
 20
310.8953662883540119
 30
-0.0000000000000642
 11
-116.7428077303452056
 21
311.8953662883540119
 31
-0.0000000000000644
210
0.0
220
1.0
230
-0.0000000000000002
  0
LINE
  5
BAE
  8
0
  6
CONTINUOUS
 62
     3
 10
-117.7428077303451062
 20
310.8953662883540119
 30
-0.0000000000000642
 11
-116.7428077303452056
 21
309.8953662883538982
 31
-0.0000000000000639
210
0.0
220
1.0
230
-0.0000000000000002
  0
LINE
  5
BAF
  8
0
  6
CONTINUOUS
 62
     3
 10
-125.7428077303450067
 20
310.8953662883540119
 30
-0.0000000000000642
 11
-126.742807730344893
 21
309.8953662883538982
 31
-0.0000000000000639
210
0.0
220
1.0
230
-0.0000000000000002
  0
LINE
  5
BB0
  8
0
  6
CONTINUOUS
 62
     3
 10
-125.7428077303450067
 20
308.8953662883541256
 30
-0.0000000000000637
 11
-126.742807730344893
 21
309.8953662883538982
 31
-0.0000000000000639
210
0.0
220
1.0
230
-0.0000000000000002
  0
LINE
  5
BB1
  8
0
  6
CONTINUOUS
 62
     3
 10
-117.7428077303451062
 20
308.8953662883541256
 30
-0.0000000000000637
 11
-116.7428077303452056
 21
309.8953662883538982
 31
-0.0000000000000639
210
0.0
220
1.0
230
-0.0000000000000002
  0
LINE
  5
BB2
  8
0
  6
CONTINUOUS
 62
     3
 10
-117.7428077303451062
 20
308.8953662883541256
 30
-0.0000000000000637
 11
-116.7428077303452056
 21
307.8953662883538982
 31
-0.0000000000000635
210
0.0
220
1.0
230
-0.0000000000000002
  0
LINE
  5
BB3
  8
0
  6
CONTINUOUS
 62
     3
 10
-125.7428077303450067
 20
308.8953662883541256
 30
-0.0000000000000637
 11
-126.742807730344893
 21
307.8953662883538982
 31
-0.0000000000000635
210
0.0
220
1.0
230
-0.0000000000000002
  0
LINE
  5
BB4
  8
0
  6
CONTINUOUS
 62
     3
 10
-125.7428077303445946
 20
306.8953662883540119
 30
-0.0000000000000633
 11
-126.742807730344893
 21
307.8953662883538982
 31
-0.0000000000000635
210
0.0
220
1.0
230
-0.0000000000000002
  0
LINE
  5
BB5
  8
0
  6
CONTINUOUS
 62
     3
 10
-117.7428077303455041
 20
306.8953662883540119
 30
-0.0000000000000633
 11
-116.7428077303452056
 21
307.8953662883540119
 31
-0.0000000000000635
210
0.0
220
1.0
230
-0.0000000000000002
  0
LINE
  5
BB6
  8
0
  6
CONTINUOUS
 62
     3
 10
-117.7428077303455041
 20
306.8953662883540119
 30
-0.0000000000000633
 11
-116.742807730344893
 21
305.8953662883532161
 31
-0.0000000000000631
210
0.0
220
1.0
230
-0.0000000000000002
  0
LINE
  5
BB7
  8
0
  6
CONTINUOUS
 62
     3
 10
-125.7428077303445946
 20
306.8953662883540119
 30
-0.0000000000000633
 11
-126.7428077303452056
 21
305.8953662883532161
 31
-0.0000000000000631
210
0.0
220
1.0
230
-0.0000000000000002
  0
LINE
  5
BB8
  8
0
  6
CONTINUOUS
 62
     3
 10
-125.7428077303451062
 20
304.8953662883544098
 30
-0.0000000000000628
 11
-126.7428077303452056
 21
305.8953662883529887
 31
-0.0000000000000631
210
0.0
220
1.0
230
-0.0000000000000002
  0
LINE
  5
BB9
  8
0
  6
CONTINUOUS
 62
     3
 10
-117.7428077303450067
 20
304.8953662883544098
 30
-0.0000000000000628
 11
-116.742807730344893
 21
305.8953662883529887
 31
-0.0000000000000631
210
0.0
220
1.0
230
-0.0000000000000002
  0
LINE
  5
BBA
  8
0
  6
CONTINUOUS
 62
     3
 10
-117.7428077303451062
 20
304.8953662883542961
 30
-0.0000000000000628
 11
-116.7428077303452056
 21
303.8953662883538982
 31
-0.0000000000000626
210
0.0
220
1.0
230
-0.0000000000000002
  0
LINE
  5
BBB
  8
0
  6
CONTINUOUS
 62
     3
 10
-125.7428077303450067
 20
304.8953662883542961
 30
-0.0000000000000628
 11
-126.742807730344893
 21
303.8953662883538982
 31
-0.0000000000000626
210
0.0
220
1.0
230
-0.0000000000000002
  0
LINE
  5
BBC
  8
0
  6
CONTINUOUS
 62
     3
 10
-125.7428077303443956
 20
302.8953662883540119
 30
-0.0000000000000624
 11
-126.7428077303450067
 21
303.8953662883538982
 31
-0.0000000000000626
210
0.0
220
1.0
230
-0.0000000000000002
  0
LINE
  5
BBD
  8
0
  6
CONTINUOUS
 62
     3
 10
-117.742807730345703
 20
302.8953662883538982
 30
-0.0000000000000624
 11
-116.7428077303451062
 21
303.8953662883538982
 31
-0.0000000000000626
210
0.0
220
1.0
230
-0.0000000000000002
  0
LINE
  5
BBE
  8
0
  6
CONTINUOUS
 62
     3
 10
-117.742807730345703
 20
302.8953662883540119
 30
-0.0000000000000624
 11
-116.742807730344893
 21
301.8953662883537845
 31
-0.0000000000000622
210
0.0
220
1.0
230
-0.0000000000000002
  0
LINE
  5
BBF
  8
0
  6
CONTINUOUS
 62
     3
 10
-125.7428077303443956
 20
302.8953662883540119
 30
-0.0000000000000624
 11
-126.7428077303452056
 21
301.8953662883537845
 31
-0.0000000000000622
210
0.0
220
1.0
230
-0.0000000000000002
  0
LINE
  5
BC0
  8
0
  6
CONTINUOUS
 62
     3
 10
0.2571922696545741
 20
325.8953662883537845
 30
-0.0000000000000675
 11
10.25719226965494
 21
325.8953662883537845
 31
-0.0000000000000675
210
0.0
220
1.0
230
-0.0000000000000002
  0
LINE
  5
BC1
  8
0
  6
CONTINUOUS
 62
     3
 10
1.257192269654694
 20
326.8953662883537277
 30
-0.0000000000000677
 11
9.2571922696548086
 21
326.8953662883537277
 31
-0.0000000000000677
210
0.0
220
1.0
230
-0.0000000000000002
  0
LINE
  5
BC2
  8
0
  6
CONTINUOUS
 62
     3
 10
1.257192269654694
 20
324.8953662883537277
 30
-0.0000000000000673
 11
9.2571922696548086
 21
324.8953662883537277
 31
-0.0000000000000673
210
0.0
220
1.0
230
-0.0000000000000002
  0
LINE
  5
BC3
  8
0
  6
CONTINUOUS
 62
     3
 10
0.257192269654908
 20
323.8953662883537845
 30
-0.0000000000000671
 11
10.2571922696547109
 21
323.8953662883537845
 31
-0.0000000000000671
210
0.0
220
1.0
230
-0.0000000000000002
  0
LINE
  5
BC4
  8
0
  6
CONTINUOUS
 62
     3
 10
1.257192269654694
 20
322.8953662883538982
 30
-0.0000000000000668
 11
9.2571922696548086
 21
322.8953662883538982
 31
-0.0000000000000668
210
0.0
220
1.0
230
-0.0000000000000002
  0
LINE
  5
BC5
  8
0
  6
CONTINUOUS
 62
     3
 10
0.257192269654908
 20
321.8953662883537845
 30
-0.0000000000000666
 11
10.2571922696547109
 21
321.8953662883537845
 31
-0.0000000000000666
210
0.0
220
1.0
230
-0.0000000000000002
  0
LINE
  5
BC6
  8
0
  6
CONTINUOUS
 62
     3
 10
1.257192269654694
 20
320.8953662883541256
 30
-0.0000000000000664
 11
9.2571922696548086
 21
320.8953662883541256
 31
-0.0000000000000664
210
0.0
220
1.0
230
-0.0000000000000002
  0
LINE
  5
BC7
  8
0
  6
CONTINUOUS
 62
     3
 10
0.257192269654908
 20
319.8953662883538982
 30
-0.0000000000000662
 11
10.2571922696547109
 21
319.8953662883538982
 31
-0.0000000000000662
210
0.0
220
1.0
230
-0.0000000000000002
  0
LINE
  5
BC8
  8
0
  6
CONTINUOUS
 62
     3
 10
1.257192269655377
 20
318.8953662883537845
 30
-0.0000000000000659
 11
9.2571922696542401
 21
318.8953662883537845
 31
-0.0000000000000659
210
0.0
220
1.0
230
-0.0000000000000002
  0
LINE
  5
BC9
  8
0
  6
CONTINUOUS
 62
     3
 10
0.2571922696545741
 20
317.8953662883527045
 30
-0.0000000000000657
 11
10.25719226965494
 21
317.8953662883527045
 31
-0.0000000000000657
210
0.0
220
1.0
230
-0.0000000000000002
  0
LINE
  5
BCA
  8
0
  6
CONTINUOUS
 62
     3
 10
1.257192269654694
 20
316.8953662883537845
 30
-0.0000000000000655
 11
9.2571922696548086
 21
316.8953662883537845
 31
-0.0000000000000655
210
0.0
220
1.0
230
-0.0000000000000002
  0
LINE
  5
BCB
  8
0
  6
CONTINUOUS
 62
     3
 10
0.2571922696561728
 20
315.8953662883538982
 30
-0.0000000000000653
 11
10.2571922696534408
 21
315.8953662883538982
 31
-0.0000000000000653
210
0.0
220
1.0
230
-0.0000000000000002
  0
LINE
  5
BCC
  8
0
  6
CONTINUOUS
 62
     3
 10
1.257192269654694
 20
314.8953662883553193
 30
-0.0000000000000651
 11
9.2571922696548086
 21
314.8953662883553193
 31
-0.0000000000000651
210
0.0
220
1.0
230
-0.0000000000000002
  0
LINE
  5
BCD
  8
0
  6
CONTINUOUS
 62
     3
 10
0.257192269654908
 20
313.8953662883538982
 30
-0.0000000000000648
 11
10.2571922696547109
 21
313.8953662883538982
 31
-0.0000000000000648
210
0.0
220
1.0
230
-0.0000000000000002
  0
LINE
  5
BCE
  8
0
  6
CONTINUOUS
 62
     3
 10
1.2571922696564
 20
312.8953662883538982
 30
-0.0000000000000646
 11
9.2571922696532152
 21
312.8953662883538982
 31
-0.0000000000000646
210
0.0
220
1.0
230
-0.0000000000000002
  0
LINE
  5
BCF
  8
0
  6
CONTINUOUS
 62
     3
 10
0.257192269654908
 20
311.8953662883538982
 30
-0.0000000000000644
 11
10.2571922696547109
 21
311.8953662883538982
 31
-0.0000000000000644
210
0.0
220
1.0
230
-0.0000000000000002
  0
LINE
  5
BD0
  8
0
  6
CONTINUOUS
 62
     3
 10
1.257192269654694
 20
310.8953662883540119
 30
-0.0000000000000642
 11
9.2571922696548086
 21
310.8953662883540119
 31
-0.0000000000000642
210
0.0
220
1.0
230
-0.0000000000000002
  0
LINE
  5
BD1
  8
0
  6
CONTINUOUS
 62
     3
 10
0.257192269654908
 20
309.8953662883538982
 30
-0.0000000000000639
 11
10.2571922696547109
 21
309.8953662883538982
 31
-0.0000000000000639
210
0.0
220
1.0
230
-0.0000000000000002
  0
LINE
  5
BD2
  8
0
  6
CONTINUOUS
 62
     3
 10
1.257192269654694
 20
308.8953662883541256
 30
-0.0000000000000637
 11
9.2571922696548086
 21
308.8953662883541256
 31
-0.0000000000000637
210
0.0
220
1.0
230
-0.0000000000000002
  0
LINE
  5
BD3
  8
0
  6
CONTINUOUS
 62
     3
 10
0.257192269654908
 20
307.8953662883538982
 30
-0.0000000000000635
 11
10.2571922696547109
 21
307.8953662883538982
 31
-0.0000000000000635
210
0.0
220
1.0
230
-0.0000000000000002
  0
LINE
  5
BD4
  8
0
  6
CONTINUOUS
 62
     3
 10
1.2571922696551561
 20
306.8953662883540119
 30
-0.0000000000000633
 11
9.2571922696543396
 21
306.8953662883540119
 31
-0.0000000000000633
210
0.0
220
1.0
230
-0.0000000000000002
  0
LINE
  5
BD5
  8
0
  6
CONTINUOUS
 62
     3
 10
0.2571922696545741
 20
305.8953662883531024
 30
-0.0000000000000631
 11
10.25719226965494
 21
305.8953662883531024
 31
-0.0000000000000631
210
0.0
220
1.0
230
-0.0000000000000002
  0
LINE
  5
BD6
  8
0
  6
CONTINUOUS
 62
     3
 10
1.257192269654694
 20
304.8953662883544098
 30
-0.0000000000000628
 11
9.2571922696548086
 21
304.8953662883544098
 31
-0.0000000000000628
210
0.0
220
1.0
230
-0.0000000000000002
  0
LINE
  5
BD7
  8
0
  6
CONTINUOUS
 62
     3
 10
0.257192269654908
 20
303.8953662883538982
 30
-0.0000000000000626
 11
10.2571922696547109
 21
303.8953662883538982
 31
-0.0000000000000626
210
0.0
220
1.0
230
-0.0000000000000002
  0
LINE
  5
BD8
  8
0
  6
CONTINUOUS
 62
     3
 10
1.2571922696553841
 20
302.8953662883540119
 30
-0.0000000000000624
 11
9.2571922696541264
 21
302.8953662883540119
 31
-0.0000000000000624
210
0.0
220
1.0
230
-0.0000000000000002
  0
LINE
  5
BD9
  8
0
  6
CONTINUOUS
 62
     3
 10
9.2571922696548512
 20
326.8953662883537845
 30
-0.0000000000000677
 11
10.2571922696549596
 21
325.8953662883537845
 31
-0.0000000000000675
210
0.0
220
1.0
230
-0.0000000000000002
  0
LINE
  5
BDA
  8
0
  6
CONTINUOUS
 62
     3
 10
1.257192269654765
 20
326.8953662883537845
 30
-0.0000000000000677
 11
0.2571922696546522
 21
325.8953662883537845
 31
-0.0000000000000675
210
0.0
220
1.0
230
-0.0000000000000002
  0
LINE
  5
BDB
  8
0
  6
CONTINUOUS
 62
     3
 10
1.2571922696547939
 20
324.8953662883537277
 30
-0.0000000000000673
 11
0.2571922696546807
 21
325.8953662883537845
 31
-0.0000000000000675
210
0.0
220
1.0
230
-0.0000000000000002
  0
LINE
  5
BDC
  8
0
  6
CONTINUOUS
 62
     3
 10
9.2571922696548228
 20
324.8953662883537277
 30
-0.0000000000000673
 11
10.25719226965494
 21
325.8953662883537845
 31
-0.0000000000000675
210
0.0
220
1.0
230
-0.0000000000000002
  0
LINE
  5
BDD
  8
0
  6
CONTINUOUS
 62
     3
 10
9.2571922696547944
 20
324.8953662883537277
 30
-0.0000000000000673
 11
10.2571922696546807
 21
323.8953662883537845
 31
-0.0000000000000671
210
0.0
220
1.0
230
-0.0000000000000002
  0
LINE
  5
BDE
  8
0
  6
CONTINUOUS
 62
     3
 10
1.2571922696548219
 20
324.8953662883537277
 30
-0.0000000000000673
 11
0.2571922696549365
 21
323.8953662883537845
 31
-0.0000000000000671
210
0.0
220
1.0
230
-0.0000000000000002
  0
LINE
  5
BDF
  8
0
  6
CONTINUOUS
 62
     3
 10
1.257192269654865
 20
322.8953662883538982
 30
-0.0000000000000668
 11
0.2571922696549223
 21
323.8953662883538982
 31
-0.0000000000000671
210
0.0
220
1.0
230
-0.0000000000000002
  0
LINE
  5
BE0
  8
0
  6
CONTINUOUS
 62
     3
 10
9.2571922696547517
 20
322.8953662883538982
 30
-0.0000000000000668
 11
10.2571922696546896
 21
323.8953662883538982
 31
-0.0000000000000671
210
0.0
220
1.0
230
-0.0000000000000002
  0
LINE
  5
BE1
  8
0
  6
CONTINUOUS
 62
     3
 10
9.2571922696548086
 20
322.8953662883537845
 30
-0.0000000000000668
 11
10.2571922696546398
 21
321.8953662883537845
 31
-0.0000000000000666
210
0.0
220
1.0
230
-0.0000000000000002
  0
LINE
  5
BE2
  8
0
  6
CONTINUOUS
 62
     3
 10
1.2571922696548079
 20
322.8953662883537845
 30
-0.0000000000000668
 11
0.2571922696549791
 21
321.8953662883537845
 31
-0.0000000000000666
210
0.0
220
1.0
230
-0.0000000000000002
  0
LINE
  5
BE3
  8
0
  6
CONTINUOUS
 62
     3
 10
1.2571922696548079
 20
320.8953662883541824
 30
-0.0000000000000664
 11
0.2571922696549791
 21
321.8953662883537845
 31
-0.0000000000000666
210
0.0
220
1.0
230
-0.0000000000000002
  0
LINE
  5
BE4
  8
0
  6
CONTINUOUS
 62
     3
 10
9.2571922696548086
 20
320.8953662883541824
 30
-0.0000000000000664
 11
10.2571922696546398
 21
321.8953662883537845
 31
-0.0000000000000666
210
0.0
220
1.0
230
-0.0000000000000002
  0
LINE
  5
BE5
  8
0
  6
CONTINUOUS
 62
     3
 10
9.2571922696547944
 20
320.8953662883541256
 30
-0.0000000000000664
 11
10.2571922696546807
 21
319.8953662883538982
 31
-0.0000000000000662
210
0.0
220
1.0
230
-0.0000000000000002
  0
LINE
  5
BE6
  8
0
  6
CONTINUOUS
 62
     3
 10
1.2571922696548219
 20
320.8953662883541256
 30
-0.0000000000000664
 11
0.2571922696549365
 21
319.8953662883538982
 31
-0.0000000000000662
210
0.0
220
1.0
230
-0.0000000000000002
  0
LINE
  5
BE7
  8
0
  6
CONTINUOUS
 62
     3
 10
1.257192269655377
 20
318.8953662883537845
 30
-0.0000000000000659
 11
0.2571922696549223
 21
319.8953662883538982
 31
-0.0000000000000662
210
0.0
220
1.0
230
-0.0000000000000002
  0
LINE
  5
BE8
  8
0
  6
CONTINUOUS
 62
     3
 10
9.2571922696542401
 20
318.8953662883537845
 30
-0.0000000000000659
 11
10.2571922696546896
 21
319.8953662883538982
 31
-0.0000000000000662
210
0.0
220
1.0
230
-0.0000000000000002
  0
LINE
  5
BE9
  8
0
  6
CONTINUOUS
 62
     3
 10
9.2571922696542241
 20
318.8953662883537845
 30
-0.0000000000000659
 11
10.2571922696549098
 21
317.8953662883527045
 31
-0.0000000000000657
210
0.0
220
1.0
230
-0.0000000000000002
  0
LINE
  5
BEA
  8
0
  6
CONTINUOUS
 62
     3
 10
1.257192269655391
 20
318.8953662883537845
 30
-0.0000000000000659
 11
0.2571922696547091
 21
317.8953662883527045
 31
-0.0000000000000657
210
0.0
220
1.0
230
-0.0000000000000002
  0
LINE
  5
BEB
  8
0
  6
CONTINUOUS
 62
     3
 10
1.257192269654765
 20
316.8953662883537845
 30
-0.0000000000000655
 11
0.2571922696546522
 21
317.8953662883525908
 31
-0.0000000000000657
210
0.0
220
1.0
230
-0.0000000000000002
  0
LINE
  5
BEC
  8
0
  6
CONTINUOUS
 62
     3
 10
9.2571922696548512
 20
316.8953662883537845
 30
-0.0000000000000655
 11
10.2571922696549596
 21
317.8953662883525908
 31
-0.0000000000000657
210
0.0
220
1.0
230
-0.0000000000000002
  0
LINE
  5
BED
  8
0
  6
CONTINUOUS
 62
     3
 10
9.2571922696548228
 20
316.8953662883537845
 30
-0.0000000000000655
 11
10.2571922696534603
 21
315.8953662883538982
 31
-0.0000000000000653
210
0.0
220
1.0
230
-0.0000000000000002
  0
LINE
  5
BEE
  8
0
  6
CONTINUOUS
 62
     3
 10
1.2571922696547939
 20
316.8953662883537845
 30
-0.0000000000000655
 11
0.2571922696561586
 21
315.8953662883538982
 31
-0.0000000000000653
210
0.0
220
1.0
230
-0.0000000000000002
  0
LINE
  5
BEF
  8
0
  6
CONTINUOUS
 62
     3
 10
1.2571922696548079
 20
314.8953662883553193
 30
-0.0000000000000651
 11
0.2571922696561728
 21
315.8953662883538982
 31
-0.0000000000000653
210
0.0
220
1.0
230
-0.0000000000000002
  0
LINE
  5
BF0
  8
0
  6
CONTINUOUS
 62
     3
 10
9.2571922696548086
 20
314.8953662883553193
 30
-0.0000000000000651
 11
10.2571922696534408
 21
315.8953662883538982
 31
-0.0000000000000653
210
0.0
220
1.0
230
-0.0000000000000002
  0
LINE
  5
BF1
  8
0
  6
CONTINUOUS
 62
     3
 10
9.2571922696547801
 20
314.8953662883552056
 30
-0.0000000000000651
 11
10.2571922696546594
 21
313.8953662883538982
 31
-0.0000000000000648
210
0.0
220
1.0
230
-0.0000000000000002
  0
LINE
  5
BF2
  8
0
  6
CONTINUOUS
 62
     3
 10
1.2571922696548361
 20
314.8953662883553193
 30
-0.0000000000000651
 11
0.2571922696549507
 21
313.8953662883538982
 31
-0.0000000000000648
210
0.0
220
1.0
230
-0.0000000000000002
  0
LINE
  5
BF3
  8
0
  6
CONTINUOUS
 62
     3
 10
1.2571922696563711
 20
312.8953662883538982
 30
-0.0000000000000646
 11
0.2571922696548938
 21
313.8953662883538982
 31
-0.0000000000000648
210
0.0
220
1.0
230
-0.0000000000000002
  0
LINE
  5
BF4
  8
0
  6
CONTINUOUS
 62
     3
 10
9.2571922696532454
 20
312.8953662883537845
 30
-0.0000000000000646
 11
10.2571922696547198
 21
313.8953662883538982
 31
-0.0000000000000648
210
0.0
220
1.0
230
-0.0000000000000002
  0
LINE
  5
BF5
  8
0
  6
CONTINUOUS
 62
     3
 10
9.2571922696532312
 20
312.8953662883538982
 30
-0.0000000000000646
 11
10.2571922696547109
 21
311.8953662883538982
 31
-0.0000000000000644
210
0.0
220
1.0
230
-0.0000000000000002
  0
LINE
  5
BF6
  8
0
  6
CONTINUOUS
 62
     3
 10
1.2571922696563851
 20
312.8953662883538982
 30
-0.0000000000000646
 11
0.257192269654908
 21
311.8953662883538982
 31
-0.0000000000000644
210
0.0
220
1.0
230
-0.0000000000000002
  0
LINE
  5
BF7
  8
0
  6
CONTINUOUS
 62
     3
 10
1.2571922696548361
 20
310.8953662883540119
 30
-0.0000000000000642
 11
0.2571922696549507
 21
311.8953662883538982
 31
-0.0000000000000644
210
0.0
220
1.0
230
-0.0000000000000002
  0
LINE
  5
BF8
  8
0
  6
CONTINUOUS
 62
     3
 10
9.2571922696547801
 20
310.8953662883540119
 30
-0.0000000000000642
 11
10.2571922696546594
 21
311.8953662883540119
 31
-0.0000000000000644
210
0.0
220
1.0
230
-0.0000000000000002
  0
LINE
  5
BF9
  8
0
  6
CONTINUOUS
 62
     3
 10
9.2571922696547801
 20
310.8953662883538982
 30
-0.0000000000000642
 11
10.2571922696546594
 21
309.8953662883538982
 31
-0.0000000000000639
210
0.0
220
1.0
230
-0.0000000000000002
  0
LINE
  5
BFA
  8
0
  6
CONTINUOUS
 62
     3
 10
1.2571922696548361
 20
310.8953662883540119
 30
-0.0000000000000642
 11
0.2571922696549507
 21
309.8953662883538982
 31
-0.0000000000000639
210
0.0
220
1.0
230
-0.0000000000000002
  0
LINE
  5
BFB
  8
0
  6
CONTINUOUS
 62
     3
 10
1.2571922696548219
 20
308.8953662883541256
 30
-0.0000000000000637
 11
0.2571922696549365
 21
309.8953662883538982
 31
-0.0000000000000639
210
0.0
220
1.0
230
-0.0000000000000002
  0
LINE
  5
BFC
  8
0
  6
CONTINUOUS
 62
     3
 10
9.2571922696547944
 20
308.8953662883541256
 30
-0.0000000000000637
 11
10.2571922696546807
 21
309.8953662883538982
 31
-0.0000000000000639
210
0.0
220
1.0
230
-0.0000000000000002
  0
LINE
  5
BFD
  8
0
  6
CONTINUOUS
 62
     3
 10
9.2571922696547642
 20
308.8953662883541256
 30
-0.0000000000000637
 11
10.2571922696546505
 21
307.8953662883538982
 31
-0.0000000000000635
210
0.0
220
1.0
230
-0.0000000000000002
  0
LINE
  5
BFE
  8
0
  6
CONTINUOUS
 62
     3
 10
1.257192269654851
 20
308.8953662883541256
 30
-0.0000000000000637
 11
0.2571922696549649
 21
307.8953662883538982
 31
-0.0000000000000635
210
0.0
220
1.0
230
-0.0000000000000002
  0
LINE
  5
BFF
  8
0
  6
CONTINUOUS
 62
     3
 10
1.2571922696552911
 20
306.8953662883540119
 30
-0.0000000000000633
 11
0.2571922696549507
 21
307.8953662883538982
 31
-0.0000000000000635
210
0.0
220
1.0
230
-0.0000000000000002
  0
LINE
  5
C00
  8
0
  6
CONTINUOUS
 62
     3
 10
9.2571922696543254
 20
306.8953662883540119
 30
-0.0000000000000633
 11
10.2571922696546594
 21
307.8953662883540119
 31
-0.0000000000000635
210
0.0
220
1.0
230
-0.0000000000000002
  0
LINE
  5
C01
  8
0
  6
CONTINUOUS
 62
     3
 10
9.2571922696543965
 20
306.8953662883540119
 30
-0.0000000000000633
 11
10.2571922696549596
 21
305.8953662883532161
 31
-0.0000000000000631
210
0.0
220
1.0
230
-0.0000000000000002
  0
LINE
  5
C02
  8
0
  6
CONTINUOUS
 62
     3
 10
1.25719226965522
 20
306.8953662883540119
 30
-0.0000000000000633
 11
0.2571922696546522
 21
305.8953662883532161
 31
-0.0000000000000631
210
0.0
220
1.0
230
-0.0000000000000002
  0
LINE
  5
C03
  8
0
  6
CONTINUOUS
 62
     3
 10
1.2571922696547511
 20
304.8953662883544098
 30
-0.0000000000000628
 11
0.2571922696546949
 21
305.8953662883529887
 31
-0.0000000000000631
210
0.0
220
1.0
230
-0.0000000000000002
  0
LINE
  5
C04
  8
0
  6
CONTINUOUS
 62
     3
 10
9.2571922696548654
 20
304.8953662883544098
 30
-0.0000000000000628
 11
10.2571922696549205
 21
305.8953662883529887
 31
-0.0000000000000631
210
0.0
220
1.0
230
-0.0000000000000002
  0
LINE
  5
C05
  8
0
  6
CONTINUOUS
 62
     3
 10
9.2571922696547642
 20
304.8953662883542961
 30
-0.0000000000000628
 11
10.2571922696546505
 21
303.8953662883538982
 31
-0.0000000000000626
210
0.0
220
1.0
230
-0.0000000000000002
  0
LINE
  5
C06
  8
0
  6
CONTINUOUS
 62
     3
 10
1.257192269654851
 20
304.8953662883542961
 30
-0.0000000000000628
 11
0.2571922696549649
 21
303.8953662883538982
 31
-0.0000000000000626
210
0.0
220
1.0
230
-0.0000000000000002
  0
LINE
  5
C07
  8
0
  6
CONTINUOUS
 62
     3
 10
1.257192269655462
 20
302.8953662883540119
 30
-0.0000000000000624
 11
0.2571922696548938
 21
303.8953662883538982
 31
-0.0000000000000626
210
0.0
220
1.0
230
-0.0000000000000002
  0
LINE
  5
C08
  8
0
  6
CONTINUOUS
 62
     3
 10
9.2571922696541549
 20
302.8953662883538982
 30
-0.0000000000000624
 11
10.2571922696547198
 21
303.8953662883538982
 31
-0.0000000000000626
210
0.0
220
1.0
230
-0.0000000000000002
  0
LINE
  5
C09
  8
0
  6
CONTINUOUS
 62
     3
 10
9.2571922696541122
 20
302.8953662883540119
 30
-0.0000000000000624
 11
10.2571922696549098
 21
301.8953662883537845
 31
-0.0000000000000622
210
0.0
220
1.0
230
-0.0000000000000002
  0
LINE
  5
C0A
  8
0
  6
CONTINUOUS
 62
     3
 10
1.257192269655504
 20
302.8953662883540119
 30
-0.0000000000000624
 11
0.2571922696547091
 21
301.8953662883537845
 31
-0.0000000000000622
210
0.0
220
1.0
230
-0.0000000000000002
  0
LINE
  5
C0B
  8
0
  6
CONTINUOUS
 62
     3
 10
63.757192269654638
 20
325.8953662883537845
 30
-0.0000000000000675
 11
73.7571922696548654
 21
325.8953662883537845
 31
-0.0000000000000675
210
0.0
220
1.0
230
-0.0000000000000002
  0
LINE
  5
C0C
  8
0
  6
CONTINUOUS
 62
     3
 10
64.7571922696547517
 20
326.8953662883537277
 30
-0.0000000000000677
 11
72.7571922696547517
 21
326.8953662883537277
 31
-0.0000000000000677
210
0.0
220
1.0
230
-0.0000000000000002
  0
LINE
  5
C0D
  8
0
  6
CONTINUOUS
 62
     3
 10
64.7571922696547517
 20
324.8953662883537277
 30
-0.0000000000000673
 11
72.7571922696547517
 21
324.8953662883537277
 31
-0.0000000000000673
210
0.0
220
1.0
230
-0.0000000000000002
  0
LINE
  5
C0E
  8
0
  6
CONTINUOUS
 62
     3
 10
63.7571922696548583
 20
323.8953662883537845
 30
-0.0000000000000671
 11
73.757192269654638
 21
323.8953662883537845
 31
-0.0000000000000671
210
0.0
220
1.0
230
-0.0000000000000002
  0
LINE
  5
C0F
  8
0
  6
CONTINUOUS
 62
     3
 10
64.7571922696547517
 20
322.8953662883538982
 30
-0.0000000000000668
 11
72.7571922696547517
 21
322.8953662883538982
 31
-0.0000000000000668
210
0.0
220
1.0
230
-0.0000000000000002
  0
LINE
  5
C10
  8
0
  6
CONTINUOUS
 62
     3
 10
63.7571922696548583
 20
321.8953662883537845
 30
-0.0000000000000666
 11
73.757192269654638
 21
321.8953662883537845
 31
-0.0000000000000666
210
0.0
220
1.0
230
-0.0000000000000002
  0
LINE
  5
C11
  8
0
  6
CONTINUOUS
 62
     3
 10
64.7571922696547517
 20
320.8953662883541256
 30
-0.0000000000000664
 11
72.7571922696547517
 21
320.8953662883541256
 31
-0.0000000000000664
210
0.0
220
1.0
230
-0.0000000000000002
  0
LINE
  5
C12
  8
0
  6
CONTINUOUS
 62
     3
 10
63.7571922696548583
 20
319.8953662883538982
 30
-0.0000000000000662
 11
73.757192269654638
 21
319.8953662883538982
 31
-0.0000000000000662
210
0.0
220
1.0
230
-0.0000000000000002
  0
LINE
  5
C13
  8
0
  6
CONTINUOUS
 62
     3
 10
64.7571922696553202
 20
318.8953662883537845
 30
-0.0000000000000659
 11
72.7571922696541833
 21
318.8953662883537845
 31
-0.0000000000000659
210
0.0
220
1.0
230
-0.0000000000000002
  0
LINE
  5
C14
  8
0
  6
CONTINUOUS
 62
     3
 10
63.757192269654638
 20
317.8953662883527045
 30
-0.0000000000000657
 11
73.7571922696548654
 21
317.8953662883527045
 31
-0.0000000000000657
210
0.0
220
1.0
230
-0.0000000000000002
  0
LINE
  5
C15
  8
0
  6
CONTINUOUS
 62
     3
 10
64.7571922696547517
 20
316.8953662883537845
 30
-0.0000000000000655
 11
72.7571922696547517
 21
316.8953662883537845
 31
-0.0000000000000655
210
0.0
220
1.0
230
-0.0000000000000002
  0
LINE
  5
C16
  8
0
  6
CONTINUOUS
 62
     3
 10
63.7571922696561089
 20
315.8953662883538982
 30
-0.0000000000000653
 11
73.7571922696533875
 21
315.8953662883538982
 31
-0.0000000000000653
210
0.0
220
1.0
230
-0.0000000000000002
  0
LINE
  5
C17
  8
0
  6
CONTINUOUS
 62
     3
 10
64.7571922696547517
 20
314.8953662883553193
 30
-0.0000000000000651
 11
72.7571922696547517
 21
314.8953662883553193
 31
-0.0000000000000651
210
0.0
220
1.0
230
-0.0000000000000002
  0
LINE
  5
C18
  8
0
  6
CONTINUOUS
 62
     3
 10
63.7571922696548583
 20
313.8953662883538982
 30
-0.0000000000000648
 11
73.757192269654638
 21
313.8953662883538982
 31
-0.0000000000000648
210
0.0
220
1.0
230
-0.0000000000000002
  0
LINE
  5
C19
  8
0
  6
CONTINUOUS
 62
     3
 10
64.7571922696563433
 20
312.8953662883538982
 30
-0.0000000000000646
 11
72.7571922696531601
 21
312.8953662883538982
 31
-0.0000000000000646
210
0.0
220
1.0
230
-0.0000000000000002
  0
LINE
  5
C1A
  8
0
  6
CONTINUOUS
 62
     3
 10
63.7571922696548583
 20
311.8953662883538982
 30
-0.0000000000000644
 11
73.757192269654638
 21
311.8953662883538982
 31
-0.0000000000000644
210
0.0
220
1.0
230
-0.0000000000000002
  0
LINE
  5
C1B
  8
0
  6
CONTINUOUS
 62
     3
 10
64.7571922696547517
 20
310.8953662883540119
 30
-0.0000000000000642
 11
72.7571922696547517
 21
310.8953662883540119
 31
-0.0000000000000642
210
0.0
220
1.0
230
-0.0000000000000002
  0
LINE
  5
C1C
  8
0
  6
CONTINUOUS
 62
     3
 10
63.7571922696548583
 20
309.8953662883538982
 30
-0.0000000000000639
 11
73.757192269654638
 21
309.8953662883538982
 31
-0.0000000000000639
210
0.0
220
1.0
230
-0.0000000000000002
  0
LINE
  5
C1D
  8
0
  6
CONTINUOUS
 62
     3
 10
64.7571922696547517
 20
308.8953662883541256
 30
-0.0000000000000637
 11
72.7571922696547517
 21
308.8953662883541256
 31
-0.0000000000000637
210
0.0
220
1.0
230
-0.0000000000000002
  0
LINE
  5
C1E
  8
0
  6
CONTINUOUS
 62
     3
 10
63.7571922696548583
 20
307.8953662883538982
 30
-0.0000000000000635
 11
73.757192269654638
 21
307.8953662883538982
 31
-0.0000000000000635
210
0.0
220
1.0
230
-0.0000000000000002
  0
LINE
  5
C1F
  8
0
  6
CONTINUOUS
 62
     3
 10
64.7571922696552065
 20
306.8953662883540119
 30
-0.0000000000000633
 11
72.757192269654297
 21
306.8953662883540119
 31
-0.0000000000000633
210
0.0
220
1.0
230
-0.0000000000000002
  0
LINE
  5
C20
  8
0
  6
CONTINUOUS
 62
     3
 10
63.757192269654638
 20
305.8953662883531024
 30
-0.0000000000000631
 11
73.7571922696548654
 21
305.8953662883531024
 31
-0.0000000000000631
210
0.0
220
1.0
230
-0.0000000000000002
  0
LINE
  5
C21
  8
0
  6
CONTINUOUS
 62
     3
 10
64.7571922696547517
 20
304.8953662883544098
 30
-0.0000000000000628
 11
72.7571922696547517
 21
304.8953662883544098
 31
-0.0000000000000628
210
0.0
220
1.0
230
-0.0000000000000002
  0
LINE
  5
C22
  8
0
  6
CONTINUOUS
 62
     3
 10
63.7571922696548583
 20
303.8953662883538982
 30
-0.0000000000000626
 11
73.757192269654638
 21
303.8953662883538982
 31
-0.0000000000000626
210
0.0
220
1.0
230
-0.0000000000000002
  0
LINE
  5
C23
  8
0
  6
CONTINUOUS
 62
     3
 10
64.7571922696554338
 20
302.8953662883540119
 30
-0.0000000000000624
 11
72.7571922696540554
 21
302.8953662883540119
 31
-0.0000000000000624
210
0.0
220
1.0
230
-0.0000000000000002
  0
LINE
  5
C24
  8
0
  6
CONTINUOUS
 62
     3
 10
72.7571922696548086
 20
326.8953662883537845
 30
-0.0000000000000677
 11
73.7571922696549223
 21
325.8953662883537845
 31
-0.0000000000000675
210
0.0
220
1.0
230
-0.0000000000000002
  0
LINE
  5
C25
  8
0
  6
CONTINUOUS
 62
     3
 10
64.7571922696547091
 20
326.8953662883537845
 30
-0.0000000000000677
 11
63.7571922696545883
 21
325.8953662883537845
 31
-0.0000000000000675
210
0.0
220
1.0
230
-0.0000000000000002
  0
LINE
  5
C26
  8
0
  6
CONTINUOUS
 62
     3
 10
64.7571922696547233
 20
324.8953662883537277
 30
-0.0000000000000673
 11
63.7571922696546167
 21
325.8953662883537845
 31
-0.0000000000000675
210
0.0
220
1.0
230
-0.0000000000000002
  0
LINE
  5
C27
  8
0
  6
CONTINUOUS
 62
     3
 10
72.7571922696547517
 20
324.8953662883537277
 30
-0.0000000000000673
 11
73.7571922696548654
 21
325.8953662883537845
 31
-0.0000000000000675
210
0.0
220
1.0
230
-0.0000000000000002
  0
LINE
  5
C28
  8
0
  6
CONTINUOUS
 62
     3
 10
72.7571922696547517
 20
324.8953662883537277
 30
-0.0000000000000673
 11
73.757192269654638
 21
323.8953662883537845
 31
-0.0000000000000671
210
0.0
220
1.0
230
-0.0000000000000002
  0
LINE
  5
C29
  8
0
  6
CONTINUOUS
 62
     3
 10
64.7571922696547659
 20
324.8953662883537277
 30
-0.0000000000000673
 11
63.7571922696548796
 21
323.8953662883537845
 31
-0.0000000000000671
210
0.0
220
1.0
230
-0.0000000000000002
  0
LINE
  5
C2A
  8
0
  6
CONTINUOUS
 62
     3
 10
64.7571922696547801
 20
322.8953662883538982
 30
-0.0000000000000668
 11
63.7571922696549009
 21
323.8953662883538982
 31
-0.0000000000000671
210
0.0
220
1.0
230
-0.0000000000000002
  0
LINE
  5
C2B
  8
0
  6
CONTINUOUS
 62
     3
 10
72.7571922696546949
 20
322.8953662883538982
 30
-0.0000000000000668
 11
73.757192269654638
 21
323.8953662883538982
 31
-0.0000000000000671
210
0.0
220
1.0
230
-0.0000000000000002
  0
LINE
  5
C2C
  8
0
  6
CONTINUOUS
 62
     3
 10
72.7571922696547517
 20
322.8953662883537845
 30
-0.0000000000000668
 11
73.7571922696545812
 21
321.8953662883537845
 31
-0.0000000000000666
210
0.0
220
1.0
230
-0.0000000000000002
  0
LINE
  5
C2D
  8
0
  6
CONTINUOUS
 62
     3
 10
64.7571922696547801
 20
322.8953662883537845
 30
-0.0000000000000668
 11
63.7571922696549009
 21
321.8953662883537845
 31
-0.0000000000000666
210
0.0
220
1.0
230
-0.0000000000000002
  0
LINE
  5
C2E
  8
0
  6
CONTINUOUS
 62
     3
 10
64.7571922696547801
 20
320.8953662883541256
 30
-0.0000000000000664
 11
63.7571922696549009
 21
321.8953662883538982
 31
-0.0000000000000666
210
0.0
220
1.0
230
-0.0000000000000002
  0
LINE
  5
C2F
  8
0
  6
CONTINUOUS
 62
     3
 10
72.7571922696547517
 20
320.8953662883541824
 30
-0.0000000000000664
 11
73.7571922696545812
 21
321.8953662883537845
 31
-0.0000000000000666
210
0.0
220
1.0
230
-0.0000000000000002
  0
LINE
  5
C30
  8
0
  6
CONTINUOUS
 62
     3
 10
72.7571922696547517
 20
320.8953662883541256
 30
-0.0000000000000664
 11
73.757192269654638
 21
319.8953662883538982
 31
-0.0000000000000662
210
0.0
220
1.0
230
-0.0000000000000002
  0
LINE
  5
C31
  8
0
  6
CONTINUOUS
 62
     3
 10
64.7571922696547659
 20
320.8953662883541256
 30
-0.0000000000000664
 11
63.7571922696548796
 21
319.8953662883538982
 31
-0.0000000000000662
210
0.0
220
1.0
230
-0.0000000000000002
  0
LINE
  5
C32
  8
0
  6
CONTINUOUS
 62
     3
 10
64.7571922696553202
 20
318.8953662883537845
 30
-0.0000000000000659
 11
63.7571922696548583
 21
319.8953662883538982
 31
-0.0000000000000662
210
0.0
220
1.0
230
-0.0000000000000002
  0
LINE
  5
C33
  8
0
  6
CONTINUOUS
 62
     3
 10
72.7571922696541833
 20
318.8953662883537845
 30
-0.0000000000000659
 11
73.757192269654638
 21
319.8953662883538982
 31
-0.0000000000000662
210
0.0
220
1.0
230
-0.0000000000000002
  0
LINE
  5
C34
  8
0
  6
CONTINUOUS
 62
     3
 10
72.7571922696541549
 20
318.8953662883537845
 30
-0.0000000000000659
 11
73.7571922696548654
 21
317.8953662883527045
 31
-0.0000000000000657
210
0.0
220
1.0
230
-0.0000000000000002
  0
LINE
  5
C35
  8
0
  6
CONTINUOUS
 62
     3
 10
64.7571922696553344
 20
318.8953662883537845
 30
-0.0000000000000659
 11
63.7571922696546523
 21
317.8953662883527045
 31
-0.0000000000000657
210
0.0
220
1.0
230
-0.0000000000000002
  0
LINE
  5
C36
  8
0
  6
CONTINUOUS
 62
     3
 10
64.7571922696547091
 20
316.8953662883537845
 30
-0.0000000000000655
 11
63.7571922696545883
 21
317.8953662883525908
 31
-0.0000000000000657
210
0.0
220
1.0
230
-0.0000000000000002
  0
LINE
  5
C37
  8
0
  6
CONTINUOUS
 62
     3
 10
72.7571922696548086
 20
316.8953662883537845
 30
-0.0000000000000655
 11
73.7571922696549223
 21
317.8953662883525908
 31
-0.0000000000000657
210
0.0
220
1.0
230
-0.0000000000000002
  0
LINE
  5
C38
  8
0
  6
CONTINUOUS
 62
     3
 10
72.7571922696547517
 20
316.8953662883537845
 30
-0.0000000000000655
 11
73.7571922696533875
 21
315.8953662883538982
 31
-0.0000000000000653
210
0.0
220
1.0
230
-0.0000000000000002
  0
LINE
  5
C39
  8
0
  6
CONTINUOUS
 62
     3
 10
64.7571922696547233
 20
316.8953662883537845
 30
-0.0000000000000655
 11
63.7571922696561018
 21
315.8953662883538982
 31
-0.0000000000000653
210
0.0
220
1.0
230
-0.0000000000000002
  0
LINE
  5
C3A
  8
0
  6
CONTINUOUS
 62
     3
 10
64.7571922696547517
 20
314.8953662883553193
 30
-0.0000000000000651
 11
63.7571922696561089
 21
315.8953662883538982
 31
-0.0000000000000653
210
0.0
220
1.0
230
-0.0000000000000002
  0
LINE
  5
C3B
  8
0
  6
CONTINUOUS
 62
     3
 10
72.7571922696547517
 20
314.8953662883553193
 30
-0.0000000000000651
 11
73.7571922696533875
 21
315.8953662883538982
 31
-0.0000000000000653
210
0.0
220
1.0
230
-0.0000000000000002
  0
LINE
  5
C3C
  8
0
  6
CONTINUOUS
 62
     3
 10
72.7571922696547233
 20
314.8953662883552056
 30
-0.0000000000000651
 11
73.7571922696546096
 21
313.8953662883538982
 31
-0.0000000000000648
210
0.0
220
1.0
230
-0.0000000000000002
  0
LINE
  5
C3D
  8
0
  6
CONTINUOUS
 62
     3
 10
64.7571922696547801
 20
314.8953662883552056
 30
-0.0000000000000651
 11
63.7571922696549009
 21
313.8953662883538982
 31
-0.0000000000000648
210
0.0
220
1.0
230
-0.0000000000000002
  0
LINE
  5
C3E
  8
0
  6
CONTINUOUS
 62
     3
 10
64.7571922696563149
 20
312.8953662883537845
 30
-0.0000000000000646
 11
63.7571922696548299
 21
313.8953662883538982
 31
-0.0000000000000648
210
0.0
220
1.0
230
-0.0000000000000002
  0
LINE
  5
C3F
  8
0
  6
CONTINUOUS
 62
     3
 10
72.7571922696531885
 20
312.8953662883537845
 30
-0.0000000000000646
 11
73.7571922696546665
 21
313.8953662883538982
 31
-0.0000000000000648
210
0.0
220
1.0
230
-0.0000000000000002
  0
LINE
  5
C40
  8
0
  6
CONTINUOUS
 62
     3
 10
72.7571922696531601
 20
312.8953662883538982
 30
-0.0000000000000646
 11
73.757192269654638
 21
311.8953662883538982
 31
-0.0000000000000644
210
0.0
220
1.0
230
-0.0000000000000002
  0
LINE
  5
C41
  8
0
  6
CONTINUOUS
 62
     3
 10
64.7571922696563291
 20
312.8953662883538982
 30
-0.0000000000000646
 11
63.7571922696548512
 21
311.8953662883538982
 31
-0.0000000000000644
210
0.0
220
1.0
230
-0.0000000000000002
  0
LINE
  5
C42
  8
0
  6
CONTINUOUS
 62
     3
 10
64.7571922696547801
 20
310.8953662883540119
 30
-0.0000000000000642
 11
63.7571922696549009
 21
311.8953662883538982
 31
-0.0000000000000644
210
0.0
220
1.0
230
-0.0000000000000002
  0
LINE
  5
C43
  8
0
  6
CONTINUOUS
 62
     3
 10
72.7571922696547233
 20
310.8953662883540119
 30
-0.0000000000000642
 11
73.7571922696546096
 21
311.8953662883538982
 31
-0.0000000000000644
210
0.0
220
1.0
230
-0.0000000000000002
  0
LINE
  5
C44
  8
0
  6
CONTINUOUS
 62
     3
 10
72.7571922696547233
 20
310.8953662883538982
 30
-0.0000000000000642
 11
73.7571922696546096
 21
309.8953662883538982
 31
-0.0000000000000639
210
0.0
220
1.0
230
-0.0000000000000002
  0
LINE
  5
C45
  8
0
  6
CONTINUOUS
 62
     3
 10
64.7571922696547801
 20
310.8953662883538982
 30
-0.0000000000000642
 11
63.7571922696549009
 21
309.8953662883538982
 31
-0.0000000000000639
210
0.0
220
1.0
230
-0.0000000000000002
  0
LINE
  5
C46
  8
0
  6
CONTINUOUS
 62
     3
 10
64.7571922696547659
 20
308.8953662883541256
 30
-0.0000000000000637
 11
63.7571922696548796
 21
309.8953662883538982
 31
-0.0000000000000639
210
0.0
220
1.0
230
-0.0000000000000002
  0
LINE
  5
C47
  8
0
  6
CONTINUOUS
 62
     3
 10
72.7571922696547233
 20
308.8953662883541256
 30
-0.0000000000000637
 11
73.757192269654638
 21
309.8953662883538982
 31
-0.0000000000000639
210
0.0
220
1.0
230
-0.0000000000000002
  0
LINE
  5
C48
  8
0
  6
CONTINUOUS
 62
     3
 10
72.7571922696546949
 20
308.8953662883541256
 30
-0.0000000000000637
 11
73.7571922696545812
 21
307.8953662883538982
 31
-0.0000000000000635
210
0.0
220
1.0
230
-0.0000000000000002
  0
LINE
  5
C49
  8
0
  6
CONTINUOUS
 62
     3
 10
64.7571922696547944
 20
308.8953662883541256
 30
-0.0000000000000637
 11
63.7571922696549009
 21
307.8953662883538982
 31
-0.0000000000000635
210
0.0
220
1.0
230
-0.0000000000000002
  0
LINE
  5
C4A
  8
0
  6
CONTINUOUS
 62
     3
 10
64.7571922696552349
 20
306.8953662883540119
 30
-0.0000000000000633
 11
63.7571922696549009
 21
307.8953662883538982
 31
-0.0000000000000635
210
0.0
220
1.0
230
-0.0000000000000002
  0
LINE
  5
C4B
  8
0
  6
CONTINUOUS
 62
     3
 10
72.7571922696542686
 20
306.8953662883540119
 30
-0.0000000000000633
 11
73.7571922696546096
 21
307.8953662883538982
 31
-0.0000000000000635
210
0.0
220
1.0
230
-0.0000000000000002
  0
LINE
  5
C4C
  8
0
  6
CONTINUOUS
 62
     3
 10
72.7571922696543254
 20
306.8953662883540119
 30
-0.0000000000000633
 11
73.7571922696549223
 21
305.8953662883532161
 31
-0.0000000000000631
210
0.0
220
1.0
230
-0.0000000000000002
  0
LINE
  5
C4D
  8
0
  6
CONTINUOUS
 62
     3
 10
64.7571922696551638
 20
306.8953662883540119
 30
-0.0000000000000633
 11
63.7571922696545883
 21
305.8953662883532161
 31
-0.0000000000000631
210
0.0
220
1.0
230
-0.0000000000000002
  0
LINE
  5
C4E
  8
0
  6
CONTINUOUS
 62
     3
 10
64.7571922696547233
 20
304.8953662883542961
 30
-0.0000000000000628
 11
63.7571922696546096
 21
305.8953662883529887
 31
-0.0000000000000631
210
0.0
220
1.0
230
-0.0000000000000002
  0
LINE
  5
C4F
  8
0
  6
CONTINUOUS
 62
     3
 10
72.7571922696548086
 20
304.8953662883544098
 30
-0.0000000000000628
 11
73.7571922696548654
 21
305.8953662883529887
 31
-0.0000000000000631
210
0.0
220
1.0
230
-0.0000000000000002
  0
LINE
  5
C50
  8
0
  6
CONTINUOUS
 62
     3
 10
72.7571922696546949
 20
304.8953662883542961
 30
-0.0000000000000628
 11
73.7571922696545812
 21
303.8953662883538982
 31
-0.0000000000000626
210
0.0
220
1.0
230
-0.0000000000000002
  0
LINE
  5
C51
  8
0
  6
CONTINUOUS
 62
     3
 10
64.7571922696547944
 20
304.8953662883542961
 30
-0.0000000000000628
 11
63.7571922696549009
 21
303.8953662883538982
 31
-0.0000000000000626
210
0.0
220
1.0
230
-0.0000000000000002
  0
LINE
  5
C52
  8
0
  6
CONTINUOUS
 62
     3
 10
64.7571922696554054
 20
302.8953662883540119
 30
-0.0000000000000624
 11
63.7571922696548299
 21
303.8953662883538982
 31
-0.0000000000000626
210
0.0
220
1.0
230
-0.0000000000000002
  0
LINE
  5
C53
  8
0
  6
CONTINUOUS
 62
     3
 10
72.757192269654098
 20
302.8953662883540119
 30
-0.0000000000000624
 11
73.7571922696546665
 21
303.8953662883538982
 31
-0.0000000000000626
210
0.0
220
1.0
230
-0.0000000000000002
  0
LINE
  5
C54
  8
0
  6
CONTINUOUS
 62
     3
 10
72.7571922696540554
 20
302.8953662883540119
 30
-0.0000000000000624
 11
73.7571922696548654
 21
301.8953662883537845
 31
-0.0000000000000622
210
0.0
220
1.0
230
-0.0000000000000002
  0
LINE
  5
C55
  8
0
  6
CONTINUOUS
 62
     3
 10
64.7571922696554338
 20
302.8953662883540119
 30
-0.0000000000000624
 11
63.7571922696546523
 21
301.8953662883537845
 31
-0.0000000000000622
210
0.0
220
1.0
230
-0.0000000000000002
  0
LINE
  5
C56
  8
0
  6
VERDECKT
 62
     1
 10
-133.9928077303449072
 20
285.0493174273964883
 30
-0.0000000000000584
 11
17.5071922696550892
 21
285.0493174273959767
 31
-0.0000000000000584
210
0.0
220
1.0
230
-0.0000000000000002
  0
LINE
  5
C57
  8
0
  6
VERDECKT
 62
     1
 10
-216.878846699665786
 20
298.8953662883541824
 30
-0.0000000000000615
 11
100.393231238976
 21
298.8953662883532729
 31
-0.0000000000000615
210
0.0
220
1.0
230
-0.0000000000000002
  0
LINE
  5
C58
  8
0
  6
VERDECKT
 62
     1
 10
-136.5173400761808011
 20
283.4285964659637216
 30
-0.0000000000000581
 11
20.03172461549104
 21
283.42859646596321
 31
-0.0000000000000581
210
0.0
220
1.0
230
-0.0000000000000002
  0
LINE
  5
C59
  8
0
  6
VERDECKT
 62
     1
 10
-133.9928077303449072
 20
285.0493174273964883
 30
-0.0000000000000584
 11
-143.0368160770775035
 21
299.13680821122
 31
-0.0000000000000616
210
0.0
220
1.0
230
-0.0000000000000002
  0
LINE
  5
C5A
  8
0
  6
VERDECKT
 62
     1
 10
17.5071922696550608
 20
285.0493174273959767
 30
-0.0000000000000584
 11
26.5512006163877992
 21
299.1368082112196021
 31
-0.0000000000000616
210
0.0
220
1.0
230
-0.0000000000000002
  0
ARC
  5
C5B
  8
0
  6
VERDECKT
 62
     1
 10
148.085880768749405
 20
295.8953662883541256
 30
-0.0000000000000049
 40
6.0
210
0.0
220
-0.0000000000000002
230
-1.0
 50
90.0
 51
147.3000000000004945
  0
ARC
  5
C5C
  8
0
  6
VERDECKT
 62
     1
 10
-31.6002653080597184
 20
295.895366288353614
 30
-0.0000000000000049
 40
6.0000000000000968
210
0.0
220
-0.0000000000000002
230
-1.0
 50
32.7000000000002302
 51
89.9999999999995879
  0
LINE
  5
C5D
  8
0
  6
VERDECKT
 62
     1
 10
102.5145515825354039
 20
298.0166866319129895
 30
-0.0000000000000613
 11
104.6358719260950068
 21
295.8953662883532161
 31
-0.0000000000000608
210
0.0
220
1.0
230
-0.0000000000000002
  0
LINE
  5
C5E
  8
0
  6
VERDECKT
 62
     1
 10
-219.0001670432251899
 20
298.016686631913899
 30
-0.0000000000000613
 11
-221.1214873867847928
 21
295.8953662883541256
 31
-0.0000000000000608
210
0.0
220
1.0
230
-0.0000000000000002
  0
ARC
  5
C5F
  8
0
  6
VERDECKT
 62
     1
 10
216.8788466996660134
 20
295.895366288354694
 30
-0.0000000000000049
 40
2.9999999999994409
210
0.0
220
-0.0000000000000002
230
-1.0
 50
44.9999999999988489
 51
90.0000000000028564
  0
ARC
  5
C60
  8
0
  6
VERDECKT
 62
     1
 10
-100.3932312389759005
 20
295.8953662883533866
 30
-0.0000000000000049
 40
2.9999999999999432
210
0.0
220
-0.0000000000000002
230
-1.0
 50
90.0000000000016058
 51
134.9999999999986073
  0
ARC
  5
C61
  8
0
  6
VERDECKT
 62
     1
 10
148.085880768749405
 20
295.8953662883538982
 30
-0.0000000000000049
 40
3.0000000000001701
210
0.0
220
-0.0000000000000002
230
-1.0
 50
90.0000000000003979
 51
147.2999999999958902
  0
ARC
  5
C62
  8
0
  6
VERDECKT
 62
     1
 10
-31.6002653080596083
 20
295.895366288353614
 30
-0.0000000000000049
 40
3.0000000000000062
210
0.0
220
-0.0000000000000002
230
-1.0
 50
32.7000000000005713
 51
90.0000000000016058
  0
LINE
  5
C63
  8
0
  6
VERDECKT
 62
     1
 10
-136.5173400761808011
 20
283.4285964659637216
 30
-0.0000000000000581
 11
-137.5978207171361021
 21
285.1116180298542986
 31
-0.0000000000000584
210
0.0
220
1.0
230
-0.0000000000000002
  0
LINE
  5
C64
  8
0
  6
VERDECKT
 62
     1
 10
-144.5208640578939026
 20
295.8953662883540119
 30
-0.0000000000000608
 11
-145.5613484229135111
 21
297.5160872497871196
 31
-0.0000000000000612
210
0.0
220
1.0
230
-0.0000000000000002
  0
LINE
  5
C65
  8
0
  6
VERDECKT
 62
     1
 10
20.0317246154910293
 20
283.4285964659633237
 30
-0.0000000000000581
 11
21.1122052564463694
 21
285.1116180298539007
 31
-0.0000000000000584
210
0.0
220
1.0
230
-0.0000000000000002
  0
LINE
  5
C66
  8
0
  6
VERDECKT
 62
     1
 10
28.0352485972041308
 20
295.8953662883535003
 30
-0.0000000000000608
 11
29.0757329622237108
 21
297.516087249786608
 31
-0.0000000000000612
210
0.0
220
1.0
230
-0.0000000000000002
  0
LINE
  5
C67
  8
0
  6
VERDECKT
 62
     1
 10
17.5071922696550999
 20
285.0493174273959767
 30
-0.0000000000000584
 11
20.0317246154910613
 21
283.42859646596321
 31
-0.0000000000000581
210
0.0
220
1.0
230
-0.0000000000000002
  0
LINE
  5
C68
  8
0
  6
VERDECKT
 62
     1
 10
-133.9928077303449072
 20
285.0493174273964883
 30
-0.0000000000000584
 11
-136.5173400761808011
 21
283.4285964659637216
 31
-0.0000000000000581
210
0.0
220
1.0
230
-0.0000000000000002
  0
LINE
  5
C69
  8
0
  6
VERDECKT
 62
     1
 10
-124.2729876477003046
 20
264.3560574570382755
 30
-0.0000000000000538
 11
-137.5978207171361021
 21
285.1116180298541849
 31
-0.0000000000000584
210
0.0
220
1.0
230
-0.0000000000000002
  0
LINE
  5
C6A
  8
0
  6
VERDECKT
 62
     1
 10
7.7873721870100487
 20
264.3560574570382755
 30
-0.0000000000000538
 11
21.1122052564458897
 21
285.1116180298541849
 31
-0.0000000000000584
210
0.0
220
1.0
230
-0.0000000000000002
  0
ARC
  5
C6B
  8
0
  6
VERDECKT
 62
     1
 10
-13.2571922696534994
 20
260.8444953739340235
 30
-0.0000000000000049
 40
6.499999999998848
210
0.0
220
-0.0000000000000002
230
-1.0
 50
0.0
 51
32.7000000000057085
  0
ARC
  5
C6C
  8
0
  6
VERDECKT
 62
     1
 10
129.7428077303437135
 20
260.8444953739340235
 30
-0.0000000000000049
 40
6.4999999999988436
210
0.0
220
-0.0000000000000002
230
-1.0
 50
147.2999999999983061
 51
180.0000000000042064
  0
LINE
  5
C6D
  8
0
  6
VERDECKT
 62
     1
 10
-123.2428077303446941
 20
33.9608577027167726
 30
-0.0000000000000027
 11
-123.2428077303446941
 21
260.8444953739335119
 31
-0.0000000000000531
210
0.0
220
1.0
230
-0.0000000000000002
  0
LINE
  5
C6E
  8
0
  6
VERDECKT
 62
     1
 10
6.7571922696544098
 20
33.9608577027167726
 30
-0.0000000000000027
 11
6.7571922696544098
 21
260.8444953739335119
 31
-0.0000000000000531
210
0.0
220
1.0
230
-0.0000000000000002
  0
LINE
  5
C6F
  8
0
  6
VERDECKT
 62
     1
 10
-122.187214011718396
 20
21.8953662883541291
 30
0.0
 11
-123.2428077303444951
 21
33.9608577027167726
 31
-0.0000000000000027
210
0.0
220
1.0
230
-0.0000000000000002
  0
LINE
  5
C70
  8
0
  6
VERDECKT
 62
     1
 10
5.7015985510281553
 20
21.8953662883541291
 30
0.0
 11
6.7571922696542961
 21
33.9608577027167726
 31
-0.0000000000000027
210
0.0
220
1.0
230
-0.0000000000000002
  0
ENDBLK
  5
C72
  8
0
  0
BLOCK
  8
0
  2
A$C7D0F37F6
 70
     0
 10
0.0
 20
0.0
 30
0.0
  3
A$C7D0F37F6
  1

  0
CIRCLE
  5
C76
  8
0
  6
CONTINUOUS
 62
     3
 10
0.0000000000002858
 20
0.0000000000000806
 30
0.0
 40
75.75
  0
CIRCLE
  5
C77
  8
0
  6
CONTINUOUS
 62
     3
 10
0.0000000000002887
 20
0.0000000000000846
 30
0.0
 40
165.0000000000003979
  0
CIRCLE
  5
C78
  8
0
  6
CONTINUOUS
 62
     3
 10
-126.9999999999997016
 20
0.0000000000000941
 30
0.0
 40
5.0000000000001128
  0
CIRCLE
  5
C79
  8
0
  6
CONTINUOUS
 62
     3
 10
-126.9999999999997016
 20
0.0000000000000946
 30
0.0
 40
4.0
  0
CIRCLE
  5
C7A
  8
0
  6
CONTINUOUS
 62
     3
 10
63.5000000000000711
 20
109.9852262806237064
 30
0.0
 40
5.0000000000001128
  0
CIRCLE
  5
C7B
  8
0
  6
CONTINUOUS
 62
     3
 10
63.5000000000000711
 20
109.9852262806237064
 30
0.0
 40
4.0
  0
CIRCLE
  5
C7C
  8
0
  6
CONTINUOUS
 62
     3
 10
0.0000000000000531
 20
0.0000000000000732
 30
0.0
 40
64.9999999999998863
  0
CIRCLE
  5
C7D
  8
0
  6
CONTINUOUS
 62
     3
 10
0.0
 20
0.0
 30
0.0
 40
63.9444062813732899
  0
CIRCLE
  5
C7E
  8
0
  6
CONTINUOUS
 62
     3
 10
-63.4999999999998721
 20
-109.9852262806232943
 30
0.0
 40
5.0000000000001137
  0
CIRCLE
  5
C7F
  8
0
  6
CONTINUOUS
 62
     3
 10
-63.4999999999998721
 20
-109.9852262806232943
 30
0.0
 40
4.0
  0
CIRCLE
  5
C80
  8
0
  6
CONTINUOUS
 62
     3
 10
63.5000000000000071
 20
-109.9852262806233938
 30
0.0
 40
5.0000000000001137
  0
CIRCLE
  5
C81
  8
0
  6
CONTINUOUS
 62
     3
 10
63.5000000000000071
 20
-109.9852262806233938
 30
0.0
 40
4.0
  0
CIRCLE
  5
C82
  8
0
  6
CONTINUOUS
 62
     3
 10
126.9999999999999005
 20
0.0000000000000664
 30
0.0
 40
5.0000000000001128
  0
CIRCLE
  5
C83
  8
0
  6
CONTINUOUS
 62
     3
 10
126.9999999999999005
 20
0.0000000000000663
 30
0.0
 40
4.0
  0
CIRCLE
  5
C84
  8
0
  6
CONTINUOUS
 62
     3
 10
-63.4999999999997584
 20
109.9852262806237064
 30
0.0
 40
5.0000000000001137
  0
CIRCLE
  5
C85
  8
0
  6
CONTINUOUS
 62
     3
 10
-63.4999999999997584
 20
109.9852262806237064
 30
0.0
 40
4.0
  0
CIRCLE
  5
C86
  8
0
  6
VERDECKT
 62
     1
 10
0.0000000000002882
 20
0.0000000000000839
 30
0.0
 40
162.878679656439914
  0
CIRCLE
  5
C87
  8
0
  6
VERDECKT
 62
     1
 10
0.0000000000002854
 20
0.0000000000000801
 30
0.0
 40
78.2745323458359508
  0
CIRCLE
  5
C88
  8
0
  6
VERDECKT
 62
     1
 10
0.0
 20
0.0
 30
0.0
 40
65.4501360376882531
  0
CIRCLE
  5
C89
  8
0
  6
VERDECKT
 62
     1
 10
0.0000000000000531
 20
0.0000000000000732
 30
0.0
 40
66.4999999999996589
  0
CIRCLE
  5
C8A
  8
0
  6
VERDECKT
 62
     1
 10
0.0000000000000583
 20
0.0000000000000804
 30
0.0
 40
80.617279159707536
  0
CIRCLE
  5
C8B
  8
0
  6
VERDECKT
 62
     1
 10
0.0000000000000584
 20
0.0000000000000806
 30
0.0
 40
79.3550129867910528
  0
ENDBLK
  5
C8D
  8
0
  0
ENDSEC
  0
SECTION
  2
ENTITIES
  0
TEXT
  5
8F
  8
VOLL
 10
78.076754716981128
 20
31.025947764705851
 30
0.0
 40
1.8
  1

  7
GREEKS
  0
INSERT
  5
C73
  8
0
  2
A$C619B33AD
 10
58.2428077303449072
 20
-283.4285964659633805
 30
0.0000000000000577
  0
INSERT
  5
C8E
  8
0
  2
A$C7D0F37F6
 10
-0.0000000000002274
 20
-471.9209224522571162
 30
0.0000000000000577
  0
VIEWPORT
  5
7E8
 67
     1
  8
0
 10
3.635275444811668
 20
4.283363362987715
 30
0.0
 40
16.8224999504850707
 41
8.900793624595277
 68
     1
 69
     1
1001
ACAD
1000
MVIEW
1002
{
1070
    16
1010
0.0
1020
0.0
1030
0.0
1010
0.0
1020
0.0
1030
1.0
1040
0.0
1040
8.900793624595277
1040
3.635275444811668
1040
4.283363362987715
1040
50.0
1040
0.0
1040
0.0
1070
     0
1070
  1500
1070
     1
1070
     1
1070
     0
1070
     0
1070
     0
1070
     0
1040
0.0
1040
0.0
1040
0.0
1040
10.0
1040
10.0
1040
10.0
1040
10.0
1070
     0
1002
{
1002
}
1002
}
  0
ENDSEC
  0
EOF
