  0
SECTION
  2
HEADER
  9
$ACADVER
  1
AC1009
  9
$INSBASE
 10
0.0
 20
0.0
 30
0.0
  9
$EXTMIN
 10
929.8691533348564917
 20
100.6487412275893973
 30
-32.4347629196097813
  9
$EXTMAX
 10
1219.9820722689069044
 20
459.9188716079634105
 30
-32.4307626477818616
  9
$LIMMIN
 10
0.0
 20
0.0
  9
$LIMMAX
 10
210.0
 20
297.0
  9
$ORTHOMODE
 70
     1
  9
$REGENMODE
 70
     1
  9
$FILLMODE
 70
     1
  9
$QTEXTMODE
 70
     0
  9
$MIRRTEXT
 70
     1
  9
$DRAGMODE
 70
     2
  9
$LTSCALE
 40
10.0
  9
$OSMODE
 70
  2495
  9
$ATTMODE
 70
     1
  9
$TEXTSIZE
 40
3.5
  9
$TRACEWID
 40
0.5
  9
$TEXTSTYLE
  7
STANDARD
  9
$CLAYER
  8
STEMPEL
  9
$CELTYPE
  6
BYLAYER
  9
$CECOLOR
 62
   256
  9
$DIMSCALE
 40
1.0
  9
$DIMASZ
 40
3.5
  9
$DIMEXO
 40
1.0
  9
$DIMDLI
 40
7.0
  9
$DIMRND
 40
0.0
  9
$DIMDLE
 40
0.0
  9
$DIMEXE
 40
1.0
  9
$DIMTP
 40
0.0
  9
$DIMTM
 40
0.0
  9
$DIMTXT
 40
3.5
  9
$DIMCEN
 40
1.5
  9
$DIMTSZ
 40
0.0
  9
$DIMTOL
 70
     0
  9
$DIMLIM
 70
     0
  9
$DIMTIH
 70
     0
  9
$DIMTOH
 70
     0
  9
$DIMSE1
 70
     0
  9
$DIMSE2
 70
     0
  9
$DIMTAD
 70
     1
  9
$DIMZIN
 70
     8
  9
$DIMBLK
  1

  9
$DIMASO
 70
     1
  9
$DIMSHO
 70
     0
  9
$DIMPOST
  1

  9
$DIMAPOST
  1

  9
$DIMALT
 70
     0
  9
$DIMALTD
 70
     2
  9
$DIMALTF
 40
25.3999999999999986
  9
$DIMLFAC
 40
2.0
  9
$DIMTOFL
 70
     1
  9
$DIMTVP
 40
0.0
  9
$DIMTIX
 70
     0
  9
$DIMSOXD
 70
     0
  9
$DIMSAH
 70
     0
  9
$DIMBLK1
  1

  9
$DIMBLK2
  1

  9
$DIMSTYLE
  2
STANDARD
  9
$DIMCLRD
 70
     0
  9
$DIMCLRE
 70
     0
  9
$DIMCLRT
 70
     1
  9
$DIMTFAC
 40
0.5
  9
$DIMGAP
 40
1.5
  9
$LUNITS
 70
     2
  9
$LUPREC
 70
     2
  9
$SKETCHINC
 40
1.0
  9
$FILLETRAD
 40
0.0
  9
$AUNITS
 70
     0
  9
$AUPREC
 70
     0
  9
$MENU
  1
ACAD
  9
$ELEVATION
 40
0.0
  9
$PELEVATION
 40
0.0
  9
$THICKNESS
 40
0.0
  9
$LIMCHECK
 70
     0
  9
$BLIPMODE
 70
     0
  9
$CHAMFERA
 40
0.0
  9
$CHAMFERB
 40
0.0
  9
$SKPOLY
 70
     0
  9
$TDCREATE
 40
2455397.8646990740671754
  9
$TDUPDATE
 40
2459051.3539930549450219
  9
$TDINDWG
 40
0.1959878704
  9
$TDUSRTIMER
 40
0.1959878704
  9
$USRTIMER
 70
     1
  9
$ANGBASE
 50
0.0
  9
$ANGDIR
 70
     0
  9
$PDMODE
 70
     0
  9
$PDSIZE
 40
0.0
  9
$PLINEWID
 40
0.0
  9
$COORDS
 70
     1
  9
$SPLFRAME
 70
     0
  9
$SPLINETYPE
 70
     6
  9
$SPLINESEGS
 70
     8
  9
$ATTDIA
 70
     1
  9
$ATTREQ
 70
     1
  9
$HANDLING
 70
     1
  9
$HANDSEED
  5
213D
  9
$SURFTAB1
 70
     6
  9
$SURFTAB2
 70
     6
  9
$SURFTYPE
 70
     6
  9
$SURFU
 70
     6
  9
$SURFV
 70
     6
  9
$UCSNAME
  2

  9
$UCSORG
 10
0.0
 20
0.0
 30
0.0
  9
$UCSXDIR
 10
1.0
 20
0.0
 30
0.0
  9
$UCSYDIR
 10
0.0
 20
1.0
 30
0.0
  9
$PUCSNAME
  2

  9
$PUCSORG
 10
0.0
 20
0.0
 30
0.0
  9
$PUCSXDIR
 10
1.0
 20
0.0
 30
0.0
  9
$PUCSYDIR
 10
0.0
 20
1.0
 30
0.0
  9
$USERI1
 70
     0
  9
$USERI2
 70
     0
  9
$USERI3
 70
     0
  9
$USERI4
 70
     0
  9
$USERI5
 70
     0
  9
$USERR1
 40
0.0
  9
$USERR2
 40
0.0
  9
$USERR3
 40
0.0
  9
$USERR4
 40
0.0
  9
$USERR5
 40
0.0
  9
$WORLDVIEW
 70
     1
  9
$SHADEDGE
 70
     3
  9
$SHADEDIF
 70
    70
  9
$TILEMODE
 70
     1
  9
$MAXACTVP
 70
    16
  9
$PLIMCHECK
 70
     0
  9
$PEXTMIN
 10
1.0000000000000000E+20
 20
1.0000000000000000E+20
 30
1.0000000000000000E+20
  9
$PEXTMAX
 10
-1.0000000000000000E+20
 20
-1.0000000000000000E+20
 30
-1.0000000000000000E+20
  9
$PLIMMIN
 10
-42.6111691390355816
 20
-16.9694972603761691
  9
$PLIMMAX
 10
167.38883086096439
 20
280.0305027396237847
  9
$UNITMODE
 70
     0
  9
$VISRETAIN
 70
     0
  9
$PLINEGEN
 70
     0
  9
$PSLTSCALE
 70
     0
  0
ENDSEC
  0
SECTION
  2
TABLES
  0
TABLE
  2
VPORT
 70
     1
  0
VPORT
  2
*ACTIVE
 70
     0
 10
0.0
 20
0.0
 11
1.0
 21
1.0
 12
0.7565587127630807
 22
-144.4910985031779944
 13
0.0
 23
0.0
 14
1.0
 24
1.0
 15
10.0
 25
10.0
 16
-0.0000000000002274
 26
0.0
 36
1026.2608036473020547
 17
1074.1690540891179353
 27
424.7749049209543841
 37
-14.71658145427139
 40
361.8394042567531983
 41
1.7852028639618129
 42
50.0
 43
0.0
 44
0.0
 50
0.0
 51
0.0
 71
     0
 72
  1500
 73
     1
 74
     0
 75
     0
 76
     0
 77
     0
 78
     0
  0
ENDTAB
  0
TABLE
  2
LTYPE
 70
     6
  0
LTYPE
  2
CONTINUOUS
 70
     0
  3
Solid line
 72
    65
 73
     0
 40
0.0
  0
LTYPE
  2
PHANTOM2
 70
     0
  3
Phantom (.5x) ___ _ _ ___ _ _ ___ _ _ ___ _ _
 72
    65
 73
     6
 40
1.25
 49
0.625
 49
-0.125
 49
0.125
 49
-0.125
 49
0.125
 49
-0.125
  0
LTYPE
  2
VERDECKT
 70
     0
  3
Verdeckt __ __ __ __ __ __ __ __ __ __ __ __ __
 72
    65
 73
     2
 40
0.375
 49
0.25
 49
-0.125
  0
ENDTAB
  0
TABLE
  2
LAYER
 70
    15
  0
LAYER
  2
0
 70
     0
 62
     7
  6
CONTINUOUS
  0
LAYER
  2
VOLL
 70
     0
 62
     1
  6
CONTINUOUS
  0
LAYER
  2
STEMPEL
 70
     0
 62
     3
  6
CONTINUOUS
  0
LAYER
  2
DEFPOINTS
 70
     0
 62
     7
  6
CONTINUOUS
  0
LAYER
  2
ADSK_ASSOC_ENTITY_BACKUPS
 70
     1
 62
    -7
  6
CONTINUOUS
  0
ENDTAB
  0
TABLE
  2
STYLE
 70
     4
  0
STYLE
  2
STANDARD
 70
     0
 40
0.0
 41
0.8
 50
0.0
 71
     0
 42
3.5
  3
simplex.shx
  4

  0
STYLE
  2
GREEKS
 70
     0
 40
0.0
 41
0.8
 50
0.0
 71
     0
 42
2.5
  3
SIMPLEX.shx
  4

  0
ENDTAB
  0
TABLE
  2
VIEW
 70
     1
  0
ENDTAB
  0
TABLE
  2
UCS
 70
     0
  0
ENDTAB
  0
TABLE
  2
APPID
 70
    24
  0
APPID
  2
ACAD
 70
     0
  0
APPID
  2
ACAD_NAV_VCDISPLAY
 70
     0
  0
APPID
  2
ACAD_MLEADERVER
 70
     0
  0
APPID
  2
ACAD_EXEMPT_FROM_CAD_STANDARDS
 70
     0
  0
APPID
  2
ACAD_PSEXT
 70
     0
  0
APPID
  2
ACAECLAYERSTANDARD
 70
     0
  0
APPID
  2
ACCMTRANSPARENCY
 70
     0
  0
APPID
  2
ACDBDYNAMICBLOCKGUID
 70
     0
  0
APPID
  2
ACADANNOPO
 70
     0
  0
APPID
  2
ACAUTHENVIRON
 70
     0
  0
APPID
  2
ACAD_MODELDOC_XFORM
 70
     0
  0
APPID
  2
ACAD_DIMASSOC_CALC_DIMLFAC
 70
     0
  0
APPID
  2
ACAD_DIMASSOC_DIMLFAC
 70
     0
  0
APPID
  2
ACAD_DIMASSOC_OVERRIDDEN_D
 70
     0
  0
APPID
  2
ACAD_DSTYLE_DIMRADIAL_EXTENSION
 70
     0
  0
APPID
  2
ACSYNERGY
 70
     0
  0
APPID
  2
SYNERGY_BODY_TBR_ID
 70
     0
  0
APPID
  2
ACAD_VIEW_EDGE_ID
 70
     0
  0
APPID
  2
ACSYNERGYSKETCH
 70
     0
  0
APPID
  2
ACAD_DSTYLE_DIMJAG
 70
     0
  0
APPID
  2
ACAD_DSTYLE_DIMTALN
 70
     0
  0
APPID
  2
GRADIENTCOLOR1ACI
 70
     0
  0
APPID
  2
GRADIENTCOLOR2ACI
 70
     0
  0
APPID
  2
AcDbAttr
 70
     0
  0
ENDTAB
  0
TABLE
  2
DIMSTYLE
 70
     2
  0
DIMSTYLE
  2
STANDARD
 70
     0
  3

  4

  5

  6

  7

 40
1.0
 41
0.18
 42
0.0625
 43
0.38
 44
0.18
 45
0.0
 46
0.0
 47
0.0
 48
0.0
140
0.18
141
0.09
142
0.0
143
25.3999999999999986
144
1.0
145
0.0
146
1.0
147
0.09
 71
     0
 72
     0
 73
     1
 74
     1
 75
     0
 76
     0
 77
     0
 78
     0
170
     0
171
     2
172
     0
173
     0
174
     0
175
     0
176
     0
177
     0
178
     0
  0
ENDTAB
  0
ENDSEC
  0
SECTION
  2
BLOCKS
  0
BLOCK
  8
0
  2
$MODEL_SPACE
 70
     0
 10
0.0
 20
0.0
 30
0.0
  3
$MODEL_SPACE
  1

  0
ENDBLK
  5
36
  8
0
  0
BLOCK
 67
     1
  8
0
  2
$PAPER_SPACE
 70
     0
 10
0.0
 20
0.0
 30
0.0
  3
$PAPER_SPACE
  1

  0
ENDBLK
  5
34
 67
     1
  8
0
  0
BLOCK
  8
0
  2
*S2
 70
     1
 10
0.0
 20
0.0
 30
0.0
  3
*S2
  1

  0
ENDBLK
  5
14AB
  8
0
  0
BLOCK
  8
0
  2
A$C29A021FC
 70
     0
 10
0.0
 20
0.0
 30
0.0
  3
A$C29A021FC
  1

  0
CIRCLE
  5
1FD2
  8
0
  6
CONTINUOUS
 10
669.4013542351250408
 20
358.0338826807457053
 30
0.0000000000001492
 40
7.0
  0
CIRCLE
  5
1FD3
  8
0
  6
CONTINUOUS
 10
781.4013542351249271
 20
358.0338826807457053
 30
0.0000000000001741
 40
7.0
  0
CIRCLE
  5
1FD4
  8
0
  6
CONTINUOUS
 10
613.4013542351250408
 20
455.0287279046028175
 30
0.0000000000001368
 40
7.0
  0
CIRCLE
  5
1FD5
  8
0
  6
CONTINUOUS
 10
669.4013542351249271
 20
552.0235731284600433
 30
0.0000000000001492
 40
7.0
  0
CIRCLE
  5
1FD6
  8
0
  6
CONTINUOUS
 10
837.4013542351249271
 20
455.0287279046028175
 30
0.0000000000001865
 40
7.0
  0
CIRCLE
  5
1FD7
  8
0
  6
CONTINUOUS
 10
628.6122467195940544
 20
380.7598335655391111
 30
0.0000000000001386
 40
7.5
  0
CIRCLE
  5
1FD8
  8
0
  6
CONTINUOUS
 10
838.1146572015019274
 20
408.3413491560619946
 30
0.0000000000001883
 40
7.5000000000000009
  0
CIRCLE
  5
1FD9
  8
0
  6
CONTINUOUS
 10
709.4771587842787994
 20
575.9850009922075742
 30
0.0000000000001563
 40
7.4999999999999991
  0
CIRCLE
  5
1FDA
  8
0
  6
CONTINUOUS
 10
838.1146572015019274
 20
408.3413491560618809
 30
0.0000000000001883
 40
4.0
  0
CIRCLE
  5
1FDB
  8
0
  6
CONTINUOUS
 10
709.4771587842787994
 20
575.9850009922075742
 30
0.0000000000001563
 40
4.0
  0
CIRCLE
  5
1FDC
  8
0
  6
CONTINUOUS
 10
628.6122467195942818
 20
380.7598335655391111
 30
0.0000000000001386
 40
4.0
  0
CIRCLE
  5
1FDD
  8
0
  6
CONTINUOUS
 10
781.4013542351250408
 20
552.0235731284600433
 30
0.0000000000001741
 40
7.0
  0
CIRCLE
  5
1FDE
  8
0
  6
CONTINUOUS
 10
725.4013542351250408
 20
455.0287279046028175
 30
0.0000000000001616
 40
79.0
  0
CIRCLE
  5
1FDF
  8
0
  6
CONTINUOUS
 10
725.4013542351250408
 20
455.0287279046028175
 30
0.0000000000001616
 40
145.0
  0
CIRCLE
  5
1FE0
  8
0
  6
CONTINUOUS
 10
628.6122467195942818
 20
380.7598335655391111
 30
0.0000000000001386
 40
3.0000000000001128
  0
CIRCLE
  5
1FE1
  8
0
  6
CONTINUOUS
 10
628.6122467195942818
 20
380.7598335655391111
 30
0.0000000000001386
 40
4.0000000000001128
  0
CIRCLE
  5
1FE2
  8
0
  6
CONTINUOUS
 10
628.6122467195942818
 20
380.7598335655391111
 30
0.0000000000001386
 40
2.0000000000001128
  0
CIRCLE
  5
1FE3
  8
0
  6
CONTINUOUS
 10
838.1146572015019274
 20
408.3413491560618809
 30
0.0000000000001883
 40
3.0000000000001128
  0
CIRCLE
  5
1FE4
  8
0
  6
CONTINUOUS
 10
838.1146572015019274
 20
408.3413491560618809
 30
0.0000000000001883
 40
4.0000000000001128
  0
CIRCLE
  5
1FE5
  8
0
  6
CONTINUOUS
 10
838.1146572015019274
 20
408.3413491560618809
 30
0.0000000000001883
 40
2.0000000000001128
  0
CIRCLE
  5
1FE6
  8
0
  6
CONTINUOUS
 10
709.4771587842787994
 20
575.9850009922075742
 30
0.0000000000001563
 40
3.0000000000001128
  0
CIRCLE
  5
1FE7
  8
0
  6
CONTINUOUS
 10
709.4771587842787994
 20
575.9850009922075742
 30
0.0000000000001563
 40
4.0000000000001128
  0
CIRCLE
  5
1FE8
  8
0
  6
CONTINUOUS
 10
709.4771587842787994
 20
575.9850009922075742
 30
0.0000000000001563
 40
2.0000000000001128
  0
CIRCLE
  5
1FE9
  8
0
  6
VERDECKT
 62
     1
 10
628.6122467195942818
 20
380.7598335655391111
 30
0.0000000000001386
 40
3.5
  0
CIRCLE
  5
1FEA
  8
0
  6
VERDECKT
 62
     1
 10
838.1146572015019274
 20
408.3413491560618809
 30
0.0000000000001883
 40
3.5
  0
CIRCLE
  5
1FEB
  8
0
  6
VERDECKT
 62
     1
 10
709.4771587842787994
 20
575.9850009922075742
 30
0.0000000000001563
 40
3.5
  0
ENDBLK
  5
1FED
  8
0
  0
BLOCK
  8
0
  2
A$C3781A58C
 70
     0
 10
0.0
 20
0.0
 30
0.0
  3
A$C3781A58C
  1

  0
LINE
  5
1FF1
  8
0
  6
CONTINUOUS
 10
621.1122467195940544
 20
20.0
 30
-0.0000000000000044
 11
633.1779574371594208
 21
20.0
 31
-0.0000000000000044
210
0.0
220
1.0
230
-0.0000000000000002
  0
LINE
  5
1FF2
  8
0
  6
CONTINUOUS
 10
633.1779574371594208
 20
20.0
 30
-0.0000000000000044
 11
636.1122467195940544
 21
20.0
 31
-0.0000000000000044
210
0.0
220
1.0
230
-0.0000000000000002
  0
LINE
  5
1FF3
  8
0
  6
CONTINUOUS
 10
830.6146572015020411
 20
20.0
 30
-0.0000000000000044
 11
845.6146572015018137
 21
20.0
 31
-0.0000000000000044
210
0.0
220
1.0
230
-0.0000000000000002
  0
LINE
  5
1FF4
  8
0
  6
CONTINUOUS
 10
701.9771587842787994
 20
20.0000000000000604
 30
-0.0000000000000044
 11
702.0413223239752369
 21
20.0000000000000604
 31
-0.0000000000000044
210
0.0
220
1.0
230
-0.0000000000000002
  0
LINE
  5
1FF5
  8
0
  6
CONTINUOUS
 10
702.0413223239752369
 20
20.0000000000000604
 30
-0.0000000000000044
 11
716.9771587842787994
 21
20.0000000000000604
 31
-0.0000000000000044
210
0.0
220
1.0
230
-0.0000000000000002
  0
LINE
  5
1FF6
  8
0
  6
CONTINUOUS
 10
583.4013542351250408
 20
0.0
 30
0.0
 11
867.4013542351250408
 21
0.0
 31
0.0
210
0.0
220
1.0
230
-0.0000000000000002
  0
LINE
  5
1FF7
  8
0
  6
CONTINUOUS
 10
583.4013542351250408
 20
6.0000000000000009
 30
-0.0000000000000013
 11
867.4013542351250408
 21
6.0000000000000009
 31
-0.0000000000000013
210
0.0
220
1.0
230
-0.0000000000000002
  0
ARC
  5
1FF8
  8
0
  6
CONTINUOUS
 10
-615.9507353035438655
 20
10.9999999999999893
 30
0.0
 40
4.9999999999999254
210
0.0
220
-0.0000000000000002
230
-1.0
 50
181.0230301886678035
 51
270.0000000000013074
  0
ARC
  5
1FF9
  8
0
  6
CONTINUOUS
 10
-641.2737581356441297
 20
10.9999999999999893
 30
0.0
 40
4.999999999999992
210
0.0
220
-0.0000000000000002
230
-1.0
 50
270.0
 51
358.9769698113333902
  0
LINE
  5
1FFA
  8
0
  6
CONTINUOUS
 10
636.1122467195940544
 20
20.0
 30
-0.0000000000000044
 11
636.2745551389169805
 21
10.9107285179155706
 31
-0.0000000000000024
210
0.0
220
1.0
230
-0.0000000000000002
  0
LINE
  5
1FFB
  8
0
  6
CONTINUOUS
 10
621.1122467195940544
 20
20.0
 30
-0.0000000000000044
 11
620.9499383002711284
 21
10.9107285179155706
 31
-0.0000000000000024
210
0.0
220
1.0
230
-0.0000000000000002
  0
ARC
  5
1FFC
  8
0
  6
CONTINUOUS
 10
-825.4531457854518521
 20
10.9999999999999893
 30
0.0
 40
4.9999999999999254
210
0.0
220
-0.0000000000000002
230
-1.0
 50
181.0230301886678035
 51
270.0000000000013074
  0
ARC
  5
1FFD
  8
0
  6
CONTINUOUS
 10
-850.7761686175520026
 20
10.9999999999999893
 30
0.0
 40
4.999999999999992
210
0.0
220
-0.0000000000000002
230
-1.0
 50
270.0
 51
358.9769698113333902
  0
LINE
  5
1FFE
  8
0
  6
CONTINUOUS
 10
845.6146572015018137
 20
20.0
 30
-0.0000000000000044
 11
845.7769656208248534
 21
10.9107285179155706
 31
-0.0000000000000024
210
0.0
220
1.0
230
-0.0000000000000002
  0
LINE
  5
1FFF
  8
0
  6
CONTINUOUS
 10
830.6146572015020411
 20
20.0
 30
-0.0000000000000044
 11
830.4523487821788876
 21
10.9107285179155706
 31
-0.0000000000000024
210
0.0
220
1.0
230
-0.0000000000000002
  0
ARC
  5
2000
  8
0
  6
CONTINUOUS
 10
-696.8156473682283831
 20
11.0000000000001101
 30
0.0
 40
5.0000000000001563
210
0.0
220
-0.0000000000000002
230
-1.0
 50
181.0230301886691961
 51
269.9999999999988063
  0
ARC
  5
2001
  8
0
  6
CONTINUOUS
 10
-722.1386702003289884
 20
11.0000000000001101
 30
0.0
 40
5.0000000000001057
210
0.0
220
-0.0000000000000002
230
-1.0
 50
270.0
 51
358.9769698113295249
  0
LINE
  5
2002
  8
0
  6
CONTINUOUS
 10
716.9771587842787994
 20
20.0000000000000604
 30
-0.0000000000000044
 11
717.1394672036017255
 21
10.9107285179155706
 31
-0.0000000000000024
210
0.0
220
1.0
230
-0.0000000000000002
  0
LINE
  5
2003
  8
0
  6
CONTINUOUS
 10
701.9771587842787994
 20
20.0000000000000604
 30
-0.0000000000000044
 11
701.8148503649557597
 21
10.9107285179155706
 31
-0.0000000000000024
210
0.0
220
1.0
230
-0.0000000000000002
  0
ARC
  5
2004
  8
0
  6
CONTINUOUS
 10
-583.4013542351250408
 20
3.0
 30
0.0
 40
3.0
210
0.0
220
-0.0000000000000002
230
-1.0
 50
270.0
 51
90.0
  0
ARC
  5
2005
  8
0
  6
CONTINUOUS
 10
-867.4013542351250408
 20
3.0
 30
0.0
 40
3.0
210
0.0
220
-0.0000000000000002
230
-1.0
 50
90.0
 51
270.0
  0
LINE
  5
2006
  8
0
  6
VERDECKT
 62
     1
 10
662.4013542351250408
 20
0.0
 30
0.0
 11
662.4013542351250408
 21
6.0000000000000009
 31
-0.0000000000000013
210
0.0
220
1.0
230
-0.0000000000000002
  0
LINE
  5
2007
  8
0
  6
VERDECKT
 62
     1
 10
676.4013542351250408
 20
0.0
 30
0.0
 11
676.4013542351250408
 21
6.0000000000000009
 31
-0.0000000000000013
210
0.0
220
1.0
230
-0.0000000000000002
  0
LINE
  5
2008
  8
0
  6
VERDECKT
 62
     1
 10
774.4013542351249271
 20
0.0
 30
0.0
 11
774.4013542351249271
 21
6.0000000000000009
 31
-0.0000000000000013
210
0.0
220
1.0
230
-0.0000000000000002
  0
LINE
  5
2009
  8
0
  6
VERDECKT
 62
     1
 10
788.4013542351249271
 20
0.0
 30
0.0
 11
788.4013542351249271
 21
6.0000000000000009
 31
-0.0000000000000013
210
0.0
220
1.0
230
-0.0000000000000002
  0
LINE
  5
200A
  8
0
  6
VERDECKT
 62
     1
 10
606.4013542351250408
 20
0.0
 30
0.0
 11
606.4013542351250408
 21
6.0000000000000009
 31
-0.0000000000000013
210
0.0
220
1.0
230
-0.0000000000000002
  0
LINE
  5
200B
  8
0
  6
VERDECKT
 62
     1
 10
620.4013542351250408
 20
0.0
 30
0.0
 11
620.4013542351250408
 21
6.0000000000000009
 31
-0.0000000000000013
210
0.0
220
1.0
230
-0.0000000000000002
  0
LINE
  5
200C
  8
0
  6
VERDECKT
 62
     1
 10
830.4013542351251544
 20
0.0
 30
0.0
 11
830.4013542351251544
 21
6.0000000000000009
 31
-0.0000000000000013
210
0.0
220
1.0
230
-0.0000000000000002
  0
LINE
  5
200D
  8
0
  6
VERDECKT
 62
     1
 10
844.4013542351250408
 20
0.0
 30
0.0
 11
844.4013542351250408
 21
6.0000000000000009
 31
-0.0000000000000013
210
0.0
220
1.0
230
-0.0000000000000002
  0
LINE
  5
200E
  8
0
  6
VERDECKT
 62
     1
 10
834.1146572015018137
 20
0.0
 30
0.0
 11
834.1146572015018137
 21
20.0
 31
-0.0000000000000044
210
0.0
220
1.0
230
-0.0000000000000002
  0
LINE
  5
200F
  8
0
  6
VERDECKT
 62
     1
 10
842.1146572015018137
 20
0.0
 30
0.0
 11
842.1146572015018137
 21
20.0
 31
-0.0000000000000044
210
0.0
220
1.0
230
-0.0000000000000002
  0
LINE
  5
2010
  8
0
  6
VERDECKT
 62
     1
 10
705.4771587842787994
 20
0.0
 30
0.0
 11
705.4771587842787994
 21
20.0000000000000604
 31
-0.0000000000000044
210
0.0
220
1.0
230
-0.0000000000000002
  0
LINE
  5
2011
  8
0
  6
VERDECKT
 62
     1
 10
713.4771587842787994
 20
0.0000000000000568
 30
0.0
 11
713.4771587842787994
 21
20.0000000000000604
 31
-0.0000000000000044
210
0.0
220
1.0
230
-0.0000000000000002
  0
LINE
  5
2012
  8
0
  6
VERDECKT
 62
     1
 10
624.6122467195941681
 20
0.0
 30
0.0
 11
624.6122467195941681
 21
20.0
 31
-0.0000000000000044
210
0.0
220
1.0
230
-0.0000000000000002
  0
LINE
  5
2013
  8
0
  6
VERDECKT
 62
     1
 10
632.6122467195942818
 20
0.0
 30
0.0
 11
632.6122467195942818
 21
20.0
 31
-0.0000000000000044
210
0.0
220
1.0
230
-0.0000000000000002
  0
ARC
  5
2014
  8
0
  6
VERDECKT
 62
     1
 10
-643.4013542351250408
 20
3.0
 30
0.0
 40
3.0
210
0.0
220
-0.0000000000000002
230
-1.0
 50
90.0
 51
270.0
  0
ARC
  5
2015
  8
0
  6
VERDECKT
 62
     1
 10
-807.4013542351250408
 20
3.0
 30
0.0
 40
3.0
210
0.0
220
-0.0000000000000002
230
-1.0
 50
270.0
 51
90.0
  0
LINE
  5
2016
  8
0
  6
VERDECKT
 62
     1
 10
624.6122467195940544
 20
16.9999999999999503
 30
-0.0000000000000038
 11
632.6122467195943955
 21
16.9999999999999503
 31
-0.0000000000000038
210
0.0
220
1.0
230
-0.0000000000000002
  0
LINE
  5
2017
  8
0
  6
VERDECKT
 62
     1
 10
624.6122467195940544
 20
13.9999999999999503
 30
-0.0000000000000031
 11
632.6122467195943955
 21
13.9999999999999503
 31
-0.0000000000000031
210
0.0
220
1.0
230
-0.0000000000000002
  0
LINE
  5
2018
  8
0
  6
VERDECKT
 62
     1
 10
624.6122467195941681
 20
2.9999999999999432
 30
-0.0000000000000007
 11
632.6122467195942818
 21
2.9999999999999432
 31
-0.0000000000000007
210
0.0
220
1.0
230
-0.0000000000000002
  0
LINE
  5
2019
  8
0
  6
VERDECKT
 62
     1
 10
626.6122467195940544
 20
0.9999999999999433
 30
-0.0000000000000002
 11
630.6122467195943955
 21
0.9999999999999433
 31
-0.0000000000000002
210
0.0
220
1.0
230
-0.0000000000000002
  0
LINE
  5
201A
  8
0
  6
VERDECKT
 62
     1
 10
625.6122467195940544
 20
1.9999999999999429
 30
-0.0000000000000004
 11
631.6122467195943955
 21
1.9999999999999429
 31
-0.0000000000000004
210
0.0
220
1.0
230
-0.0000000000000002
  0
LINE
  5
201B
  8
0
  6
VERDECKT
 62
     1
 10
625.6122467195940544
 20
3.999999999999944
 30
-0.0000000000000009
 11
631.6122467195943955
 21
3.999999999999944
 31
-0.0000000000000009
210
0.0
220
1.0
230
-0.0000000000000002
  0
LINE
  5
201C
  8
0
  6
VERDECKT
 62
     1
 10
626.6122467195940544
 20
4.999999999999944
 30
-0.0000000000000011
 11
630.6122467195943955
 21
4.999999999999944
 31
-0.0000000000000011
210
0.0
220
1.0
230
-0.0000000000000002
  0
LINE
  5
201D
  8
0
  6
VERDECKT
 62
     1
 10
626.6122467195940544
 20
6.999999999999944
 30
-0.0000000000000016
 11
630.6122467195943955
 21
6.999999999999944
 31
-0.0000000000000016
210
0.0
220
1.0
230
-0.0000000000000002
  0
LINE
  5
201E
  8
0
  6
VERDECKT
 62
     1
 10
625.6122467195940544
 20
7.999999999999944
 30
-0.0000000000000018
 11
631.6122467195943955
 21
7.999999999999944
 31
-0.0000000000000018
210
0.0
220
1.0
230
-0.0000000000000002
  0
LINE
  5
201F
  8
0
  6
VERDECKT
 62
     1
 10
626.6122467195940544
 20
8.9999999999999432
 30
-0.000000000000002
 11
630.6122467195943955
 21
8.9999999999999432
 31
-0.000000000000002
210
0.0
220
1.0
230
-0.0000000000000002
  0
LINE
  5
2020
  8
0
  6
VERDECKT
 62
     1
 10
625.6122467195940544
 20
9.9999999999999432
 30
-0.0000000000000022
 11
631.6122467195943955
 21
9.9999999999999432
 31
-0.0000000000000022
210
0.0
220
1.0
230
-0.0000000000000002
  0
LINE
  5
2021
  8
0
  6
VERDECKT
 62
     1
 10
626.6122467195940544
 20
10.9999999999999396
 30
-0.0000000000000024
 11
630.6122467195943955
 21
10.9999999999999396
 31
-0.0000000000000024
210
0.0
220
1.0
230
-0.0000000000000002
  0
LINE
  5
2022
  8
0
  6
VERDECKT
 62
     1
 10
625.6122467195940544
 20
11.9999999999999396
 30
-0.0000000000000027
 11
631.6122467195943955
 21
11.9999999999999396
 31
-0.0000000000000027
210
0.0
220
1.0
230
-0.0000000000000002
  0
LINE
  5
2023
  8
0
  6
VERDECKT
 62
     1
 10
626.6122467195940544
 20
12.9999999999999396
 30
-0.0000000000000029
 11
630.6122467195943955
 21
12.9999999999999396
 31
-0.0000000000000029
210
0.0
220
1.0
230
-0.0000000000000002
  0
LINE
  5
2024
  8
0
  6
VERDECKT
 62
     1
 10
626.6122467195940544
 20
14.9999999999999396
 30
-0.0000000000000033
 11
630.6122467195943955
 21
14.9999999999999396
 31
-0.0000000000000033
210
0.0
220
1.0
230
-0.0000000000000002
  0
LINE
  5
2025
  8
0
  6
VERDECKT
 62
     1
 10
625.6122467195940544
 20
15.9999999999999503
 30
-0.0000000000000036
 11
631.6122467195943955
 21
15.9999999999999503
 31
-0.0000000000000036
210
0.0
220
1.0
230
-0.0000000000000002
  0
LINE
  5
2026
  8
0
  6
VERDECKT
 62
     1
 10
625.6122467195940544
 20
17.9999999999999396
 30
-0.000000000000004
 11
631.6122467195943955
 21
17.9999999999999396
 31
-0.000000000000004
210
0.0
220
1.0
230
-0.0000000000000002
  0
LINE
  5
2027
  8
0
  6
VERDECKT
 62
     1
 10
626.6122467195940544
 20
19.0000000000000604
 30
-0.0000000000000042
 11
630.6122467195943955
 21
19.0000000000000604
 31
-0.0000000000000042
210
0.0
220
1.0
230
-0.0000000000000002
  0
LINE
  5
2028
  8
0
  6
VERDECKT
 62
     1
 10
632.6122467195942818
 20
19.9999999999999396
 30
-0.0000000000000044
 11
632.6122467195942818
 21
16.9999999999999503
 31
-0.0000000000000038
210
0.0
220
1.0
230
-0.0000000000000002
  0
LINE
  5
2029
  8
0
  6
VERDECKT
 62
     1
 10
624.6122467195941681
 20
19.9999999999999396
 30
-0.0000000000000044
 11
624.6122467195941681
 21
16.9999999999999503
 31
-0.0000000000000038
210
0.0
220
1.0
230
-0.0000000000000002
  0
LINE
  5
202A
  8
0
  6
VERDECKT
 62
     1
 10
632.1122467195942818
 20
16.9999999999999503
 30
-0.0000000000000038
 11
632.1122467195942818
 21
13.9999999999999503
 31
-0.0000000000000031
210
0.0
220
1.0
230
-0.0000000000000002
  0
LINE
  5
202B
  8
0
  6
VERDECKT
 62
     1
 10
625.1122467195941681
 20
16.9999999999999503
 30
-0.0000000000000038
 11
625.1122467195941681
 21
13.9999999999999503
 31
-0.0000000000000031
210
0.0
220
1.0
230
-0.0000000000000002
  0
LINE
  5
202C
  8
0
  6
VERDECKT
 62
     1
 10
632.6122467195942818
 20
13.9999999999999503
 30
-0.0000000000000031
 11
632.6122467195942818
 21
5.999999999999944
 31
-0.0000000000000013
210
0.0
220
1.0
230
-0.0000000000000002
  0
LINE
  5
202D
  8
0
  6
VERDECKT
 62
     1
 10
624.6122467195941681
 20
13.9999999999999503
 30
-0.0000000000000031
 11
624.6122467195941681
 21
5.999999999999944
 31
-0.0000000000000013
210
0.0
220
1.0
230
-0.0000000000000002
  0
LINE
  5
202E
  8
0
  6
VERDECKT
 62
     1
 10
632.1122467195942818
 20
5.999999999999944
 30
-0.0000000000000013
 11
632.1122467195942818
 21
2.9999999999999432
 31
-0.0000000000000007
210
0.0
220
1.0
230
-0.0000000000000002
  0
LINE
  5
202F
  8
0
  6
VERDECKT
 62
     1
 10
625.1122467195941681
 20
5.999999999999944
 30
-0.0000000000000013
 11
625.1122467195941681
 21
2.9999999999999432
 31
-0.0000000000000007
210
0.0
220
1.0
230
-0.0000000000000002
  0
LINE
  5
2030
  8
0
  6
VERDECKT
 62
     1
 10
632.6122467195942818
 20
2.9999999999999432
 30
-0.0000000000000007
 11
632.6122467195942818
 21
0.0000000000005116
 31
0.0
210
0.0
220
1.0
230
-0.0000000000000002
  0
LINE
  5
2031
  8
0
  6
VERDECKT
 62
     1
 10
624.6122467195941681
 20
2.9999999999999432
 30
-0.0000000000000007
 11
624.6122467195941681
 21
0.0000000000005116
 31
0.0
210
0.0
220
1.0
230
-0.0000000000000002
  0
LINE
  5
2032
  8
0
  6
VERDECKT
 62
     1
 10
630.6122467195943955
 20
0.9999999999999435
 30
-0.0000000000000002
 11
631.6122467195943955
 21
0.0000000000002841
 31
0.0
210
0.0
220
1.0
230
-0.0000000000000002
  0
LINE
  5
2033
  8
0
  6
VERDECKT
 62
     1
 10
626.6122467195940544
 20
0.9999999999999435
 30
-0.0000000000000002
 11
625.6122467195940544
 21
0.0000000000002841
 31
0.0
210
0.0
220
1.0
230
-0.0000000000000002
  0
LINE
  5
2034
  8
0
  6
VERDECKT
 62
     1
 10
626.6122467195940544
 20
0.9999999999999435
 30
-0.0000000000000002
 11
625.6122467195940544
 21
1.9999999999999429
 31
-0.0000000000000004
210
0.0
220
1.0
230
-0.0000000000000002
  0
LINE
  5
2035
  8
0
  6
VERDECKT
 62
     1
 10
630.6122467195943955
 20
0.9999999999999435
 30
-0.0000000000000002
 11
631.6122467195943955
 21
1.9999999999999429
 31
-0.0000000000000004
210
0.0
220
1.0
230
-0.0000000000000002
  0
LINE
  5
2036
  8
0
  6
VERDECKT
 62
     1
 10
630.6122467195943955
 20
2.9999999999999432
 30
-0.0000000000000007
 11
631.6122467195943955
 21
1.9999999999999429
 31
-0.0000000000000004
210
0.0
220
1.0
230
-0.0000000000000002
  0
LINE
  5
2037
  8
0
  6
VERDECKT
 62
     1
 10
626.6122467195940544
 20
2.9999999999999432
 30
-0.0000000000000007
 11
625.6122467195940544
 21
1.9999999999999429
 31
-0.0000000000000004
210
0.0
220
1.0
230
-0.0000000000000002
  0
LINE
  5
2038
  8
0
  6
VERDECKT
 62
     1
 10
626.6122467195940544
 20
2.9999999999999432
 30
-0.0000000000000007
 11
625.6122467195940544
 21
3.999999999999944
 31
-0.0000000000000009
210
0.0
220
1.0
230
-0.0000000000000002
  0
LINE
  5
2039
  8
0
  6
VERDECKT
 62
     1
 10
630.6122467195943955
 20
2.9999999999999432
 30
-0.0000000000000007
 11
631.6122467195943955
 21
3.999999999999944
 31
-0.0000000000000009
210
0.0
220
1.0
230
-0.0000000000000002
  0
LINE
  5
203A
  8
0
  6
VERDECKT
 62
     1
 10
630.6122467195943955
 20
4.999999999999944
 30
-0.0000000000000011
 11
631.6122467195943955
 21
3.999999999999944
 31
-0.0000000000000009
210
0.0
220
1.0
230
-0.0000000000000002
  0
LINE
  5
203B
  8
0
  6
VERDECKT
 62
     1
 10
626.6122467195940544
 20
4.999999999999944
 30
-0.0000000000000011
 11
625.6122467195940544
 21
3.999999999999944
 31
-0.0000000000000009
210
0.0
220
1.0
230
-0.0000000000000002
  0
LINE
  5
203C
  8
0
  6
VERDECKT
 62
     1
 10
626.6122467195940544
 20
4.999999999999944
 30
-0.0000000000000011
 11
625.6122467195940544
 21
5.999999999999944
 31
-0.0000000000000013
210
0.0
220
1.0
230
-0.0000000000000002
  0
LINE
  5
203D
  8
0
  6
VERDECKT
 62
     1
 10
630.6122467195943955
 20
4.999999999999944
 30
-0.0000000000000011
 11
631.6122467195943955
 21
5.999999999999944
 31
-0.0000000000000013
210
0.0
220
1.0
230
-0.0000000000000002
  0
LINE
  5
203E
  8
0
  6
VERDECKT
 62
     1
 10
630.6122467195943955
 20
6.999999999999944
 30
-0.0000000000000016
 11
631.6122467195943955
 21
5.999999999999944
 31
-0.0000000000000013
210
0.0
220
1.0
230
-0.0000000000000002
  0
LINE
  5
203F
  8
0
  6
VERDECKT
 62
     1
 10
626.6122467195940544
 20
6.999999999999944
 30
-0.0000000000000016
 11
625.6122467195940544
 21
5.999999999999944
 31
-0.0000000000000013
210
0.0
220
1.0
230
-0.0000000000000002
  0
LINE
  5
2040
  8
0
  6
VERDECKT
 62
     1
 10
626.6122467195940544
 20
6.999999999999944
 30
-0.0000000000000016
 11
625.6122467195940544
 21
7.999999999999944
 31
-0.0000000000000018
210
0.0
220
1.0
230
-0.0000000000000002
  0
LINE
  5
2041
  8
0
  6
VERDECKT
 62
     1
 10
630.6122467195943955
 20
6.999999999999944
 30
-0.0000000000000016
 11
631.6122467195943955
 21
7.999999999999944
 31
-0.0000000000000018
210
0.0
220
1.0
230
-0.0000000000000002
  0
LINE
  5
2042
  8
0
  6
VERDECKT
 62
     1
 10
630.6122467195943955
 20
8.9999999999999432
 30
-0.000000000000002
 11
631.6122467195943955
 21
7.999999999999944
 31
-0.0000000000000018
210
0.0
220
1.0
230
-0.0000000000000002
  0
LINE
  5
2043
  8
0
  6
VERDECKT
 62
     1
 10
626.6122467195940544
 20
8.9999999999999432
 30
-0.000000000000002
 11
625.6122467195940544
 21
7.999999999999944
 31
-0.0000000000000018
210
0.0
220
1.0
230
-0.0000000000000002
  0
LINE
  5
2044
  8
0
  6
VERDECKT
 62
     1
 10
626.6122467195940544
 20
8.9999999999999432
 30
-0.000000000000002
 11
625.6122467195940544
 21
9.9999999999999432
 31
-0.0000000000000022
210
0.0
220
1.0
230
-0.0000000000000002
  0
LINE
  5
2045
  8
0
  6
VERDECKT
 62
     1
 10
630.6122467195943955
 20
8.9999999999999432
 30
-0.000000000000002
 11
631.6122467195943955
 21
9.9999999999999432
 31
-0.0000000000000022
210
0.0
220
1.0
230
-0.0000000000000002
  0
LINE
  5
2046
  8
0
  6
VERDECKT
 62
     1
 10
630.6122467195943955
 20
10.9999999999999396
 30
-0.0000000000000024
 11
631.6122467195943955
 21
9.9999999999999432
 31
-0.0000000000000022
210
0.0
220
1.0
230
-0.0000000000000002
  0
LINE
  5
2047
  8
0
  6
VERDECKT
 62
     1
 10
626.6122467195940544
 20
10.9999999999999396
 30
-0.0000000000000024
 11
625.6122467195940544
 21
9.9999999999999432
 31
-0.0000000000000022
210
0.0
220
1.0
230
-0.0000000000000002
  0
LINE
  5
2048
  8
0
  6
VERDECKT
 62
     1
 10
626.6122467195940544
 20
10.9999999999999396
 30
-0.0000000000000024
 11
625.6122467195940544
 21
11.9999999999999396
 31
-0.0000000000000027
210
0.0
220
1.0
230
-0.0000000000000002
  0
LINE
  5
2049
  8
0
  6
VERDECKT
 62
     1
 10
630.6122467195943955
 20
10.9999999999999396
 30
-0.0000000000000024
 11
631.6122467195943955
 21
11.9999999999999396
 31
-0.0000000000000027
210
0.0
220
1.0
230
-0.0000000000000002
  0
LINE
  5
204A
  8
0
  6
VERDECKT
 62
     1
 10
630.6122467195943955
 20
12.9999999999999396
 30
-0.0000000000000029
 11
631.6122467195943955
 21
11.9999999999999396
 31
-0.0000000000000027
210
0.0
220
1.0
230
-0.0000000000000002
  0
LINE
  5
204B
  8
0
  6
VERDECKT
 62
     1
 10
626.6122467195940544
 20
12.9999999999999396
 30
-0.0000000000000029
 11
625.6122467195940544
 21
11.9999999999999396
 31
-0.0000000000000027
210
0.0
220
1.0
230
-0.0000000000000002
  0
LINE
  5
204C
  8
0
  6
VERDECKT
 62
     1
 10
626.6122467195940544
 20
12.9999999999999396
 30
-0.0000000000000029
 11
625.6122467195940544
 21
13.9999999999999503
 31
-0.0000000000000031
210
0.0
220
1.0
230
-0.0000000000000002
  0
LINE
  5
204D
  8
0
  6
VERDECKT
 62
     1
 10
630.6122467195943955
 20
12.9999999999999396
 30
-0.0000000000000029
 11
631.6122467195943955
 21
13.9999999999999503
 31
-0.0000000000000031
210
0.0
220
1.0
230
-0.0000000000000002
  0
LINE
  5
204E
  8
0
  6
VERDECKT
 62
     1
 10
630.6122467195943955
 20
14.9999999999999396
 30
-0.0000000000000033
 11
631.6122467195943955
 21
13.9999999999999503
 31
-0.0000000000000031
210
0.0
220
1.0
230
-0.0000000000000002
  0
LINE
  5
204F
  8
0
  6
VERDECKT
 62
     1
 10
626.6122467195940544
 20
14.9999999999999396
 30
-0.0000000000000033
 11
625.6122467195940544
 21
13.9999999999999503
 31
-0.0000000000000031
210
0.0
220
1.0
230
-0.0000000000000002
  0
LINE
  5
2050
  8
0
  6
VERDECKT
 62
     1
 10
626.6122467195940544
 20
14.9999999999999396
 30
-0.0000000000000033
 11
625.6122467195940544
 21
15.9999999999999503
 31
-0.0000000000000036
210
0.0
220
1.0
230
-0.0000000000000002
  0
LINE
  5
2051
  8
0
  6
VERDECKT
 62
     1
 10
630.6122467195943955
 20
14.9999999999999396
 30
-0.0000000000000033
 11
631.6122467195943955
 21
15.9999999999999503
 31
-0.0000000000000036
210
0.0
220
1.0
230
-0.0000000000000002
  0
LINE
  5
2052
  8
0
  6
VERDECKT
 62
     1
 10
630.6122467195943955
 20
17.0000000000000604
 30
-0.0000000000000038
 11
631.6122467195943955
 21
15.9999999999999503
 31
-0.0000000000000036
210
0.0
220
1.0
230
-0.0000000000000002
  0
LINE
  5
2053
  8
0
  6
VERDECKT
 62
     1
 10
626.6122467195940544
 20
17.0000000000000604
 30
-0.0000000000000038
 11
625.6122467195940544
 21
15.9999999999999503
 31
-0.0000000000000036
210
0.0
220
1.0
230
-0.0000000000000002
  0
LINE
  5
2054
  8
0
  6
VERDECKT
 62
     1
 10
626.6122467195940544
 20
17.0000000000000604
 30
-0.0000000000000038
 11
625.6122467195940544
 21
17.9999999999999396
 31
-0.000000000000004
210
0.0
220
1.0
230
-0.0000000000000002
  0
LINE
  5
2055
  8
0
  6
VERDECKT
 62
     1
 10
630.6122467195943955
 20
17.0000000000000604
 30
-0.0000000000000038
 11
631.6122467195943955
 21
17.9999999999999396
 31
-0.000000000000004
210
0.0
220
1.0
230
-0.0000000000000002
  0
LINE
  5
2056
  8
0
  6
VERDECKT
 62
     1
 10
630.6122467195943955
 20
19.0000000000000604
 30
-0.0000000000000042
 11
631.6122467195943955
 21
17.9999999999999396
 31
-0.000000000000004
210
0.0
220
1.0
230
-0.0000000000000002
  0
LINE
  5
2057
  8
0
  6
VERDECKT
 62
     1
 10
626.6122467195940544
 20
19.0000000000000604
 30
-0.0000000000000042
 11
625.6122467195940544
 21
17.9999999999999396
 31
-0.000000000000004
210
0.0
220
1.0
230
-0.0000000000000002
  0
LINE
  5
2058
  8
0
  6
VERDECKT
 62
     1
 10
626.6122467195940544
 20
19.0000000000000604
 30
-0.0000000000000042
 11
625.6122467195940544
 21
20.0000000000004015
 31
-0.0000000000000044
210
0.0
220
1.0
230
-0.0000000000000002
  0
LINE
  5
2059
  8
0
  6
VERDECKT
 62
     1
 10
630.6122467195943955
 20
19.0000000000000604
 30
-0.0000000000000042
 11
631.6122467195943955
 21
20.0000000000004015
 31
-0.0000000000000044
210
0.0
220
1.0
230
-0.0000000000000002
  0
LINE
  5
205A
  8
0
  6
VERDECKT
 62
     1
 10
834.1146572015015863
 20
16.9999999999999503
 30
-0.0000000000000038
 11
842.1146572015021547
 21
16.9999999999999503
 31
-0.0000000000000038
210
0.0
220
1.0
230
-0.0000000000000002
  0
LINE
  5
205B
  8
0
  6
VERDECKT
 62
     1
 10
834.1146572015015863
 20
13.9999999999999503
 30
-0.0000000000000031
 11
842.1146572015021547
 21
13.9999999999999503
 31
-0.0000000000000031
210
0.0
220
1.0
230
-0.0000000000000002
  0
LINE
  5
205C
  8
0
  6
VERDECKT
 62
     1
 10
834.1146572015018137
 20
2.9999999999999432
 30
-0.0000000000000007
 11
842.1146572015018137
 21
2.9999999999999432
 31
-0.0000000000000007
210
0.0
220
1.0
230
-0.0000000000000002
  0
LINE
  5
205D
  8
0
  6
VERDECKT
 62
     1
 10
836.1146572015018137
 20
0.9999999999999433
 30
-0.0000000000000002
 11
840.1146572015020411
 21
0.9999999999999433
 31
-0.0000000000000002
210
0.0
220
1.0
230
-0.0000000000000002
  0
LINE
  5
205E
  8
0
  6
VERDECKT
 62
     1
 10
835.1146572015018137
 20
1.9999999999999429
 30
-0.0000000000000004
 11
841.1146572015020411
 21
1.9999999999999429
 31
-0.0000000000000004
210
0.0
220
1.0
230
-0.0000000000000002
  0
LINE
  5
205F
  8
0
  6
VERDECKT
 62
     1
 10
835.1146572015018137
 20
3.999999999999944
 30
-0.0000000000000009
 11
841.1146572015020411
 21
3.999999999999944
 31
-0.0000000000000009
210
0.0
220
1.0
230
-0.0000000000000002
  0
LINE
  5
2060
  8
0
  6
VERDECKT
 62
     1
 10
836.1146572015018137
 20
4.999999999999944
 30
-0.0000000000000011
 11
840.1146572015020411
 21
4.999999999999944
 31
-0.0000000000000011
210
0.0
220
1.0
230
-0.0000000000000002
  0
LINE
  5
2061
  8
0
  6
VERDECKT
 62
     1
 10
836.1146572015018137
 20
6.999999999999944
 30
-0.0000000000000016
 11
840.1146572015020411
 21
6.999999999999944
 31
-0.0000000000000016
210
0.0
220
1.0
230
-0.0000000000000002
  0
LINE
  5
2062
  8
0
  6
VERDECKT
 62
     1
 10
835.1146572015018137
 20
7.999999999999944
 30
-0.0000000000000018
 11
841.1146572015020411
 21
7.999999999999944
 31
-0.0000000000000018
210
0.0
220
1.0
230
-0.0000000000000002
  0
LINE
  5
2063
  8
0
  6
VERDECKT
 62
     1
 10
836.1146572015018137
 20
8.9999999999999432
 30
-0.000000000000002
 11
840.1146572015020411
 21
8.9999999999999432
 31
-0.000000000000002
210
0.0
220
1.0
230
-0.0000000000000002
  0
LINE
  5
2064
  8
0
  6
VERDECKT
 62
     1
 10
835.1146572015018137
 20
9.9999999999999432
 30
-0.0000000000000022
 11
841.1146572015020411
 21
9.9999999999999432
 31
-0.0000000000000022
210
0.0
220
1.0
230
-0.0000000000000002
  0
LINE
  5
2065
  8
0
  6
VERDECKT
 62
     1
 10
836.1146572015018137
 20
10.9999999999999396
 30
-0.0000000000000024
 11
840.1146572015020411
 21
10.9999999999999396
 31
-0.0000000000000024
210
0.0
220
1.0
230
-0.0000000000000002
  0
LINE
  5
2066
  8
0
  6
VERDECKT
 62
     1
 10
835.1146572015018137
 20
11.9999999999999396
 30
-0.0000000000000027
 11
841.1146572015020411
 21
11.9999999999999396
 31
-0.0000000000000027
210
0.0
220
1.0
230
-0.0000000000000002
  0
LINE
  5
2067
  8
0
  6
VERDECKT
 62
     1
 10
836.1146572015018137
 20
12.9999999999999396
 30
-0.0000000000000029
 11
840.1146572015020411
 21
12.9999999999999396
 31
-0.0000000000000029
210
0.0
220
1.0
230
-0.0000000000000002
  0
LINE
  5
2068
  8
0
  6
VERDECKT
 62
     1
 10
836.1146572015018137
 20
14.9999999999999396
 30
-0.0000000000000033
 11
840.1146572015020411
 21
14.9999999999999396
 31
-0.0000000000000033
210
0.0
220
1.0
230
-0.0000000000000002
  0
LINE
  5
2069
  8
0
  6
VERDECKT
 62
     1
 10
835.1146572015018137
 20
15.9999999999999503
 30
-0.0000000000000036
 11
841.1146572015020411
 21
15.9999999999999503
 31
-0.0000000000000036
210
0.0
220
1.0
230
-0.0000000000000002
  0
LINE
  5
206A
  8
0
  6
VERDECKT
 62
     1
 10
835.1146572015018137
 20
17.9999999999999396
 30
-0.000000000000004
 11
841.1146572015020411
 21
17.9999999999999396
 31
-0.000000000000004
210
0.0
220
1.0
230
-0.0000000000000002
  0
LINE
  5
206B
  8
0
  6
VERDECKT
 62
     1
 10
836.1146572015018137
 20
19.0000000000000604
 30
-0.0000000000000042
 11
840.1146572015020411
 21
19.0000000000000604
 31
-0.0000000000000042
210
0.0
220
1.0
230
-0.0000000000000002
  0
LINE
  5
206C
  8
0
  6
VERDECKT
 62
     1
 10
842.1146572015020411
 20
19.9999999999999396
 30
-0.0000000000000044
 11
842.1146572015020411
 21
16.9999999999999503
 31
-0.0000000000000038
210
0.0
220
1.0
230
-0.0000000000000002
  0
LINE
  5
206D
  8
0
  6
VERDECKT
 62
     1
 10
834.1146572015018137
 20
19.9999999999999396
 30
-0.0000000000000044
 11
834.1146572015018137
 21
16.9999999999999503
 31
-0.0000000000000038
210
0.0
220
1.0
230
-0.0000000000000002
  0
LINE
  5
206E
  8
0
  6
VERDECKT
 62
     1
 10
841.6146572015019274
 20
16.9999999999999503
 30
-0.0000000000000038
 11
841.6146572015019274
 21
13.9999999999999503
 31
-0.0000000000000031
210
0.0
220
1.0
230
-0.0000000000000002
  0
LINE
  5
206F
  8
0
  6
VERDECKT
 62
     1
 10
834.6146572015019274
 20
16.9999999999999503
 30
-0.0000000000000038
 11
834.6146572015019274
 21
13.9999999999999503
 31
-0.0000000000000031
210
0.0
220
1.0
230
-0.0000000000000002
  0
LINE
  5
2070
  8
0
  6
VERDECKT
 62
     1
 10
842.1146572015020411
 20
13.9999999999999503
 30
-0.0000000000000031
 11
842.1146572015020411
 21
5.999999999999944
 31
-0.0000000000000013
210
0.0
220
1.0
230
-0.0000000000000002
  0
LINE
  5
2071
  8
0
  6
VERDECKT
 62
     1
 10
834.1146572015018137
 20
13.9999999999999503
 30
-0.0000000000000031
 11
834.1146572015018137
 21
5.999999999999944
 31
-0.0000000000000013
210
0.0
220
1.0
230
-0.0000000000000002
  0
LINE
  5
2072
  8
0
  6
VERDECKT
 62
     1
 10
841.6146572015019274
 20
5.999999999999944
 30
-0.0000000000000013
 11
841.6146572015019274
 21
2.9999999999999432
 31
-0.0000000000000007
210
0.0
220
1.0
230
-0.0000000000000002
  0
LINE
  5
2073
  8
0
  6
VERDECKT
 62
     1
 10
834.6146572015019274
 20
5.999999999999944
 30
-0.0000000000000013
 11
834.6146572015019274
 21
2.9999999999999432
 31
-0.0000000000000007
210
0.0
220
1.0
230
-0.0000000000000002
  0
LINE
  5
2074
  8
0
  6
VERDECKT
 62
     1
 10
842.1146572015018137
 20
2.9999999999999432
 30
-0.0000000000000007
 11
842.1146572015018137
 21
0.0000000000005116
 31
0.0
210
0.0
220
1.0
230
-0.0000000000000002
  0
LINE
  5
2075
  8
0
  6
VERDECKT
 62
     1
 10
834.1146572015018137
 20
2.9999999999999432
 30
-0.0000000000000007
 11
834.1146572015018137
 21
0.0000000000005116
 31
0.0
210
0.0
220
1.0
230
-0.0000000000000002
  0
LINE
  5
2076
  8
0
  6
VERDECKT
 62
     1
 10
840.1146572015020411
 20
0.9999999999999435
 30
-0.0000000000000002
 11
841.1146572015020411
 21
0.0000000000002841
 31
0.0
210
0.0
220
1.0
230
-0.0000000000000002
  0
LINE
  5
2077
  8
0
  6
VERDECKT
 62
     1
 10
836.1146572015018137
 20
0.9999999999999435
 30
-0.0000000000000002
 11
835.1146572015018137
 21
0.0000000000002841
 31
0.0
210
0.0
220
1.0
230
-0.0000000000000002
  0
LINE
  5
2078
  8
0
  6
VERDECKT
 62
     1
 10
836.1146572015018137
 20
0.9999999999999435
 30
-0.0000000000000002
 11
835.1146572015018137
 21
1.9999999999999429
 31
-0.0000000000000004
210
0.0
220
1.0
230
-0.0000000000000002
  0
LINE
  5
2079
  8
0
  6
VERDECKT
 62
     1
 10
840.1146572015020411
 20
0.9999999999999435
 30
-0.0000000000000002
 11
841.1146572015020411
 21
1.9999999999999429
 31
-0.0000000000000004
210
0.0
220
1.0
230
-0.0000000000000002
  0
LINE
  5
207A
  8
0
  6
VERDECKT
 62
     1
 10
840.1146572015020411
 20
2.9999999999999432
 30
-0.0000000000000007
 11
841.1146572015020411
 21
1.9999999999999429
 31
-0.0000000000000004
210
0.0
220
1.0
230
-0.0000000000000002
  0
LINE
  5
207B
  8
0
  6
VERDECKT
 62
     1
 10
836.1146572015018137
 20
2.9999999999999432
 30
-0.0000000000000007
 11
835.1146572015018137
 21
1.9999999999999429
 31
-0.0000000000000004
210
0.0
220
1.0
230
-0.0000000000000002
  0
LINE
  5
207C
  8
0
  6
VERDECKT
 62
     1
 10
836.1146572015018137
 20
2.9999999999999432
 30
-0.0000000000000007
 11
835.1146572015018137
 21
3.999999999999944
 31
-0.0000000000000009
210
0.0
220
1.0
230
-0.0000000000000002
  0
LINE
  5
207D
  8
0
  6
VERDECKT
 62
     1
 10
840.1146572015020411
 20
2.9999999999999432
 30
-0.0000000000000007
 11
841.1146572015020411
 21
3.999999999999944
 31
-0.0000000000000009
210
0.0
220
1.0
230
-0.0000000000000002
  0
LINE
  5
207E
  8
0
  6
VERDECKT
 62
     1
 10
840.1146572015020411
 20
4.999999999999944
 30
-0.0000000000000011
 11
841.1146572015020411
 21
3.999999999999944
 31
-0.0000000000000009
210
0.0
220
1.0
230
-0.0000000000000002
  0
LINE
  5
207F
  8
0
  6
VERDECKT
 62
     1
 10
836.1146572015018137
 20
4.999999999999944
 30
-0.0000000000000011
 11
835.1146572015018137
 21
3.999999999999944
 31
-0.0000000000000009
210
0.0
220
1.0
230
-0.0000000000000002
  0
LINE
  5
2080
  8
0
  6
VERDECKT
 62
     1
 10
836.1146572015018137
 20
4.999999999999944
 30
-0.0000000000000011
 11
835.1146572015018137
 21
5.999999999999944
 31
-0.0000000000000013
210
0.0
220
1.0
230
-0.0000000000000002
  0
LINE
  5
2081
  8
0
  6
VERDECKT
 62
     1
 10
840.1146572015020411
 20
4.999999999999944
 30
-0.0000000000000011
 11
841.1146572015020411
 21
5.999999999999944
 31
-0.0000000000000013
210
0.0
220
1.0
230
-0.0000000000000002
  0
LINE
  5
2082
  8
0
  6
VERDECKT
 62
     1
 10
840.1146572015020411
 20
6.999999999999944
 30
-0.0000000000000016
 11
841.1146572015020411
 21
5.999999999999944
 31
-0.0000000000000013
210
0.0
220
1.0
230
-0.0000000000000002
  0
LINE
  5
2083
  8
0
  6
VERDECKT
 62
     1
 10
836.1146572015018137
 20
6.999999999999944
 30
-0.0000000000000016
 11
835.1146572015018137
 21
5.999999999999944
 31
-0.0000000000000013
210
0.0
220
1.0
230
-0.0000000000000002
  0
LINE
  5
2084
  8
0
  6
VERDECKT
 62
     1
 10
836.1146572015018137
 20
6.999999999999944
 30
-0.0000000000000016
 11
835.1146572015018137
 21
7.999999999999944
 31
-0.0000000000000018
210
0.0
220
1.0
230
-0.0000000000000002
  0
LINE
  5
2085
  8
0
  6
VERDECKT
 62
     1
 10
840.1146572015020411
 20
6.999999999999944
 30
-0.0000000000000016
 11
841.1146572015020411
 21
7.999999999999944
 31
-0.0000000000000018
210
0.0
220
1.0
230
-0.0000000000000002
  0
LINE
  5
2086
  8
0
  6
VERDECKT
 62
     1
 10
840.1146572015020411
 20
8.9999999999999432
 30
-0.000000000000002
 11
841.1146572015020411
 21
7.999999999999944
 31
-0.0000000000000018
210
0.0
220
1.0
230
-0.0000000000000002
  0
LINE
  5
2087
  8
0
  6
VERDECKT
 62
     1
 10
836.1146572015018137
 20
8.9999999999999432
 30
-0.000000000000002
 11
835.1146572015018137
 21
7.999999999999944
 31
-0.0000000000000018
210
0.0
220
1.0
230
-0.0000000000000002
  0
LINE
  5
2088
  8
0
  6
VERDECKT
 62
     1
 10
836.1146572015018137
 20
8.9999999999999432
 30
-0.000000000000002
 11
835.1146572015018137
 21
9.9999999999999432
 31
-0.0000000000000022
210
0.0
220
1.0
230
-0.0000000000000002
  0
LINE
  5
2089
  8
0
  6
VERDECKT
 62
     1
 10
840.1146572015020411
 20
8.9999999999999432
 30
-0.000000000000002
 11
841.1146572015020411
 21
9.9999999999999432
 31
-0.0000000000000022
210
0.0
220
1.0
230
-0.0000000000000002
  0
LINE
  5
208A
  8
0
  6
VERDECKT
 62
     1
 10
840.1146572015020411
 20
10.9999999999999396
 30
-0.0000000000000024
 11
841.1146572015020411
 21
9.9999999999999432
 31
-0.0000000000000022
210
0.0
220
1.0
230
-0.0000000000000002
  0
LINE
  5
208B
  8
0
  6
VERDECKT
 62
     1
 10
836.1146572015018137
 20
10.9999999999999396
 30
-0.0000000000000024
 11
835.1146572015018137
 21
9.9999999999999432
 31
-0.0000000000000022
210
0.0
220
1.0
230
-0.0000000000000002
  0
LINE
  5
208C
  8
0
  6
VERDECKT
 62
     1
 10
836.1146572015018137
 20
10.9999999999999396
 30
-0.0000000000000024
 11
835.1146572015018137
 21
11.9999999999999396
 31
-0.0000000000000027
210
0.0
220
1.0
230
-0.0000000000000002
  0
LINE
  5
208D
  8
0
  6
VERDECKT
 62
     1
 10
840.1146572015020411
 20
10.9999999999999396
 30
-0.0000000000000024
 11
841.1146572015020411
 21
11.9999999999999396
 31
-0.0000000000000027
210
0.0
220
1.0
230
-0.0000000000000002
  0
LINE
  5
208E
  8
0
  6
VERDECKT
 62
     1
 10
840.1146572015020411
 20
12.9999999999999396
 30
-0.0000000000000029
 11
841.1146572015020411
 21
11.9999999999999396
 31
-0.0000000000000027
210
0.0
220
1.0
230
-0.0000000000000002
  0
LINE
  5
208F
  8
0
  6
VERDECKT
 62
     1
 10
836.1146572015018137
 20
12.9999999999999396
 30
-0.0000000000000029
 11
835.1146572015018137
 21
11.9999999999999396
 31
-0.0000000000000027
210
0.0
220
1.0
230
-0.0000000000000002
  0
LINE
  5
2090
  8
0
  6
VERDECKT
 62
     1
 10
836.1146572015018137
 20
12.9999999999999396
 30
-0.0000000000000029
 11
835.1146572015018137
 21
13.9999999999999503
 31
-0.0000000000000031
210
0.0
220
1.0
230
-0.0000000000000002
  0
LINE
  5
2091
  8
0
  6
VERDECKT
 62
     1
 10
840.1146572015020411
 20
12.9999999999999396
 30
-0.0000000000000029
 11
841.1146572015020411
 21
13.9999999999999503
 31
-0.0000000000000031
210
0.0
220
1.0
230
-0.0000000000000002
  0
LINE
  5
2092
  8
0
  6
VERDECKT
 62
     1
 10
840.1146572015020411
 20
14.9999999999999396
 30
-0.0000000000000033
 11
841.1146572015020411
 21
13.9999999999999503
 31
-0.0000000000000031
210
0.0
220
1.0
230
-0.0000000000000002
  0
LINE
  5
2093
  8
0
  6
VERDECKT
 62
     1
 10
836.1146572015018137
 20
14.9999999999999396
 30
-0.0000000000000033
 11
835.1146572015018137
 21
13.9999999999999503
 31
-0.0000000000000031
210
0.0
220
1.0
230
-0.0000000000000002
  0
LINE
  5
2094
  8
0
  6
VERDECKT
 62
     1
 10
836.1146572015018137
 20
14.9999999999999396
 30
-0.0000000000000033
 11
835.1146572015018137
 21
15.9999999999999503
 31
-0.0000000000000036
210
0.0
220
1.0
230
-0.0000000000000002
  0
LINE
  5
2095
  8
0
  6
VERDECKT
 62
     1
 10
840.1146572015020411
 20
14.9999999999999396
 30
-0.0000000000000033
 11
841.1146572015020411
 21
15.9999999999999503
 31
-0.0000000000000036
210
0.0
220
1.0
230
-0.0000000000000002
  0
LINE
  5
2096
  8
0
  6
VERDECKT
 62
     1
 10
840.1146572015020411
 20
17.0000000000000604
 30
-0.0000000000000038
 11
841.1146572015020411
 21
15.9999999999999503
 31
-0.0000000000000036
210
0.0
220
1.0
230
-0.0000000000000002
  0
LINE
  5
2097
  8
0
  6
VERDECKT
 62
     1
 10
836.1146572015018137
 20
17.0000000000000604
 30
-0.0000000000000038
 11
835.1146572015018137
 21
15.9999999999999503
 31
-0.0000000000000036
210
0.0
220
1.0
230
-0.0000000000000002
  0
LINE
  5
2098
  8
0
  6
VERDECKT
 62
     1
 10
836.1146572015018137
 20
17.0000000000000604
 30
-0.0000000000000038
 11
835.1146572015018137
 21
17.9999999999999396
 31
-0.000000000000004
210
0.0
220
1.0
230
-0.0000000000000002
  0
LINE
  5
2099
  8
0
  6
VERDECKT
 62
     1
 10
840.1146572015020411
 20
17.0000000000000604
 30
-0.0000000000000038
 11
841.1146572015020411
 21
17.9999999999999396
 31
-0.000000000000004
210
0.0
220
1.0
230
-0.0000000000000002
  0
LINE
  5
209A
  8
0
  6
VERDECKT
 62
     1
 10
840.1146572015020411
 20
19.0000000000000604
 30
-0.0000000000000042
 11
841.1146572015020411
 21
17.9999999999999396
 31
-0.000000000000004
210
0.0
220
1.0
230
-0.0000000000000002
  0
LINE
  5
209B
  8
0
  6
VERDECKT
 62
     1
 10
836.1146572015018137
 20
19.0000000000000604
 30
-0.0000000000000042
 11
835.1146572015018137
 21
17.9999999999999396
 31
-0.000000000000004
210
0.0
220
1.0
230
-0.0000000000000002
  0
LINE
  5
209C
  8
0
  6
VERDECKT
 62
     1
 10
836.1146572015018137
 20
19.0000000000000604
 30
-0.0000000000000042
 11
835.1146572015018137
 21
20.0000000000004015
 31
-0.0000000000000044
210
0.0
220
1.0
230
-0.0000000000000002
  0
LINE
  5
209D
  8
0
  6
VERDECKT
 62
     1
 10
840.1146572015020411
 20
19.0000000000000604
 30
-0.0000000000000042
 11
841.1146572015020411
 21
20.0000000000004015
 31
-0.0000000000000044
210
0.0
220
1.0
230
-0.0000000000000002
  0
LINE
  5
209E
  8
0
  6
VERDECKT
 62
     1
 10
705.4771587842784584
 20
17.0
 30
-0.0000000000000038
 11
713.4771587842790268
 21
17.0
 31
-0.0000000000000038
210
0.0
220
1.0
230
-0.0000000000000002
  0
LINE
  5
209F
  8
0
  6
VERDECKT
 62
     1
 10
705.4771587842784584
 20
14.0
 30
-0.0000000000000031
 11
713.4771587842790268
 21
14.0
 31
-0.0000000000000031
210
0.0
220
1.0
230
-0.0000000000000002
  0
LINE
  5
20A0
  8
0
  6
VERDECKT
 62
     1
 10
705.4771587842787994
 20
3.0
 30
-0.0000000000000007
 11
713.4771587842787994
 21
3.0
 31
-0.0000000000000007
210
0.0
220
1.0
230
-0.0000000000000002
  0
LINE
  5
20A1
  8
0
  6
VERDECKT
 62
     1
 10
707.4771587842786857
 20
1.0
 30
-0.0000000000000002
 11
711.4771587842787994
 21
1.0
 31
-0.0000000000000002
210
0.0
220
1.0
230
-0.0000000000000002
  0
LINE
  5
20A2
  8
0
  6
VERDECKT
 62
     1
 10
706.4771587842786857
 20
2.0
 30
-0.0000000000000004
 11
712.4771587842789131
 21
2.0
 31
-0.0000000000000004
210
0.0
220
1.0
230
-0.0000000000000002
  0
LINE
  5
20A3
  8
0
  6
VERDECKT
 62
     1
 10
706.4771587842786857
 20
4.0
 30
-0.0000000000000009
 11
712.4771587842789131
 21
4.0
 31
-0.0000000000000009
210
0.0
220
1.0
230
-0.0000000000000002
  0
LINE
  5
20A4
  8
0
  6
VERDECKT
 62
     1
 10
707.4771587842786857
 20
5.0
 30
-0.0000000000000011
 11
711.4771587842787994
 21
5.0
 31
-0.0000000000000011
210
0.0
220
1.0
230
-0.0000000000000002
  0
LINE
  5
20A5
  8
0
  6
VERDECKT
 62
     1
 10
707.4771587842786857
 20
7.0000000000000009
 30
-0.0000000000000016
 11
711.4771587842787994
 21
7.0000000000000009
 31
-0.0000000000000016
210
0.0
220
1.0
230
-0.0000000000000002
  0
LINE
  5
20A6
  8
0
  6
VERDECKT
 62
     1
 10
706.4771587842786857
 20
8.0000000000000018
 30
-0.0000000000000018
 11
712.4771587842789131
 21
8.0000000000000018
 31
-0.0000000000000018
210
0.0
220
1.0
230
-0.0000000000000002
  0
LINE
  5
20A7
  8
0
  6
VERDECKT
 62
     1
 10
707.4771587842786857
 20
9.0000000000000018
 30
-0.000000000000002
 11
711.4771587842787994
 21
9.0000000000000018
 31
-0.000000000000002
210
0.0
220
1.0
230
-0.0000000000000002
  0
LINE
  5
20A8
  8
0
  6
VERDECKT
 62
     1
 10
706.4771587842786857
 20
10.0
 30
-0.0000000000000022
 11
712.4771587842789131
 21
10.0
 31
-0.0000000000000022
210
0.0
220
1.0
230
-0.0000000000000002
  0
LINE
  5
20A9
  8
0
  6
VERDECKT
 62
     1
 10
707.4771587842786857
 20
11.0
 30
-0.0000000000000024
 11
711.4771587842787994
 21
11.0
 31
-0.0000000000000024
210
0.0
220
1.0
230
-0.0000000000000002
  0
LINE
  5
20AA
  8
0
  6
VERDECKT
 62
     1
 10
706.4771587842786857
 20
12.0
 30
-0.0000000000000027
 11
712.4771587842789131
 21
12.0
 31
-0.0000000000000027
210
0.0
220
1.0
230
-0.0000000000000002
  0
LINE
  5
20AB
  8
0
  6
VERDECKT
 62
     1
 10
707.4771587842786857
 20
13.0
 30
-0.0000000000000029
 11
711.4771587842787994
 21
13.0
 31
-0.0000000000000029
210
0.0
220
1.0
230
-0.0000000000000002
  0
LINE
  5
20AC
  8
0
  6
VERDECKT
 62
     1
 10
707.4771587842786857
 20
15.0
 30
-0.0000000000000033
 11
711.4771587842787994
 21
15.0
 31
-0.0000000000000033
210
0.0
220
1.0
230
-0.0000000000000002
  0
LINE
  5
20AD
  8
0
  6
VERDECKT
 62
     1
 10
706.4771587842786857
 20
16.0
 30
-0.0000000000000036
 11
712.4771587842789131
 21
16.0
 31
-0.0000000000000036
210
0.0
220
1.0
230
-0.0000000000000002
  0
LINE
  5
20AE
  8
0
  6
VERDECKT
 62
     1
 10
706.4771587842786857
 20
18.0
 30
-0.000000000000004
 11
712.4771587842789131
 21
18.0
 31
-0.000000000000004
210
0.0
220
1.0
230
-0.0000000000000002
  0
LINE
  5
20AF
  8
0
  6
VERDECKT
 62
     1
 10
707.4771587842786857
 20
19.0000000000001208
 30
-0.0000000000000042
 11
711.4771587842787994
 21
19.0000000000001208
 31
-0.0000000000000042
210
0.0
220
1.0
230
-0.0000000000000002
  0
LINE
  5
20B0
  8
0
  6
VERDECKT
 62
     1
 10
713.4771587842789131
 20
20.0
 30
-0.0000000000000044
 11
713.4771587842789131
 21
17.0
 31
-0.0000000000000038
210
0.0
220
1.0
230
-0.0000000000000002
  0
LINE
  5
20B1
  8
0
  6
VERDECKT
 62
     1
 10
705.4771587842785721
 20
20.0
 30
-0.0000000000000044
 11
705.4771587842785721
 21
17.0
 31
-0.0000000000000038
210
0.0
220
1.0
230
-0.0000000000000002
  0
LINE
  5
20B2
  8
0
  6
VERDECKT
 62
     1
 10
712.9771587842787994
 20
17.0
 30
-0.0000000000000038
 11
712.9771587842787994
 21
14.0
 31
-0.0000000000000031
210
0.0
220
1.0
230
-0.0000000000000002
  0
LINE
  5
20B3
  8
0
  6
VERDECKT
 62
     1
 10
705.9771587842787994
 20
17.0
 30
-0.0000000000000038
 11
705.9771587842787994
 21
14.0
 31
-0.0000000000000031
210
0.0
220
1.0
230
-0.0000000000000002
  0
LINE
  5
20B4
  8
0
  6
VERDECKT
 62
     1
 10
713.4771587842789131
 20
14.0
 30
-0.0000000000000031
 11
713.4771587842789131
 21
6.0000000000000009
 31
-0.0000000000000013
210
0.0
220
1.0
230
-0.0000000000000002
  0
LINE
  5
20B5
  8
0
  6
VERDECKT
 62
     1
 10
705.4771587842785721
 20
14.0
 30
-0.0000000000000031
 11
705.4771587842785721
 21
6.0000000000000009
 31
-0.0000000000000013
210
0.0
220
1.0
230
-0.0000000000000002
  0
LINE
  5
20B6
  8
0
  6
VERDECKT
 62
     1
 10
712.9771587842787994
 20
6.0000000000000009
 30
-0.0000000000000013
 11
712.9771587842787994
 21
3.0
 31
-0.0000000000000007
210
0.0
220
1.0
230
-0.0000000000000002
  0
LINE
  5
20B7
  8
0
  6
VERDECKT
 62
     1
 10
705.9771587842787994
 20
6.0000000000000009
 30
-0.0000000000000013
 11
705.9771587842787994
 21
3.0
 31
-0.0000000000000007
210
0.0
220
1.0
230
-0.0000000000000002
  0
LINE
  5
20B8
  8
0
  6
VERDECKT
 62
     1
 10
713.4771587842787994
 20
3.0
 30
-0.0000000000000007
 11
713.4771587842787994
 21
0.0000000000005684
 31
0.0
210
0.0
220
1.0
230
-0.0000000000000002
  0
LINE
  5
20B9
  8
0
  6
VERDECKT
 62
     1
 10
705.4771587842787994
 20
3.0
 30
-0.0000000000000007
 11
705.4771587842787994
 21
0.0000000000005684
 31
0.0
210
0.0
220
1.0
230
-0.0000000000000002
  0
LINE
  5
20BA
  8
0
  6
VERDECKT
 62
     1
 10
711.4771587842787994
 20
1.0
 30
-0.0000000000000002
 11
712.4771587842789131
 21
0.0000000000003409
 31
0.0
210
0.0
220
1.0
230
-0.0000000000000002
  0
LINE
  5
20BB
  8
0
  6
VERDECKT
 62
     1
 10
707.4771587842786857
 20
1.0
 30
-0.0000000000000002
 11
706.4771587842786857
 21
0.0000000000003409
 31
0.0
210
0.0
220
1.0
230
-0.0000000000000002
  0
LINE
  5
20BC
  8
0
  6
VERDECKT
 62
     1
 10
707.4771587842786857
 20
1.0
 30
-0.0000000000000002
 11
706.4771587842786857
 21
2.0
 31
-0.0000000000000004
210
0.0
220
1.0
230
-0.0000000000000002
  0
LINE
  5
20BD
  8
0
  6
VERDECKT
 62
     1
 10
711.4771587842787994
 20
1.0
 30
-0.0000000000000002
 11
712.4771587842789131
 21
2.0
 31
-0.0000000000000004
210
0.0
220
1.0
230
-0.0000000000000002
  0
LINE
  5
20BE
  8
0
  6
VERDECKT
 62
     1
 10
711.4771587842787994
 20
3.0
 30
-0.0000000000000007
 11
712.4771587842789131
 21
2.0
 31
-0.0000000000000004
210
0.0
220
1.0
230
-0.0000000000000002
  0
LINE
  5
20BF
  8
0
  6
VERDECKT
 62
     1
 10
707.4771587842786857
 20
3.0
 30
-0.0000000000000007
 11
706.4771587842786857
 21
2.0
 31
-0.0000000000000004
210
0.0
220
1.0
230
-0.0000000000000002
  0
LINE
  5
20C0
  8
0
  6
VERDECKT
 62
     1
 10
707.4771587842786857
 20
3.0
 30
-0.0000000000000007
 11
706.4771587842786857
 21
4.0
 31
-0.0000000000000009
210
0.0
220
1.0
230
-0.0000000000000002
  0
LINE
  5
20C1
  8
0
  6
VERDECKT
 62
     1
 10
711.4771587842787994
 20
3.0
 30
-0.0000000000000007
 11
712.4771587842789131
 21
4.0
 31
-0.0000000000000009
210
0.0
220
1.0
230
-0.0000000000000002
  0
LINE
  5
20C2
  8
0
  6
VERDECKT
 62
     1
 10
711.4771587842787994
 20
5.0
 30
-0.0000000000000011
 11
712.4771587842789131
 21
4.0
 31
-0.0000000000000009
210
0.0
220
1.0
230
-0.0000000000000002
  0
LINE
  5
20C3
  8
0
  6
VERDECKT
 62
     1
 10
707.4771587842786857
 20
5.0
 30
-0.0000000000000011
 11
706.4771587842786857
 21
4.0
 31
-0.0000000000000009
210
0.0
220
1.0
230
-0.0000000000000002
  0
LINE
  5
20C4
  8
0
  6
VERDECKT
 62
     1
 10
707.4771587842786857
 20
5.0
 30
-0.0000000000000011
 11
706.4771587842786857
 21
6.0000000000000009
 31
-0.0000000000000013
210
0.0
220
1.0
230
-0.0000000000000002
  0
LINE
  5
20C5
  8
0
  6
VERDECKT
 62
     1
 10
711.4771587842787994
 20
5.0
 30
-0.0000000000000011
 11
712.4771587842789131
 21
6.0000000000000009
 31
-0.0000000000000013
210
0.0
220
1.0
230
-0.0000000000000002
  0
LINE
  5
20C6
  8
0
  6
VERDECKT
 62
     1
 10
711.4771587842787994
 20
7.0000000000000009
 30
-0.0000000000000016
 11
712.4771587842789131
 21
6.0000000000000009
 31
-0.0000000000000013
210
0.0
220
1.0
230
-0.0000000000000002
  0
LINE
  5
20C7
  8
0
  6
VERDECKT
 62
     1
 10
707.4771587842786857
 20
7.0000000000000009
 30
-0.0000000000000016
 11
706.4771587842786857
 21
6.0000000000000009
 31
-0.0000000000000013
210
0.0
220
1.0
230
-0.0000000000000002
  0
LINE
  5
20C8
  8
0
  6
VERDECKT
 62
     1
 10
707.4771587842786857
 20
7.0000000000000009
 30
-0.0000000000000016
 11
706.4771587842786857
 21
8.0000000000000018
 31
-0.0000000000000018
210
0.0
220
1.0
230
-0.0000000000000002
  0
LINE
  5
20C9
  8
0
  6
VERDECKT
 62
     1
 10
711.4771587842787994
 20
7.0000000000000009
 30
-0.0000000000000016
 11
712.4771587842789131
 21
8.0000000000000018
 31
-0.0000000000000018
210
0.0
220
1.0
230
-0.0000000000000002
  0
LINE
  5
20CA
  8
0
  6
VERDECKT
 62
     1
 10
711.4771587842787994
 20
9.0000000000000018
 30
-0.000000000000002
 11
712.4771587842789131
 21
8.0000000000000018
 31
-0.0000000000000018
210
0.0
220
1.0
230
-0.0000000000000002
  0
LINE
  5
20CB
  8
0
  6
VERDECKT
 62
     1
 10
707.4771587842786857
 20
9.0000000000000018
 30
-0.000000000000002
 11
706.4771587842786857
 21
8.0000000000000018
 31
-0.0000000000000018
210
0.0
220
1.0
230
-0.0000000000000002
  0
LINE
  5
20CC
  8
0
  6
VERDECKT
 62
     1
 10
707.4771587842786857
 20
9.0000000000000018
 30
-0.000000000000002
 11
706.4771587842786857
 21
10.0
 31
-0.0000000000000022
210
0.0
220
1.0
230
-0.0000000000000002
  0
LINE
  5
20CD
  8
0
  6
VERDECKT
 62
     1
 10
711.4771587842787994
 20
9.0000000000000018
 30
-0.000000000000002
 11
712.4771587842789131
 21
10.0
 31
-0.0000000000000022
210
0.0
220
1.0
230
-0.0000000000000002
  0
LINE
  5
20CE
  8
0
  6
VERDECKT
 62
     1
 10
711.4771587842787994
 20
11.0
 30
-0.0000000000000024
 11
712.4771587842789131
 21
10.0
 31
-0.0000000000000022
210
0.0
220
1.0
230
-0.0000000000000002
  0
LINE
  5
20CF
  8
0
  6
VERDECKT
 62
     1
 10
707.4771587842786857
 20
11.0
 30
-0.0000000000000024
 11
706.4771587842786857
 21
10.0
 31
-0.0000000000000022
210
0.0
220
1.0
230
-0.0000000000000002
  0
LINE
  5
20D0
  8
0
  6
VERDECKT
 62
     1
 10
707.4771587842786857
 20
11.0
 30
-0.0000000000000024
 11
706.4771587842786857
 21
12.0
 31
-0.0000000000000027
210
0.0
220
1.0
230
-0.0000000000000002
  0
LINE
  5
20D1
  8
0
  6
VERDECKT
 62
     1
 10
711.4771587842787994
 20
11.0
 30
-0.0000000000000024
 11
712.4771587842789131
 21
12.0
 31
-0.0000000000000027
210
0.0
220
1.0
230
-0.0000000000000002
  0
LINE
  5
20D2
  8
0
  6
VERDECKT
 62
     1
 10
711.4771587842787994
 20
13.0
 30
-0.0000000000000029
 11
712.4771587842789131
 21
12.0
 31
-0.0000000000000027
210
0.0
220
1.0
230
-0.0000000000000002
  0
LINE
  5
20D3
  8
0
  6
VERDECKT
 62
     1
 10
707.4771587842786857
 20
13.0
 30
-0.0000000000000029
 11
706.4771587842786857
 21
12.0
 31
-0.0000000000000027
210
0.0
220
1.0
230
-0.0000000000000002
  0
LINE
  5
20D4
  8
0
  6
VERDECKT
 62
     1
 10
707.4771587842786857
 20
13.0
 30
-0.0000000000000029
 11
706.4771587842786857
 21
14.0
 31
-0.0000000000000031
210
0.0
220
1.0
230
-0.0000000000000002
  0
LINE
  5
20D5
  8
0
  6
VERDECKT
 62
     1
 10
711.4771587842787994
 20
13.0
 30
-0.0000000000000029
 11
712.4771587842789131
 21
14.0
 31
-0.0000000000000031
210
0.0
220
1.0
230
-0.0000000000000002
  0
LINE
  5
20D6
  8
0
  6
VERDECKT
 62
     1
 10
711.4771587842787994
 20
15.0
 30
-0.0000000000000033
 11
712.4771587842789131
 21
14.0
 31
-0.0000000000000031
210
0.0
220
1.0
230
-0.0000000000000002
  0
LINE
  5
20D7
  8
0
  6
VERDECKT
 62
     1
 10
707.4771587842786857
 20
15.0
 30
-0.0000000000000033
 11
706.4771587842786857
 21
14.0
 31
-0.0000000000000031
210
0.0
220
1.0
230
-0.0000000000000002
  0
LINE
  5
20D8
  8
0
  6
VERDECKT
 62
     1
 10
707.4771587842786857
 20
15.0
 30
-0.0000000000000033
 11
706.4771587842786857
 21
16.0
 31
-0.0000000000000036
210
0.0
220
1.0
230
-0.0000000000000002
  0
LINE
  5
20D9
  8
0
  6
VERDECKT
 62
     1
 10
711.4771587842787994
 20
15.0
 30
-0.0000000000000033
 11
712.4771587842789131
 21
16.0
 31
-0.0000000000000036
210
0.0
220
1.0
230
-0.0000000000000002
  0
LINE
  5
20DA
  8
0
  6
VERDECKT
 62
     1
 10
711.4771587842787994
 20
17.0000000000001101
 30
-0.0000000000000038
 11
712.4771587842789131
 21
16.0
 31
-0.0000000000000036
210
0.0
220
1.0
230
-0.0000000000000002
  0
LINE
  5
20DB
  8
0
  6
VERDECKT
 62
     1
 10
707.4771587842786857
 20
17.0000000000001101
 30
-0.0000000000000038
 11
706.4771587842786857
 21
16.0
 31
-0.0000000000000036
210
0.0
220
1.0
230
-0.0000000000000002
  0
LINE
  5
20DC
  8
0
  6
VERDECKT
 62
     1
 10
707.4771587842786857
 20
17.0000000000001101
 30
-0.0000000000000038
 11
706.4771587842786857
 21
18.0
 31
-0.000000000000004
210
0.0
220
1.0
230
-0.0000000000000002
  0
LINE
  5
20DD
  8
0
  6
VERDECKT
 62
     1
 10
711.4771587842787994
 20
17.0000000000001101
 30
-0.0000000000000038
 11
712.4771587842789131
 21
18.0
 31
-0.000000000000004
210
0.0
220
1.0
230
-0.0000000000000002
  0
LINE
  5
20DE
  8
0
  6
VERDECKT
 62
     1
 10
711.4771587842787994
 20
19.0000000000001208
 30
-0.0000000000000042
 11
712.4771587842789131
 21
18.0
 31
-0.000000000000004
210
0.0
220
1.0
230
-0.0000000000000002
  0
LINE
  5
20DF
  8
0
  6
VERDECKT
 62
     1
 10
707.4771587842786857
 20
19.0000000000001208
 30
-0.0000000000000042
 11
706.4771587842786857
 21
18.0
 31
-0.000000000000004
210
0.0
220
1.0
230
-0.0000000000000002
  0
LINE
  5
20E0
  8
0
  6
VERDECKT
 62
     1
 10
707.4771587842786857
 20
19.0000000000001208
 30
-0.0000000000000042
 11
706.4771587842786857
 21
20.0000000000004583
 31
-0.0000000000000044
210
0.0
220
1.0
230
-0.0000000000000002
  0
LINE
  5
20E1
  8
0
  6
VERDECKT
 62
     1
 10
711.4771587842787994
 20
19.0000000000001208
 30
-0.0000000000000042
 11
712.4771587842789131
 21
20.0000000000004583
 31
-0.0000000000000044
210
0.0
220
1.0
230
-0.0000000000000002
  0
ENDBLK
  5
20E3
  8
0
  0
ENDSEC
  0
SECTION
  2
ENTITIES
  0
TEXT
  5
8F
  8
VOLL
 10
78.076754716981128
 20
31.025947764705851
 30
0.0
 40
1.8
  1

  7
GREEKS
  0
INSERT
  5
14AD
  8
ADSK_ASSOC_ENTITY_BACKUPS
  2
*S2
 10
0.0
 20
0.0
 30
0.0
  0
INSERT
  5
1FEE
  8
STEMPEL
  2
A$C29A021FC
 10
349.5434854313804749
 20
-209.3411602168208958
 30
-32.4331629085431317
  0
INSERT
  5
20E4
  8
STEMPEL
  2
A$C3781A58C
 10
349.5434854313804749
 20
439.907243109891283
 30
-32.4331629085429611
  0
VIEWPORT
  5
C7F
 67
     1
  8
0
 10
62.3888308609644184
 20
131.5305027396238131
 30
0.0
 40
533.9969448798290159
 41
299.1239570917758783
 68
     1
 69
     1
1001
ACAD
1000
MVIEW
1002
{
1070
    16
1010
0.0
1020
0.0
1030
0.0
1010
0.0
1020
0.0
1030
1.0
1040
0.0
1040
299.1239570917758783
1040
62.3888308609644184
1040
131.5305027396238131
1040
50.0
1040
0.0
1040
0.0
1070
     0
1070
  1500
1070
     1
1070
     1
1070
     0
1070
     0
1070
     0
1070
     0
1040
0.0
1040
0.0
1040
0.0
1040
10.0
1040
10.0
1040
10.0
1040
10.0
1070
     0
1002
{
1002
}
1002
}
  0
ENDSEC
  0
EOF
