  0
SECTION
  2
HEADER
  9
$ACADVER
  1
AC1009
  9
$INSBASE
 10
0.0
 20
0.0
 30
0.0
  9
$EXTMIN
 10
188.9137935191087934
 20
-199.9524487057269084
 30
-0.000000000000032
  9
$EXTMAX
 10
503.9137935191095039
 20
190.2860657706237077
 30
0.0000000000000213
  9
$LIMMIN
 10
0.0
 20
0.0
  9
$LIMMAX
 10
420.0
 20
297.0
  9
$ORTHOMODE
 70
     1
  9
$REGENMODE
 70
     1
  9
$FILLMODE
 70
     1
  9
$QTEXTMODE
 70
     0
  9
$MIRRTEXT
 70
     1
  9
$DRAGMODE
 70
     2
  9
$LTSCALE
 40
10.0
  9
$OSMODE
 70
  2495
  9
$ATTMODE
 70
     1
  9
$TEXTSIZE
 40
3.5
  9
$TRACEWID
 40
1.0
  9
$TEXTSTYLE
  7
STANDARD
  9
$CLAYER
  8
STEMPEL
  9
$CELTYPE
  6
BYLAYER
  9
$CECOLOR
 62
   256
  9
$DIMSCALE
 40
1.0
  9
$DIMASZ
 40
3.5
  9
$DIMEXO
 40
1.0
  9
$DIMDLI
 40
7.0
  9
$DIMRND
 40
0.0
  9
$DIMDLE
 40
0.0
  9
$DIMEXE
 40
1.0
  9
$DIMTP
 40
0.0
  9
$DIMTM
 40
0.0
  9
$DIMTXT
 40
3.5
  9
$DIMCEN
 40
1.5
  9
$DIMTSZ
 40
0.0
  9
$DIMTOL
 70
     0
  9
$DIMLIM
 70
     0
  9
$DIMTIH
 70
     0
  9
$DIMTOH
 70
     0
  9
$DIMSE1
 70
     0
  9
$DIMSE2
 70
     0
  9
$DIMTAD
 70
     1
  9
$DIMZIN
 70
     8
  9
$DIMBLK
  1

  9
$DIMASO
 70
     1
  9
$DIMSHO
 70
     0
  9
$DIMPOST
  1

  9
$DIMAPOST
  1

  9
$DIMALT
 70
     0
  9
$DIMALTD
 70
     2
  9
$DIMALTF
 40
25.3999999999999986
  9
$DIMLFAC
 40
2.0
  9
$DIMTOFL
 70
     1
  9
$DIMTVP
 40
0.0
  9
$DIMTIX
 70
     0
  9
$DIMSOXD
 70
     0
  9
$DIMSAH
 70
     0
  9
$DIMBLK1
  1

  9
$DIMBLK2
  1

  9
$DIMSTYLE
  2
STANDARD
  9
$DIMCLRD
 70
     0
  9
$DIMCLRE
 70
     0
  9
$DIMCLRT
 70
     1
  9
$DIMTFAC
 40
0.5142857142857143
  9
$DIMGAP
 40
1.5
  9
$LUNITS
 70
     2
  9
$LUPREC
 70
     2
  9
$SKETCHINC
 40
1.0
  9
$FILLETRAD
 40
0.0
  9
$AUNITS
 70
     0
  9
$AUPREC
 70
     0
  9
$MENU
  1
ACAD
  9
$ELEVATION
 40
0.0
  9
$PELEVATION
 40
0.0
  9
$THICKNESS
 40
0.0
  9
$LIMCHECK
 70
     0
  9
$BLIPMODE
 70
     0
  9
$CHAMFERA
 40
1.0
  9
$CHAMFERB
 40
1.0
  9
$SKPOLY
 70
     0
  9
$TDCREATE
 40
2455397.867048610933125
  9
$TDUPDATE
 40
2459041.4947453700006008
  9
$TDINDWG
 40
0.3262904282
  9
$TDUSRTIMER
 40
0.3262904282
  9
$USRTIMER
 70
     1
  9
$ANGBASE
 50
0.0
  9
$ANGDIR
 70
     0
  9
$PDMODE
 70
     0
  9
$PDSIZE
 40
0.0
  9
$PLINEWID
 40
0.0
  9
$COORDS
 70
     1
  9
$SPLFRAME
 70
     0
  9
$SPLINETYPE
 70
     6
  9
$SPLINESEGS
 70
     8
  9
$ATTDIA
 70
     1
  9
$ATTREQ
 70
     1
  9
$HANDLING
 70
     1
  9
$HANDSEED
  5
1B7A
  9
$SURFTAB1
 70
     6
  9
$SURFTAB2
 70
     6
  9
$SURFTYPE
 70
     6
  9
$SURFU
 70
     6
  9
$SURFV
 70
     6
  9
$UCSNAME
  2

  9
$UCSORG
 10
0.0
 20
0.0
 30
0.0
  9
$UCSXDIR
 10
1.0
 20
0.0
 30
0.0
  9
$UCSYDIR
 10
0.0
 20
1.0
 30
0.0
  9
$PUCSNAME
  2

  9
$PUCSORG
 10
0.0
 20
0.0
 30
0.0
  9
$PUCSXDIR
 10
1.0
 20
0.0
 30
0.0
  9
$PUCSYDIR
 10
0.0
 20
1.0
 30
0.0
  9
$USERI1
 70
     0
  9
$USERI2
 70
     0
  9
$USERI3
 70
     0
  9
$USERI4
 70
     0
  9
$USERI5
 70
     0
  9
$USERR1
 40
0.0
  9
$USERR2
 40
0.0
  9
$USERR3
 40
0.0
  9
$USERR4
 40
0.0
  9
$USERR5
 40
0.0
  9
$WORLDVIEW
 70
     1
  9
$SHADEDGE
 70
     3
  9
$SHADEDIF
 70
    70
  9
$TILEMODE
 70
     1
  9
$MAXACTVP
 70
    16
  9
$PLIMCHECK
 70
     0
  9
$PEXTMIN
 10
1.0000000000000000E+20
 20
1.0000000000000000E+20
 30
1.0000000000000000E+20
  9
$PEXTMAX
 10
-1.0000000000000000E+20
 20
-1.0000000000000000E+20
 30
-1.0000000000000000E+20
  9
$PLIMMIN
 10
-104.3717488469599033
 20
-139.8757919223097019
  9
$PLIMMAX
 10
192.6282511530399972
 20
280.1242080776901844
  9
$UNITMODE
 70
     0
  9
$VISRETAIN
 70
     0
  9
$PLINEGEN
 70
     0
  9
$PSLTSCALE
 70
     0
  0
ENDSEC
  0
SECTION
  2
TABLES
  0
TABLE
  2
VPORT
 70
     1
  0
VPORT
  2
*ACTIVE
 70
     0
 10
0.0
 20
0.0
 11
1.0
 21
1.0
 12
0.4189565436890917
 22
37.6192605555102091
 13
0.0
 23
0.0
 14
1.0
 24
1.0
 15
10.0
 25
10.0
 16
-0.0000000000002274
 26
0.0
 36
1111.6274531850099265
 17
345.9948369754201281
 27
-42.4524520230618165
 37
-14.5754790612466998
 40
393.0292547467415716
 41
1.7852028639618129
 42
50.0
 43
0.0
 44
0.0
 50
0.0
 51
0.0
 71
     0
 72
  1500
 73
     1
 74
     0
 75
     0
 76
     0
 77
     0
 78
     0
  0
ENDTAB
  0
TABLE
  2
LTYPE
 70
     6
  0
LTYPE
  2
CONTINUOUS
 70
     0
  3
Solid line
 72
    65
 73
     0
 40
0.0
  0
LTYPE
  2
AUSGEZOGEN
 70
     0
  3
Ausgezogene Linie
 72
    65
 73
     0
 40
0.0
  0
LTYPE
  2
PHANTOM2
 70
     0
  3
Phantom (.5x) ___ _ _ ___ _ _ ___ _ _ ___ _ _
 72
    65
 73
     6
 40
1.25
 49
0.625
 49
-0.125
 49
0.125
 49
-0.125
 49
0.125
 49
-0.125
  0
LTYPE
  2
VERDECKT
 70
     0
  3
Verdeckt __ __ __ __ __ __ __ __ __ __ __ __ __
 72
    65
 73
     2
 40
0.375
 49
0.25
 49
-0.125
  0
ENDTAB
  0
TABLE
  2
LAYER
 70
    13
  0
LAYER
  2
0
 70
     0
 62
     7
  6
CONTINUOUS
  0
LAYER
  2
STEMPEL
 70
     0
 62
     3
  6
CONTINUOUS
  0
LAYER
  2
DEFPOINTS
 70
     0
 62
     7
  6
AUSGEZOGEN
  0
LAYER
  2
ADSK_ASSOC_ENTITY_BACKUPS
 70
     1
 62
    -7
  6
CONTINUOUS
  0
ENDTAB
  0
TABLE
  2
STYLE
 70
     5
  0
STYLE
  2
STANDARD
 70
     0
 40
0.0
 41
0.8
 50
0.0
 71
     0
 42
3.5
  3
simplex.shx
  4

  0
ENDTAB
  0
TABLE
  2
VIEW
 70
     1
  0
ENDTAB
  0
TABLE
  2
UCS
 70
     0
  0
ENDTAB
  0
TABLE
  2
APPID
 70
    21
  0
APPID
  2
ACAD
 70
     0
  0
APPID
  2
ACAD_NAV_VCDISPLAY
 70
     0
  0
APPID
  2
GRADIENTCOLOR1ACI
 70
     0
  0
APPID
  2
GRADIENTCOLOR2ACI
 70
     0
  0
APPID
  2
ACAD_DSTYLE_DIMRADIAL_EXTENSION
 70
     0
  0
APPID
  2
ACADANNOMONITORALERTICONDI
 70
     0
  0
APPID
  2
ACAD_EXEMPT_FROM_CAD_STANDARDS
 70
     0
  0
APPID
  2
ACAD_MLEADERVER
 70
     0
  0
APPID
  2
ACAD_PSEXT
 70
     0
  0
APPID
  2
ACAECLAYERSTANDARD
 70
     0
  0
APPID
  2
ACAUTHENVIRON
 70
     0
  0
APPID
  2
ACAD_STEPID
 70
     0
  0
APPID
  2
ACCMTRANSPARENCY
 70
     0
  0
APPID
  2
ACSYNERGY
 70
     0
  0
APPID
  2
SYNERGY_BODY_TBR_ID
 70
     0
  0
APPID
  2
ACAD_VIEW_EDGE_ID
 70
     0
  0
APPID
  2
ACSYNERGYSKETCH
 70
     0
  0
APPID
  2
ACAD_MODELDOC_XFORM
 70
     0
  0
APPID
  2
ACAD_DSTYLE_DIMJAG
 70
     0
  0
APPID
  2
ACAD_DSTYLE_DIMTALN
 70
     0
  0
APPID
  2
AcDbAttr
 70
     0
  0
ENDTAB
  0
TABLE
  2
DIMSTYLE
 70
     3
  0
DIMSTYLE
  2
STANDARD
 70
     0
  3

  4

  5

  6

  7

 40
1.0
 41
0.18
 42
0.0625
 43
0.38
 44
0.18
 45
0.0
 46
0.0
 47
0.0
 48
0.0
140
0.18
141
0.09
142
0.0
143
25.3999999999999986
144
1.0
145
0.0
146
1.0
147
0.09
 71
     0
 72
     0
 73
     1
 74
     1
 75
     0
 76
     0
 77
     0
 78
     0
170
     0
171
     2
172
     0
173
     0
174
     0
175
     0
176
     0
177
     0
178
     0
  0
ENDTAB
  0
ENDSEC
  0
SECTION
  2
BLOCKS
  0
BLOCK
  8
0
  2
$MODEL_SPACE
 70
     0
 10
0.0
 20
0.0
 30
0.0
  3
$MODEL_SPACE
  1

  0
ENDBLK
  5
38
  8
0
  0
BLOCK
 67
     1
  8
0
  2
$PAPER_SPACE
 70
     0
 10
0.0
 20
0.0
 30
0.0
  3
$PAPER_SPACE
  1

  0
ENDBLK
  5
36
 67
     1
  8
0
  0
BLOCK
  8
0
  2
*S3
 70
     1
 10
0.0
 20
0.0
 30
0.0
  3
*S3
  1

  0
ENDBLK
  5
EFA
  8
0
  0
BLOCK
  8
0
  2
A$CBE8BEA4C
 70
     0
 10
0.0
 20
0.0
 30
0.0
  3
A$CBE8BEA4C
  1

  0
CIRCLE
  5
1930
  8
0
  6
CONTINUOUS
 10
-112.6779526579392012
 20
9.7713603043940225
 30
-0.0000000000000249
 40
5.0
  0
CIRCLE
  5
1931
  8
0
  6
CONTINUOUS
 10
-112.6779526579392012
 20
9.7713603043940225
 30
-0.0000000000000249
 40
4.0
  0
CIRCLE
  5
1932
  8
0
  6
CONTINUOUS
 10
-22.8753914472479103
 20
46.9687990937023798
 30
-0.0000000000000036
 40
5.0
  0
CIRCLE
  5
1933
  8
0
  6
CONTINUOUS
 10
-22.8753914472479103
 20
46.9687990937023798
 30
-0.0000000000000036
 40
4.0
  0
CIRCLE
  5
1934
  8
0
  6
CONTINUOUS
 10
66.9271697634434588
 20
9.7713603043940225
 30
0.0000000000000142
 40
5.0
  0
CIRCLE
  5
1935
  8
0
  6
CONTINUOUS
 10
66.9271697634434588
 20
9.7713603043940225
 30
0.0000000000000142
 40
4.0
  0
CIRCLE
  5
1936
  8
0
  6
CONTINUOUS
 10
104.1246085527518943
 20
-80.0312009062975278
 30
0.0000000000000213
 40
5.0
  0
CIRCLE
  5
1937
  8
0
  6
CONTINUOUS
 10
104.1246085527518943
 20
-80.0312009062975278
 30
0.0000000000000213
 40
4.0
  0
CIRCLE
  5
1938
  8
0
  6
CONTINUOUS
 10
-22.8753914472479387
 20
-207.0312009062974141
 30
-0.0000000000000036
 40
5.0
  0
CIRCLE
  5
1939
  8
0
  6
CONTINUOUS
 10
-22.8753914472479387
 20
-207.0312009062974141
 30
-0.0000000000000036
 40
4.0
  0
CIRCLE
  5
193A
  8
0
  6
CONTINUOUS
 10
66.9271697634435156
 20
-169.8337621169889928
 30
0.0000000000000142
 40
5.0
  0
CIRCLE
  5
193B
  8
0
  6
CONTINUOUS
 10
66.9271697634435156
 20
-169.8337621169889928
 30
0.0000000000000142
 40
4.0
  0
CIRCLE
  5
193C
  8
0
  6
CONTINUOUS
 10
-149.8753914472478073
 20
-80.0312009062975136
 30
-0.000000000000032
 40
5.0
  0
CIRCLE
  5
193D
  8
0
  6
CONTINUOUS
 10
-149.8753914472478073
 20
-80.0312009062975136
 30
-0.000000000000032
 40
4.0
  0
CIRCLE
  5
193E
  8
0
  6
CONTINUOUS
 10
-112.6779526579394002
 20
-169.8337621169889076
 30
-0.0000000000000249
 40
5.0
  0
CIRCLE
  5
193F
  8
0
  6
CONTINUOUS
 10
-112.6779526579394002
 20
-169.8337621169889076
 30
-0.0000000000000249
 40
4.0
  0
CIRCLE
  5
1940
  8
0
  6
CONTINUOUS
 10
-22.8753914472478108
 20
-80.0312009062975562
 30
-0.0000000000000049
 40
156.5000000000007958
  0
CIRCLE
  5
1941
  8
0
  6
CONTINUOUS
 10
-22.8753914472478108
 20
-80.0312009062975562
 30
-0.0000000000000049
 40
157.5000000000003126
  0
CIRCLE
  5
1942
  8
0
  6
CONTINUOUS
 10
-22.8753914472479103
 20
-80.0312009062975278
 30
-0.0000000000000036
 40
68.5999999999999517
  0
CIRCLE
  5
1943
  8
0
  6
CONTINUOUS
 10
-22.8753914472479103
 20
-80.0312009062975278
 30
-0.0000000000000036
 40
71.3615145603574064
  0
ENDBLK
  5
1945
  8
0
  0
BLOCK
  8
0
  2
A$C19696FDA
 70
     0
 10
0.0
 20
0.0
 30
0.0
  3
A$C19696FDA
  1

  0
LINE
  5
1949
  8
0
  6
CONTINUOUS
 10
99.1246085527519654
 20
27.0000000000000107
 30
-0.000000000000006
 11
109.1246085527518943
 21
27.0000000000000107
 31
-0.000000000000006
210
0.0
220
1.0
230
-0.0000000000000002
  0
LINE
  5
194A
  8
0
  6
CONTINUOUS
 10
100.1246085527518943
 20
28.0000000000000107
 30
-0.0000000000000062
 11
108.1246085527518943
 21
28.0000000000000107
 31
-0.0000000000000062
210
0.0
220
1.0
230
-0.0000000000000002
  0
LINE
  5
194B
  8
0
  6
CONTINUOUS
 10
100.1246085527518943
 20
26.0000000000000107
 30
-0.0000000000000058
 11
108.1246085527518943
 21
26.0000000000000107
 31
-0.0000000000000058
210
0.0
220
1.0
230
-0.0000000000000002
  0
LINE
  5
194C
  8
0
  6
CONTINUOUS
 10
99.1246085527519654
 20
25.0000000000000107
 30
-0.0000000000000056
 11
109.1246085527518943
 21
25.0000000000000107
 31
-0.0000000000000056
210
0.0
220
1.0
230
-0.0000000000000002
  0
LINE
  5
194D
  8
0
  6
CONTINUOUS
 10
100.1246085527518943
 20
24.0000000000000107
 30
-0.0000000000000053
 11
108.1246085527518943
 21
24.0000000000000107
 31
-0.0000000000000053
210
0.0
220
1.0
230
-0.0000000000000002
  0
LINE
  5
194E
  8
0
  6
CONTINUOUS
 10
99.1246085527519654
 20
23.0
 30
-0.0000000000000051
 11
109.1246085527518943
 21
23.0
 31
-0.0000000000000051
210
0.0
220
1.0
230
-0.0000000000000002
  0
LINE
  5
194F
  8
0
  6
CONTINUOUS
 10
100.1246085527518943
 20
22.0000000000000107
 30
-0.0000000000000049
 11
108.1246085527518943
 21
22.0000000000000107
 31
-0.0000000000000049
210
0.0
220
1.0
230
-0.0000000000000002
  0
LINE
  5
1950
  8
0
  6
CONTINUOUS
 10
99.1246085527519654
 20
21.0
 30
-0.0000000000000047
 11
109.1246085527518943
 21
21.0
 31
-0.0000000000000047
210
0.0
220
1.0
230
-0.0000000000000002
  0
LINE
  5
1951
  8
0
  6
CONTINUOUS
 10
100.1246085527518943
 20
20.0
 30
-0.0000000000000044
 11
108.1246085527518943
 21
20.0
 31
-0.0000000000000044
210
0.0
220
1.0
230
-0.0000000000000002
  0
LINE
  5
1952
  8
0
  6
CONTINUOUS
 10
99.1246085527519654
 20
19.0
 30
-0.0000000000000042
 11
109.1246085527518943
 21
19.0
 31
-0.0000000000000042
210
0.0
220
1.0
230
-0.0000000000000002
  0
LINE
  5
1953
  8
0
  6
CONTINUOUS
 10
100.1246085527518943
 20
18.0
 30
-0.000000000000004
 11
108.1246085527518943
 21
18.0
 31
-0.000000000000004
210
0.0
220
1.0
230
-0.0000000000000002
  0
LINE
  5
1954
  8
0
  6
CONTINUOUS
 10
99.1246085527519654
 20
17.0
 30
-0.0000000000000038
 11
109.1246085527518943
 21
17.0
 31
-0.0000000000000038
210
0.0
220
1.0
230
-0.0000000000000002
  0
LINE
  5
1955
  8
0
  6
CONTINUOUS
 10
100.1246085527518943
 20
16.0
 30
-0.0000000000000036
 11
108.1246085527518943
 21
16.0
 31
-0.0000000000000036
210
0.0
220
1.0
230
-0.0000000000000002
  0
LINE
  5
1956
  8
0
  6
CONTINUOUS
 10
99.1246085527519654
 20
15.0
 30
-0.0000000000000033
 11
109.1246085527518943
 21
15.0
 31
-0.0000000000000033
210
0.0
220
1.0
230
-0.0000000000000002
  0
LINE
  5
1957
  8
0
  6
CONTINUOUS
 10
100.1246085527518943
 20
14.0
 30
-0.0000000000000031
 11
108.1246085527518943
 21
14.0
 31
-0.0000000000000031
210
0.0
220
1.0
230
-0.0000000000000002
  0
LINE
  5
1958
  8
0
  6
CONTINUOUS
 10
99.1246085527519654
 20
13.0
 30
-0.0000000000000029
 11
109.1246085527518943
 21
13.0
 31
-0.0000000000000029
210
0.0
220
1.0
230
-0.0000000000000002
  0
LINE
  5
1959
  8
0
  6
CONTINUOUS
 10
100.1246085527518943
 20
12.0
 30
-0.0000000000000027
 11
108.1246085527518943
 21
12.0
 31
-0.0000000000000027
210
0.0
220
1.0
230
-0.0000000000000002
  0
LINE
  5
195A
  8
0
  6
CONTINUOUS
 10
99.1246085527519654
 20
11.0
 30
-0.0000000000000024
 11
109.1246085527518943
 21
11.0
 31
-0.0000000000000024
210
0.0
220
1.0
230
-0.0000000000000002
  0
LINE
  5
195B
  8
0
  6
CONTINUOUS
 10
100.1246085527518943
 20
10.0
 30
-0.0000000000000022
 11
108.1246085527518943
 21
10.0
 31
-0.0000000000000022
210
0.0
220
1.0
230
-0.0000000000000002
  0
LINE
  5
195C
  8
0
  6
CONTINUOUS
 10
99.1246085527519654
 20
9.0000000000000018
 30
-0.000000000000002
 11
109.1246085527518943
 21
9.0000000000000018
 31
-0.000000000000002
210
0.0
220
1.0
230
-0.0000000000000002
  0
LINE
  5
195D
  8
0
  6
CONTINUOUS
 10
100.1246085527518943
 20
8.0000000000000018
 30
-0.0000000000000018
 11
108.1246085527518943
 21
8.0000000000000018
 31
-0.0000000000000018
210
0.0
220
1.0
230
-0.0000000000000002
  0
LINE
  5
195E
  8
0
  6
CONTINUOUS
 10
99.1246085527519654
 20
7.0000000000000009
 30
-0.0000000000000016
 11
109.1246085527518943
 21
7.0000000000000009
 31
-0.0000000000000016
210
0.0
220
1.0
230
-0.0000000000000002
  0
LINE
  5
195F
  8
0
  6
CONTINUOUS
 10
100.1246085527518943
 20
6.0000000000000009
 30
-0.0000000000000013
 11
108.1246085527518943
 21
6.0000000000000009
 31
-0.0000000000000013
210
0.0
220
1.0
230
-0.0000000000000002
  0
LINE
  5
1960
  8
0
  6
CONTINUOUS
 10
99.1246085527519654
 20
5.0
 30
-0.0000000000000011
 11
109.1246085527518943
 21
5.0
 31
-0.0000000000000011
210
0.0
220
1.0
230
-0.0000000000000002
  0
LINE
  5
1961
  8
0
  6
CONTINUOUS
 10
100.1246085527518943
 20
4.0
 30
-0.0000000000000009
 11
108.1246085527518943
 21
4.0
 31
-0.0000000000000009
210
0.0
220
1.0
230
-0.0000000000000002
  0
LINE
  5
1962
  8
0
  6
CONTINUOUS
 10
108.1246085527518943
 20
28.0000000000000107
 30
-0.0000000000000062
 11
109.1246085527518943
 21
27.0000000000000107
 31
-0.000000000000006
210
0.0
220
1.0
230
-0.0000000000000002
  0
LINE
  5
1963
  8
0
  6
CONTINUOUS
 10
100.1246085527518943
 20
28.0000000000000107
 30
-0.0000000000000062
 11
99.1246085527519654
 21
27.0000000000000107
 31
-0.000000000000006
210
0.0
220
1.0
230
-0.0000000000000002
  0
LINE
  5
1964
  8
0
  6
CONTINUOUS
 10
100.1246085527518943
 20
26.0000000000000107
 30
-0.0000000000000058
 11
99.1246085527519654
 21
27.0000000000000107
 31
-0.000000000000006
210
0.0
220
1.0
230
-0.0000000000000002
  0
LINE
  5
1965
  8
0
  6
CONTINUOUS
 10
108.1246085527518943
 20
26.0000000000000107
 30
-0.0000000000000058
 11
109.1246085527518943
 21
27.0000000000000107
 31
-0.000000000000006
210
0.0
220
1.0
230
-0.0000000000000002
  0
LINE
  5
1966
  8
0
  6
CONTINUOUS
 10
108.1246085527518943
 20
26.0000000000000107
 30
-0.0000000000000058
 11
109.1246085527518943
 21
25.0000000000000107
 31
-0.0000000000000056
210
0.0
220
1.0
230
-0.0000000000000002
  0
LINE
  5
1967
  8
0
  6
CONTINUOUS
 10
100.1246085527518943
 20
26.0000000000000107
 30
-0.0000000000000058
 11
99.1246085527519654
 21
25.0000000000000107
 31
-0.0000000000000056
210
0.0
220
1.0
230
-0.0000000000000002
  0
LINE
  5
1968
  8
0
  6
CONTINUOUS
 10
100.1246085527518943
 20
24.0000000000000107
 30
-0.0000000000000053
 11
99.1246085527519654
 21
25.0000000000000107
 31
-0.0000000000000056
210
0.0
220
1.0
230
-0.0000000000000002
  0
LINE
  5
1969
  8
0
  6
CONTINUOUS
 10
108.1246085527518943
 20
24.0000000000000107
 30
-0.0000000000000053
 11
109.1246085527518943
 21
25.0000000000000107
 31
-0.0000000000000056
210
0.0
220
1.0
230
-0.0000000000000002
  0
LINE
  5
196A
  8
0
  6
CONTINUOUS
 10
108.1246085527518943
 20
24.0000000000000107
 30
-0.0000000000000053
 11
109.1246085527518943
 21
23.0
 31
-0.0000000000000051
210
0.0
220
1.0
230
-0.0000000000000002
  0
LINE
  5
196B
  8
0
  6
CONTINUOUS
 10
100.1246085527518943
 20
24.0000000000000107
 30
-0.0000000000000053
 11
99.1246085527519654
 21
23.0
 31
-0.0000000000000051
210
0.0
220
1.0
230
-0.0000000000000002
  0
LINE
  5
196C
  8
0
  6
CONTINUOUS
 10
100.1246085527518943
 20
22.0000000000000107
 30
-0.0000000000000049
 11
99.1246085527519654
 21
23.0
 31
-0.0000000000000051
210
0.0
220
1.0
230
-0.0000000000000002
  0
LINE
  5
196D
  8
0
  6
CONTINUOUS
 10
108.1246085527518943
 20
22.0000000000000107
 30
-0.0000000000000049
 11
109.1246085527518943
 21
23.0
 31
-0.0000000000000051
210
0.0
220
1.0
230
-0.0000000000000002
  0
LINE
  5
196E
  8
0
  6
CONTINUOUS
 10
108.1246085527518943
 20
22.0000000000000107
 30
-0.0000000000000049
 11
109.1246085527518943
 21
21.0
 31
-0.0000000000000047
210
0.0
220
1.0
230
-0.0000000000000002
  0
LINE
  5
196F
  8
0
  6
CONTINUOUS
 10
100.1246085527518943
 20
22.0000000000000107
 30
-0.0000000000000049
 11
99.1246085527519654
 21
21.0
 31
-0.0000000000000047
210
0.0
220
1.0
230
-0.0000000000000002
  0
LINE
  5
1970
  8
0
  6
CONTINUOUS
 10
100.1246085527518943
 20
20.0
 30
-0.0000000000000044
 11
99.1246085527519654
 21
21.0
 31
-0.0000000000000047
210
0.0
220
1.0
230
-0.0000000000000002
  0
LINE
  5
1971
  8
0
  6
CONTINUOUS
 10
108.1246085527518943
 20
20.0
 30
-0.0000000000000044
 11
109.1246085527518943
 21
21.0
 31
-0.0000000000000047
210
0.0
220
1.0
230
-0.0000000000000002
  0
LINE
  5
1972
  8
0
  6
CONTINUOUS
 10
108.1246085527518943
 20
20.0
 30
-0.0000000000000044
 11
109.1246085527518943
 21
19.0
 31
-0.0000000000000042
210
0.0
220
1.0
230
-0.0000000000000002
  0
LINE
  5
1973
  8
0
  6
CONTINUOUS
 10
100.1246085527518943
 20
20.0
 30
-0.0000000000000044
 11
99.1246085527519654
 21
19.0
 31
-0.0000000000000042
210
0.0
220
1.0
230
-0.0000000000000002
  0
LINE
  5
1974
  8
0
  6
CONTINUOUS
 10
100.1246085527518943
 20
18.0
 30
-0.000000000000004
 11
99.1246085527519654
 21
19.0
 31
-0.0000000000000042
210
0.0
220
1.0
230
-0.0000000000000002
  0
LINE
  5
1975
  8
0
  6
CONTINUOUS
 10
108.1246085527518943
 20
18.0
 30
-0.000000000000004
 11
109.1246085527518943
 21
19.0
 31
-0.0000000000000042
210
0.0
220
1.0
230
-0.0000000000000002
  0
LINE
  5
1976
  8
0
  6
CONTINUOUS
 10
108.1246085527518943
 20
18.0
 30
-0.000000000000004
 11
109.1246085527518943
 21
17.0
 31
-0.0000000000000038
210
0.0
220
1.0
230
-0.0000000000000002
  0
LINE
  5
1977
  8
0
  6
CONTINUOUS
 10
100.1246085527518943
 20
18.0
 30
-0.000000000000004
 11
99.1246085527519654
 21
17.0
 31
-0.0000000000000038
210
0.0
220
1.0
230
-0.0000000000000002
  0
LINE
  5
1978
  8
0
  6
CONTINUOUS
 10
100.1246085527518943
 20
16.0
 30
-0.0000000000000036
 11
99.1246085527519654
 21
17.0
 31
-0.0000000000000038
210
0.0
220
1.0
230
-0.0000000000000002
  0
LINE
  5
1979
  8
0
  6
CONTINUOUS
 10
108.1246085527518943
 20
16.0
 30
-0.0000000000000036
 11
109.1246085527518943
 21
17.0
 31
-0.0000000000000038
210
0.0
220
1.0
230
-0.0000000000000002
  0
LINE
  5
197A
  8
0
  6
CONTINUOUS
 10
108.1246085527518943
 20
16.0
 30
-0.0000000000000036
 11
109.1246085527518943
 21
15.0
 31
-0.0000000000000033
210
0.0
220
1.0
230
-0.0000000000000002
  0
LINE
  5
197B
  8
0
  6
CONTINUOUS
 10
100.1246085527518943
 20
16.0
 30
-0.0000000000000036
 11
99.1246085527519654
 21
15.0
 31
-0.0000000000000033
210
0.0
220
1.0
230
-0.0000000000000002
  0
LINE
  5
197C
  8
0
  6
CONTINUOUS
 10
100.1246085527518943
 20
14.0
 30
-0.0000000000000031
 11
99.1246085527519654
 21
15.0
 31
-0.0000000000000033
210
0.0
220
1.0
230
-0.0000000000000002
  0
LINE
  5
197D
  8
0
  6
CONTINUOUS
 10
108.1246085527518943
 20
14.0
 30
-0.0000000000000031
 11
109.1246085527518943
 21
15.0
 31
-0.0000000000000033
210
0.0
220
1.0
230
-0.0000000000000002
  0
LINE
  5
197E
  8
0
  6
CONTINUOUS
 10
108.1246085527518943
 20
14.0
 30
-0.0000000000000031
 11
109.1246085527518943
 21
13.0
 31
-0.0000000000000029
210
0.0
220
1.0
230
-0.0000000000000002
  0
LINE
  5
197F
  8
0
  6
CONTINUOUS
 10
100.1246085527518943
 20
14.0
 30
-0.0000000000000031
 11
99.1246085527519654
 21
13.0
 31
-0.0000000000000029
210
0.0
220
1.0
230
-0.0000000000000002
  0
LINE
  5
1980
  8
0
  6
CONTINUOUS
 10
100.1246085527518943
 20
12.0
 30
-0.0000000000000027
 11
99.1246085527519654
 21
13.0
 31
-0.0000000000000029
210
0.0
220
1.0
230
-0.0000000000000002
  0
LINE
  5
1981
  8
0
  6
CONTINUOUS
 10
108.1246085527518943
 20
12.0
 30
-0.0000000000000027
 11
109.1246085527518943
 21
13.0
 31
-0.0000000000000029
210
0.0
220
1.0
230
-0.0000000000000002
  0
LINE
  5
1982
  8
0
  6
CONTINUOUS
 10
108.1246085527518943
 20
12.0
 30
-0.0000000000000027
 11
109.1246085527518943
 21
11.0
 31
-0.0000000000000024
210
0.0
220
1.0
230
-0.0000000000000002
  0
LINE
  5
1983
  8
0
  6
CONTINUOUS
 10
100.1246085527518943
 20
12.0
 30
-0.0000000000000027
 11
99.1246085527519654
 21
11.0
 31
-0.0000000000000024
210
0.0
220
1.0
230
-0.0000000000000002
  0
LINE
  5
1984
  8
0
  6
CONTINUOUS
 10
100.1246085527518943
 20
10.0
 30
-0.0000000000000022
 11
99.1246085527519654
 21
11.0
 31
-0.0000000000000024
210
0.0
220
1.0
230
-0.0000000000000002
  0
LINE
  5
1985
  8
0
  6
CONTINUOUS
 10
108.1246085527518943
 20
10.0
 30
-0.0000000000000022
 11
109.1246085527518943
 21
11.0
 31
-0.0000000000000024
210
0.0
220
1.0
230
-0.0000000000000002
  0
LINE
  5
1986
  8
0
  6
CONTINUOUS
 10
108.1246085527518943
 20
10.0
 30
-0.0000000000000022
 11
109.1246085527518943
 21
9.0000000000000018
 31
-0.000000000000002
210
0.0
220
1.0
230
-0.0000000000000002
  0
LINE
  5
1987
  8
0
  6
CONTINUOUS
 10
100.1246085527518943
 20
10.0
 30
-0.0000000000000022
 11
99.1246085527519654
 21
9.0000000000000018
 31
-0.000000000000002
210
0.0
220
1.0
230
-0.0000000000000002
  0
LINE
  5
1988
  8
0
  6
CONTINUOUS
 10
100.1246085527518943
 20
8.0000000000000018
 30
-0.0000000000000018
 11
99.1246085527519654
 21
9.0000000000000018
 31
-0.000000000000002
210
0.0
220
1.0
230
-0.0000000000000002
  0
LINE
  5
1989
  8
0
  6
CONTINUOUS
 10
108.1246085527518943
 20
8.0000000000000018
 30
-0.0000000000000018
 11
109.1246085527518943
 21
9.0000000000000018
 31
-0.000000000000002
210
0.0
220
1.0
230
-0.0000000000000002
  0
LINE
  5
198A
  8
0
  6
CONTINUOUS
 10
108.1246085527518943
 20
8.0000000000000018
 30
-0.0000000000000018
 11
109.1246085527518943
 21
7.0000000000000009
 31
-0.0000000000000016
210
0.0
220
1.0
230
-0.0000000000000002
  0
LINE
  5
198B
  8
0
  6
CONTINUOUS
 10
100.1246085527518943
 20
8.0000000000000018
 30
-0.0000000000000018
 11
99.1246085527519654
 21
7.0000000000000009
 31
-0.0000000000000016
210
0.0
220
1.0
230
-0.0000000000000002
  0
LINE
  5
198C
  8
0
  6
CONTINUOUS
 10
100.1246085527518943
 20
6.0000000000000009
 30
-0.0000000000000013
 11
99.1246085527519654
 21
7.0000000000000009
 31
-0.0000000000000016
210
0.0
220
1.0
230
-0.0000000000000002
  0
LINE
  5
198D
  8
0
  6
CONTINUOUS
 10
108.1246085527518943
 20
6.0000000000000009
 30
-0.0000000000000013
 11
109.1246085527518943
 21
7.0000000000000009
 31
-0.0000000000000016
210
0.0
220
1.0
230
-0.0000000000000002
  0
LINE
  5
198E
  8
0
  6
CONTINUOUS
 10
108.1246085527518943
 20
6.0000000000000009
 30
-0.0000000000000013
 11
109.1246085527518943
 21
5.0
 31
-0.0000000000000011
210
0.0
220
1.0
230
-0.0000000000000002
  0
LINE
  5
198F
  8
0
  6
CONTINUOUS
 10
100.1246085527518943
 20
6.0000000000000009
 30
-0.0000000000000013
 11
99.1246085527519654
 21
5.0
 31
-0.0000000000000011
210
0.0
220
1.0
230
-0.0000000000000002
  0
LINE
  5
1990
  8
0
  6
CONTINUOUS
 10
100.1246085527518943
 20
4.0
 30
-0.0000000000000009
 11
99.1246085527519654
 21
5.0
 31
-0.0000000000000011
210
0.0
220
1.0
230
-0.0000000000000002
  0
LINE
  5
1991
  8
0
  6
CONTINUOUS
 10
108.1246085527518943
 20
4.0
 30
-0.0000000000000009
 11
109.1246085527518943
 21
5.0
 31
-0.0000000000000011
210
0.0
220
1.0
230
-0.0000000000000002
  0
LINE
  5
1992
  8
0
  6
CONTINUOUS
 10
108.1246085527518943
 20
4.0
 30
-0.0000000000000009
 11
109.1246085527518943
 21
3.0
 31
-0.0000000000000007
210
0.0
220
1.0
230
-0.0000000000000002
  0
LINE
  5
1993
  8
0
  6
CONTINUOUS
 10
100.1246085527518943
 20
4.0
 30
-0.0000000000000009
 11
99.1246085527519654
 21
3.0
 31
-0.0000000000000007
210
0.0
220
1.0
230
-0.0000000000000002
  0
LINE
  5
1994
  8
0
  6
CONTINUOUS
 10
-27.8753914472479494
 20
27.0000000000000107
 30
-0.000000000000006
 11
-22.8753914472479387
 21
27.0000000000000107
 31
-0.000000000000006
210
0.0
220
1.0
230
-0.0000000000000002
  0
LINE
  5
1995
  8
0
  6
CONTINUOUS
 10
-22.8753914472479387
 20
27.0000000000000107
 30
-0.000000000000006
 11
-17.8753914472479387
 21
27.0000000000000107
 31
-0.000000000000006
210
0.0
220
1.0
230
-0.0000000000000002
  0
LINE
  5
1996
  8
0
  6
CONTINUOUS
 10
-26.8753914472479316
 20
28.0000000000000107
 30
-0.0000000000000062
 11
-22.8753914472479387
 21
28.0000000000000107
 31
-0.0000000000000062
210
0.0
220
1.0
230
-0.0000000000000002
  0
LINE
  5
1997
  8
0
  6
CONTINUOUS
 10
-22.8753914472479387
 20
28.0000000000000107
 30
-0.0000000000000062
 11
-18.8753914472479387
 21
28.0000000000000107
 31
-0.0000000000000062
210
0.0
220
1.0
230
-0.0000000000000002
  0
LINE
  5
1998
  8
0
  6
CONTINUOUS
 10
-26.8753914472479316
 20
26.0000000000000107
 30
-0.0000000000000058
 11
-22.8753914472479387
 21
26.0000000000000107
 31
-0.0000000000000058
210
0.0
220
1.0
230
-0.0000000000000002
  0
LINE
  5
1999
  8
0
  6
CONTINUOUS
 10
-22.8753914472479387
 20
26.0000000000000107
 30
-0.0000000000000058
 11
-18.8753914472479387
 21
26.0000000000000107
 31
-0.0000000000000058
210
0.0
220
1.0
230
-0.0000000000000002
  0
LINE
  5
199A
  8
0
  6
CONTINUOUS
 10
-27.8753914472479494
 20
25.0000000000000107
 30
-0.0000000000000056
 11
-22.8753914472479387
 21
25.0000000000000107
 31
-0.0000000000000056
210
0.0
220
1.0
230
-0.0000000000000002
  0
LINE
  5
199B
  8
0
  6
CONTINUOUS
 10
-22.8753914472479387
 20
25.0000000000000107
 30
-0.0000000000000056
 11
-17.8753914472479387
 21
25.0000000000000107
 31
-0.0000000000000056
210
0.0
220
1.0
230
-0.0000000000000002
  0
LINE
  5
199C
  8
0
  6
CONTINUOUS
 10
-26.8753914472479316
 20
24.0000000000000107
 30
-0.0000000000000053
 11
-22.8753914472479387
 21
24.0000000000000107
 31
-0.0000000000000053
210
0.0
220
1.0
230
-0.0000000000000002
  0
LINE
  5
199D
  8
0
  6
CONTINUOUS
 10
-22.8753914472479387
 20
24.0000000000000107
 30
-0.0000000000000053
 11
-18.8753914472479387
 21
24.0000000000000107
 31
-0.0000000000000053
210
0.0
220
1.0
230
-0.0000000000000002
  0
LINE
  5
199E
  8
0
  6
CONTINUOUS
 10
-27.8753914472479494
 20
23.0
 30
-0.0000000000000051
 11
-22.8753914472479387
 21
23.0
 31
-0.0000000000000051
210
0.0
220
1.0
230
-0.0000000000000002
  0
LINE
  5
199F
  8
0
  6
CONTINUOUS
 10
-22.8753914472479387
 20
23.0
 30
-0.0000000000000051
 11
-17.8753914472479387
 21
23.0
 31
-0.0000000000000051
210
0.0
220
1.0
230
-0.0000000000000002
  0
LINE
  5
19A0
  8
0
  6
CONTINUOUS
 10
-26.8753914472479316
 20
22.0000000000000107
 30
-0.0000000000000049
 11
-22.8753914472479387
 21
22.0000000000000107
 31
-0.0000000000000049
210
0.0
220
1.0
230
-0.0000000000000002
  0
LINE
  5
19A1
  8
0
  6
CONTINUOUS
 10
-22.8753914472479387
 20
22.0000000000000107
 30
-0.0000000000000049
 11
-18.8753914472479387
 21
22.0000000000000107
 31
-0.0000000000000049
210
0.0
220
1.0
230
-0.0000000000000002
  0
LINE
  5
19A2
  8
0
  6
CONTINUOUS
 10
-27.8753914472479494
 20
21.0
 30
-0.0000000000000047
 11
-22.8753914472479387
 21
21.0
 31
-0.0000000000000047
210
0.0
220
1.0
230
-0.0000000000000002
  0
LINE
  5
19A3
  8
0
  6
CONTINUOUS
 10
-22.8753914472479387
 20
21.0
 30
-0.0000000000000047
 11
-17.8753914472479387
 21
21.0
 31
-0.0000000000000047
210
0.0
220
1.0
230
-0.0000000000000002
  0
LINE
  5
19A4
  8
0
  6
CONTINUOUS
 10
-26.8753914472479316
 20
20.0
 30
-0.0000000000000044
 11
-22.8753914472479387
 21
20.0
 31
-0.0000000000000044
210
0.0
220
1.0
230
-0.0000000000000002
  0
LINE
  5
19A5
  8
0
  6
CONTINUOUS
 10
-22.8753914472479387
 20
20.0
 30
-0.0000000000000044
 11
-18.8753914472479387
 21
20.0
 31
-0.0000000000000044
210
0.0
220
1.0
230
-0.0000000000000002
  0
LINE
  5
19A6
  8
0
  6
CONTINUOUS
 10
-27.8753914472479494
 20
19.0
 30
-0.0000000000000042
 11
-22.8753914472479387
 21
19.0
 31
-0.0000000000000042
210
0.0
220
1.0
230
-0.0000000000000002
  0
LINE
  5
19A7
  8
0
  6
CONTINUOUS
 10
-22.8753914472479387
 20
19.0
 30
-0.0000000000000042
 11
-17.8753914472479387
 21
19.0
 31
-0.0000000000000042
210
0.0
220
1.0
230
-0.0000000000000002
  0
LINE
  5
19A8
  8
0
  6
CONTINUOUS
 10
-26.8753914472479316
 20
18.0
 30
-0.000000000000004
 11
-22.8753914472479387
 21
18.0
 31
-0.000000000000004
210
0.0
220
1.0
230
-0.0000000000000002
  0
LINE
  5
19A9
  8
0
  6
CONTINUOUS
 10
-22.8753914472479387
 20
18.0
 30
-0.000000000000004
 11
-18.8753914472479387
 21
18.0
 31
-0.000000000000004
210
0.0
220
1.0
230
-0.0000000000000002
  0
LINE
  5
19AA
  8
0
  6
CONTINUOUS
 10
-27.8753914472479494
 20
17.0
 30
-0.0000000000000038
 11
-22.8753914472479387
 21
17.0
 31
-0.0000000000000038
210
0.0
220
1.0
230
-0.0000000000000002
  0
LINE
  5
19AB
  8
0
  6
CONTINUOUS
 10
-22.8753914472479387
 20
17.0
 30
-0.0000000000000038
 11
-17.8753914472479387
 21
17.0
 31
-0.0000000000000038
210
0.0
220
1.0
230
-0.0000000000000002
  0
LINE
  5
19AC
  8
0
  6
CONTINUOUS
 10
-26.8753914472479316
 20
16.0
 30
-0.0000000000000036
 11
-22.8753914472479387
 21
16.0
 31
-0.0000000000000036
210
0.0
220
1.0
230
-0.0000000000000002
  0
LINE
  5
19AD
  8
0
  6
CONTINUOUS
 10
-22.8753914472479387
 20
16.0
 30
-0.0000000000000036
 11
-18.8753914472479387
 21
16.0
 31
-0.0000000000000036
210
0.0
220
1.0
230
-0.0000000000000002
  0
LINE
  5
19AE
  8
0
  6
CONTINUOUS
 10
-27.8753914472479494
 20
15.0
 30
-0.0000000000000033
 11
-22.8753914472479387
 21
15.0
 31
-0.0000000000000033
210
0.0
220
1.0
230
-0.0000000000000002
  0
LINE
  5
19AF
  8
0
  6
CONTINUOUS
 10
-22.8753914472479387
 20
15.0
 30
-0.0000000000000033
 11
-17.8753914472479387
 21
15.0
 31
-0.0000000000000033
210
0.0
220
1.0
230
-0.0000000000000002
  0
LINE
  5
19B0
  8
0
  6
CONTINUOUS
 10
-26.8753914472479316
 20
14.0
 30
-0.0000000000000031
 11
-22.8753914472479387
 21
14.0
 31
-0.0000000000000031
210
0.0
220
1.0
230
-0.0000000000000002
  0
LINE
  5
19B1
  8
0
  6
CONTINUOUS
 10
-22.8753914472479387
 20
14.0
 30
-0.0000000000000031
 11
-18.8753914472479387
 21
14.0
 31
-0.0000000000000031
210
0.0
220
1.0
230
-0.0000000000000002
  0
LINE
  5
19B2
  8
0
  6
CONTINUOUS
 10
-27.8753914472479494
 20
13.0
 30
-0.0000000000000029
 11
-22.8753914472479387
 21
13.0
 31
-0.0000000000000029
210
0.0
220
1.0
230
-0.0000000000000002
  0
LINE
  5
19B3
  8
0
  6
CONTINUOUS
 10
-22.8753914472479387
 20
13.0
 30
-0.0000000000000029
 11
-17.8753914472479387
 21
13.0
 31
-0.0000000000000029
210
0.0
220
1.0
230
-0.0000000000000002
  0
LINE
  5
19B4
  8
0
  6
CONTINUOUS
 10
-26.8753914472479316
 20
12.0
 30
-0.0000000000000027
 11
-22.8753914472479387
 21
12.0
 31
-0.0000000000000027
210
0.0
220
1.0
230
-0.0000000000000002
  0
LINE
  5
19B5
  8
0
  6
CONTINUOUS
 10
-22.8753914472479387
 20
12.0
 30
-0.0000000000000027
 11
-18.8753914472479387
 21
12.0
 31
-0.0000000000000027
210
0.0
220
1.0
230
-0.0000000000000002
  0
LINE
  5
19B6
  8
0
  6
CONTINUOUS
 10
-27.8753914472479494
 20
11.0
 30
-0.0000000000000024
 11
-22.8753914472479387
 21
11.0
 31
-0.0000000000000024
210
0.0
220
1.0
230
-0.0000000000000002
  0
LINE
  5
19B7
  8
0
  6
CONTINUOUS
 10
-22.8753914472479387
 20
11.0
 30
-0.0000000000000024
 11
-17.8753914472479387
 21
11.0
 31
-0.0000000000000024
210
0.0
220
1.0
230
-0.0000000000000002
  0
LINE
  5
19B8
  8
0
  6
CONTINUOUS
 10
-26.8753914472479316
 20
10.0
 30
-0.0000000000000022
 11
-22.8753914472479387
 21
10.0
 31
-0.0000000000000022
210
0.0
220
1.0
230
-0.0000000000000002
  0
LINE
  5
19B9
  8
0
  6
CONTINUOUS
 10
-22.8753914472479387
 20
10.0
 30
-0.0000000000000022
 11
-18.8753914472479387
 21
10.0
 31
-0.0000000000000022
210
0.0
220
1.0
230
-0.0000000000000002
  0
LINE
  5
19BA
  8
0
  6
CONTINUOUS
 10
-27.8753914472479494
 20
9.0000000000000018
 30
-0.000000000000002
 11
-22.8753914472479387
 21
9.0000000000000018
 31
-0.000000000000002
210
0.0
220
1.0
230
-0.0000000000000002
  0
LINE
  5
19BB
  8
0
  6
CONTINUOUS
 10
-22.8753914472479387
 20
9.0000000000000018
 30
-0.000000000000002
 11
-17.8753914472479387
 21
9.0000000000000018
 31
-0.000000000000002
210
0.0
220
1.0
230
-0.0000000000000002
  0
LINE
  5
19BC
  8
0
  6
CONTINUOUS
 10
-26.8753914472479316
 20
8.0000000000000018
 30
-0.0000000000000018
 11
-22.8753914472479387
 21
8.0000000000000018
 31
-0.0000000000000018
210
0.0
220
1.0
230
-0.0000000000000002
  0
LINE
  5
19BD
  8
0
  6
CONTINUOUS
 10
-22.8753914472479387
 20
8.0000000000000018
 30
-0.0000000000000018
 11
-18.8753914472479387
 21
8.0000000000000018
 31
-0.0000000000000018
210
0.0
220
1.0
230
-0.0000000000000002
  0
LINE
  5
19BE
  8
0
  6
CONTINUOUS
 10
-27.8753914472479494
 20
7.0000000000000009
 30
-0.0000000000000016
 11
-22.8753914472479387
 21
7.0000000000000009
 31
-0.0000000000000016
210
0.0
220
1.0
230
-0.0000000000000002
  0
LINE
  5
19BF
  8
0
  6
CONTINUOUS
 10
-22.8753914472479387
 20
7.0000000000000009
 30
-0.0000000000000016
 11
-17.8753914472479387
 21
7.0000000000000009
 31
-0.0000000000000016
210
0.0
220
1.0
230
-0.0000000000000002
  0
LINE
  5
19C0
  8
0
  6
CONTINUOUS
 10
-26.8753914472479316
 20
6.0000000000000009
 30
-0.0000000000000013
 11
-22.8753914472479387
 21
6.0000000000000009
 31
-0.0000000000000013
210
0.0
220
1.0
230
-0.0000000000000002
  0
LINE
  5
19C1
  8
0
  6
CONTINUOUS
 10
-22.8753914472479387
 20
6.0000000000000009
 30
-0.0000000000000013
 11
-18.8753914472479387
 21
6.0000000000000009
 31
-0.0000000000000013
210
0.0
220
1.0
230
-0.0000000000000002
  0
LINE
  5
19C2
  8
0
  6
CONTINUOUS
 10
-27.8753914472479494
 20
5.0
 30
-0.0000000000000011
 11
-22.8753914472479387
 21
5.0
 31
-0.0000000000000011
210
0.0
220
1.0
230
-0.0000000000000002
  0
LINE
  5
19C3
  8
0
  6
CONTINUOUS
 10
-22.8753914472479387
 20
5.0
 30
-0.0000000000000011
 11
-17.8753914472479387
 21
5.0
 31
-0.0000000000000011
210
0.0
220
1.0
230
-0.0000000000000002
  0
LINE
  5
19C4
  8
0
  6
CONTINUOUS
 10
-26.8753914472479316
 20
4.0
 30
-0.0000000000000009
 11
-22.8753914472479387
 21
4.0
 31
-0.0000000000000009
210
0.0
220
1.0
230
-0.0000000000000002
  0
LINE
  5
19C5
  8
0
  6
CONTINUOUS
 10
-22.8753914472479387
 20
4.0
 30
-0.0000000000000009
 11
-18.8753914472479387
 21
4.0
 31
-0.0000000000000009
210
0.0
220
1.0
230
-0.0000000000000002
  0
LINE
  5
19C6
  8
0
  6
CONTINUOUS
 10
-18.8753914472479387
 20
28.0000000000000107
 30
-0.0000000000000062
 11
-17.8753914472479387
 21
27.0000000000000107
 31
-0.000000000000006
210
0.0
220
1.0
230
-0.0000000000000002
  0
LINE
  5
19C7
  8
0
  6
CONTINUOUS
 10
-26.8753914472479387
 20
28.0000000000000107
 30
-0.0000000000000062
 11
-27.8753914472479494
 21
27.0000000000000107
 31
-0.000000000000006
210
0.0
220
1.0
230
-0.0000000000000002
  0
LINE
  5
19C8
  8
0
  6
CONTINUOUS
 10
-26.8753914472479387
 20
26.0000000000000107
 30
-0.0000000000000058
 11
-27.8753914472479494
 21
27.0000000000000107
 31
-0.000000000000006
210
0.0
220
1.0
230
-0.0000000000000002
  0
LINE
  5
19C9
  8
0
  6
CONTINUOUS
 10
-18.8753914472479387
 20
26.0000000000000107
 30
-0.0000000000000058
 11
-17.8753914472479387
 21
27.0000000000000107
 31
-0.000000000000006
210
0.0
220
1.0
230
-0.0000000000000002
  0
LINE
  5
19CA
  8
0
  6
CONTINUOUS
 10
-18.8753914472479387
 20
26.0000000000000107
 30
-0.0000000000000058
 11
-17.8753914472479387
 21
25.0000000000000107
 31
-0.0000000000000056
210
0.0
220
1.0
230
-0.0000000000000002
  0
LINE
  5
19CB
  8
0
  6
CONTINUOUS
 10
-26.8753914472479387
 20
26.0000000000000107
 30
-0.0000000000000058
 11
-27.8753914472479494
 21
25.0000000000000107
 31
-0.0000000000000056
210
0.0
220
1.0
230
-0.0000000000000002
  0
LINE
  5
19CC
  8
0
  6
CONTINUOUS
 10
-26.8753914472479387
 20
24.0000000000000107
 30
-0.0000000000000053
 11
-27.8753914472479494
 21
25.0000000000000107
 31
-0.0000000000000056
210
0.0
220
1.0
230
-0.0000000000000002
  0
LINE
  5
19CD
  8
0
  6
CONTINUOUS
 10
-18.8753914472479387
 20
24.0000000000000107
 30
-0.0000000000000053
 11
-17.8753914472479387
 21
25.0000000000000107
 31
-0.0000000000000056
210
0.0
220
1.0
230
-0.0000000000000002
  0
LINE
  5
19CE
  8
0
  6
CONTINUOUS
 10
-18.8753914472479387
 20
24.0000000000000107
 30
-0.0000000000000053
 11
-17.8753914472479387
 21
23.0
 31
-0.0000000000000051
210
0.0
220
1.0
230
-0.0000000000000002
  0
LINE
  5
19CF
  8
0
  6
CONTINUOUS
 10
-26.8753914472479387
 20
24.0000000000000107
 30
-0.0000000000000053
 11
-27.8753914472479494
 21
23.0
 31
-0.0000000000000051
210
0.0
220
1.0
230
-0.0000000000000002
  0
LINE
  5
19D0
  8
0
  6
CONTINUOUS
 10
-26.8753914472479387
 20
22.0000000000000107
 30
-0.0000000000000049
 11
-27.8753914472479494
 21
23.0
 31
-0.0000000000000051
210
0.0
220
1.0
230
-0.0000000000000002
  0
LINE
  5
19D1
  8
0
  6
CONTINUOUS
 10
-18.8753914472479387
 20
22.0000000000000107
 30
-0.0000000000000049
 11
-17.8753914472479387
 21
23.0
 31
-0.0000000000000051
210
0.0
220
1.0
230
-0.0000000000000002
  0
LINE
  5
19D2
  8
0
  6
CONTINUOUS
 10
-18.8753914472479387
 20
22.0000000000000107
 30
-0.0000000000000049
 11
-17.8753914472479387
 21
21.0
 31
-0.0000000000000047
210
0.0
220
1.0
230
-0.0000000000000002
  0
LINE
  5
19D3
  8
0
  6
CONTINUOUS
 10
-26.8753914472479387
 20
22.0000000000000107
 30
-0.0000000000000049
 11
-27.8753914472479494
 21
21.0
 31
-0.0000000000000047
210
0.0
220
1.0
230
-0.0000000000000002
  0
LINE
  5
19D4
  8
0
  6
CONTINUOUS
 10
-26.8753914472479387
 20
20.0
 30
-0.0000000000000044
 11
-27.8753914472479494
 21
21.0
 31
-0.0000000000000047
210
0.0
220
1.0
230
-0.0000000000000002
  0
LINE
  5
19D5
  8
0
  6
CONTINUOUS
 10
-18.8753914472479387
 20
20.0
 30
-0.0000000000000044
 11
-17.8753914472479387
 21
21.0
 31
-0.0000000000000047
210
0.0
220
1.0
230
-0.0000000000000002
  0
LINE
  5
19D6
  8
0
  6
CONTINUOUS
 10
-18.8753914472479387
 20
20.0
 30
-0.0000000000000044
 11
-17.8753914472479387
 21
19.0
 31
-0.0000000000000042
210
0.0
220
1.0
230
-0.0000000000000002
  0
LINE
  5
19D7
  8
0
  6
CONTINUOUS
 10
-26.8753914472479387
 20
20.0
 30
-0.0000000000000044
 11
-27.8753914472479494
 21
19.0
 31
-0.0000000000000042
210
0.0
220
1.0
230
-0.0000000000000002
  0
LINE
  5
19D8
  8
0
  6
CONTINUOUS
 10
-26.8753914472479387
 20
18.0
 30
-0.000000000000004
 11
-27.8753914472479494
 21
19.0
 31
-0.0000000000000042
210
0.0
220
1.0
230
-0.0000000000000002
  0
LINE
  5
19D9
  8
0
  6
CONTINUOUS
 10
-18.8753914472479387
 20
18.0
 30
-0.000000000000004
 11
-17.8753914472479387
 21
19.0
 31
-0.0000000000000042
210
0.0
220
1.0
230
-0.0000000000000002
  0
LINE
  5
19DA
  8
0
  6
CONTINUOUS
 10
-18.8753914472479387
 20
18.0
 30
-0.000000000000004
 11
-17.8753914472479387
 21
17.0
 31
-0.0000000000000038
210
0.0
220
1.0
230
-0.0000000000000002
  0
LINE
  5
19DB
  8
0
  6
CONTINUOUS
 10
-26.8753914472479387
 20
18.0
 30
-0.000000000000004
 11
-27.8753914472479494
 21
17.0
 31
-0.0000000000000038
210
0.0
220
1.0
230
-0.0000000000000002
  0
LINE
  5
19DC
  8
0
  6
CONTINUOUS
 10
-26.8753914472479387
 20
16.0
 30
-0.0000000000000036
 11
-27.8753914472479494
 21
17.0
 31
-0.0000000000000038
210
0.0
220
1.0
230
-0.0000000000000002
  0
LINE
  5
19DD
  8
0
  6
CONTINUOUS
 10
-18.8753914472479387
 20
16.0
 30
-0.0000000000000036
 11
-17.8753914472479387
 21
17.0
 31
-0.0000000000000038
210
0.0
220
1.0
230
-0.0000000000000002
  0
LINE
  5
19DE
  8
0
  6
CONTINUOUS
 10
-18.8753914472479387
 20
16.0
 30
-0.0000000000000036
 11
-17.8753914472479387
 21
15.0
 31
-0.0000000000000033
210
0.0
220
1.0
230
-0.0000000000000002
  0
LINE
  5
19DF
  8
0
  6
CONTINUOUS
 10
-26.8753914472479387
 20
16.0
 30
-0.0000000000000036
 11
-27.8753914472479494
 21
15.0
 31
-0.0000000000000033
210
0.0
220
1.0
230
-0.0000000000000002
  0
LINE
  5
19E0
  8
0
  6
CONTINUOUS
 10
-26.8753914472479387
 20
14.0
 30
-0.0000000000000031
 11
-27.8753914472479494
 21
15.0
 31
-0.0000000000000033
210
0.0
220
1.0
230
-0.0000000000000002
  0
LINE
  5
19E1
  8
0
  6
CONTINUOUS
 10
-18.8753914472479387
 20
14.0
 30
-0.0000000000000031
 11
-17.8753914472479387
 21
15.0
 31
-0.0000000000000033
210
0.0
220
1.0
230
-0.0000000000000002
  0
LINE
  5
19E2
  8
0
  6
CONTINUOUS
 10
-18.8753914472479387
 20
14.0
 30
-0.0000000000000031
 11
-17.8753914472479387
 21
13.0
 31
-0.0000000000000029
210
0.0
220
1.0
230
-0.0000000000000002
  0
LINE
  5
19E3
  8
0
  6
CONTINUOUS
 10
-26.8753914472479387
 20
14.0
 30
-0.0000000000000031
 11
-27.8753914472479494
 21
13.0
 31
-0.0000000000000029
210
0.0
220
1.0
230
-0.0000000000000002
  0
LINE
  5
19E4
  8
0
  6
CONTINUOUS
 10
-26.8753914472479387
 20
12.0
 30
-0.0000000000000027
 11
-27.8753914472479494
 21
13.0
 31
-0.0000000000000029
210
0.0
220
1.0
230
-0.0000000000000002
  0
LINE
  5
19E5
  8
0
  6
CONTINUOUS
 10
-18.8753914472479387
 20
12.0
 30
-0.0000000000000027
 11
-17.8753914472479387
 21
13.0
 31
-0.0000000000000029
210
0.0
220
1.0
230
-0.0000000000000002
  0
LINE
  5
19E6
  8
0
  6
CONTINUOUS
 10
-18.8753914472479387
 20
12.0
 30
-0.0000000000000027
 11
-17.8753914472479387
 21
11.0
 31
-0.0000000000000024
210
0.0
220
1.0
230
-0.0000000000000002
  0
LINE
  5
19E7
  8
0
  6
CONTINUOUS
 10
-26.8753914472479387
 20
12.0
 30
-0.0000000000000027
 11
-27.8753914472479494
 21
11.0
 31
-0.0000000000000024
210
0.0
220
1.0
230
-0.0000000000000002
  0
LINE
  5
19E8
  8
0
  6
CONTINUOUS
 10
-26.8753914472479387
 20
10.0
 30
-0.0000000000000022
 11
-27.8753914472479494
 21
11.0
 31
-0.0000000000000024
210
0.0
220
1.0
230
-0.0000000000000002
  0
LINE
  5
19E9
  8
0
  6
CONTINUOUS
 10
-18.8753914472479387
 20
10.0
 30
-0.0000000000000022
 11
-17.8753914472479387
 21
11.0
 31
-0.0000000000000024
210
0.0
220
1.0
230
-0.0000000000000002
  0
LINE
  5
19EA
  8
0
  6
CONTINUOUS
 10
-18.8753914472479387
 20
10.0
 30
-0.0000000000000022
 11
-17.8753914472479387
 21
9.0000000000000018
 31
-0.000000000000002
210
0.0
220
1.0
230
-0.0000000000000002
  0
LINE
  5
19EB
  8
0
  6
CONTINUOUS
 10
-26.8753914472479387
 20
10.0
 30
-0.0000000000000022
 11
-27.8753914472479494
 21
9.0000000000000018
 31
-0.000000000000002
210
0.0
220
1.0
230
-0.0000000000000002
  0
LINE
  5
19EC
  8
0
  6
CONTINUOUS
 10
-26.8753914472479387
 20
8.0000000000000018
 30
-0.0000000000000018
 11
-27.8753914472479494
 21
9.0000000000000018
 31
-0.000000000000002
210
0.0
220
1.0
230
-0.0000000000000002
  0
LINE
  5
19ED
  8
0
  6
CONTINUOUS
 10
-18.8753914472479387
 20
8.0000000000000018
 30
-0.0000000000000018
 11
-17.8753914472479387
 21
9.0000000000000018
 31
-0.000000000000002
210
0.0
220
1.0
230
-0.0000000000000002
  0
LINE
  5
19EE
  8
0
  6
CONTINUOUS
 10
-18.8753914472479387
 20
8.0000000000000018
 30
-0.0000000000000018
 11
-17.8753914472479387
 21
7.0000000000000009
 31
-0.0000000000000016
210
0.0
220
1.0
230
-0.0000000000000002
  0
LINE
  5
19EF
  8
0
  6
CONTINUOUS
 10
-26.8753914472479387
 20
8.0000000000000018
 30
-0.0000000000000018
 11
-27.8753914472479494
 21
7.0000000000000009
 31
-0.0000000000000016
210
0.0
220
1.0
230
-0.0000000000000002
  0
LINE
  5
19F0
  8
0
  6
CONTINUOUS
 10
-26.8753914472479387
 20
6.0000000000000009
 30
-0.0000000000000013
 11
-27.8753914472479494
 21
7.0000000000000009
 31
-0.0000000000000016
210
0.0
220
1.0
230
-0.0000000000000002
  0
LINE
  5
19F1
  8
0
  6
CONTINUOUS
 10
-18.8753914472479387
 20
6.0000000000000009
 30
-0.0000000000000013
 11
-17.8753914472479387
 21
7.0000000000000009
 31
-0.0000000000000016
210
0.0
220
1.0
230
-0.0000000000000002
  0
LINE
  5
19F2
  8
0
  6
CONTINUOUS
 10
-18.8753914472479387
 20
6.0000000000000009
 30
-0.0000000000000013
 11
-17.8753914472479387
 21
5.0
 31
-0.0000000000000011
210
0.0
220
1.0
230
-0.0000000000000002
  0
LINE
  5
19F3
  8
0
  6
CONTINUOUS
 10
-26.8753914472479387
 20
6.0000000000000009
 30
-0.0000000000000013
 11
-27.8753914472479494
 21
5.0
 31
-0.0000000000000011
210
0.0
220
1.0
230
-0.0000000000000002
  0
LINE
  5
19F4
  8
0
  6
CONTINUOUS
 10
-26.8753914472479387
 20
4.0
 30
-0.0000000000000009
 11
-27.8753914472479494
 21
5.0
 31
-0.0000000000000011
210
0.0
220
1.0
230
-0.0000000000000002
  0
LINE
  5
19F5
  8
0
  6
CONTINUOUS
 10
-18.8753914472479387
 20
4.0
 30
-0.0000000000000009
 11
-17.8753914472479387
 21
5.0
 31
-0.0000000000000011
210
0.0
220
1.0
230
-0.0000000000000002
  0
LINE
  5
19F6
  8
0
  6
CONTINUOUS
 10
-18.8753914472479387
 20
4.0
 30
-0.0000000000000009
 11
-17.8753914472479387
 21
3.0000000000000009
 31
-0.0000000000000007
210
0.0
220
1.0
230
-0.0000000000000002
  0
LINE
  5
19F7
  8
0
  6
CONTINUOUS
 10
-26.8753914472479387
 20
4.0
 30
-0.0000000000000009
 11
-27.8753914472479494
 21
3.0
 31
-0.0000000000000007
210
0.0
220
1.0
230
-0.0000000000000002
  0
LINE
  5
19F8
  8
0
  6
CONTINUOUS
 10
61.9271697634435725
 20
27.0000000000000107
 30
-0.000000000000006
 11
70.4627036693762818
 21
27.0000000000000107
 31
-0.000000000000006
210
0.0
220
1.0
230
-0.0000000000000002
  0
LINE
  5
19F9
  8
0
  6
CONTINUOUS
 10
70.4627036693762534
 20
27.0000000000000107
 30
-0.000000000000006
 11
71.9271697634435014
 21
27.0000000000000107
 31
-0.000000000000006
210
0.0
220
1.0
230
-0.0000000000000002
  0
LINE
  5
19FA
  8
0
  6
CONTINUOUS
 10
62.9271697634435085
 20
28.0000000000000107
 30
-0.0000000000000062
 11
69.7555968881897002
 21
28.0000000000000107
 31
-0.0000000000000062
210
0.0
220
1.0
230
-0.0000000000000002
  0
LINE
  5
19FB
  8
0
  6
CONTINUOUS
 10
69.7555968881897144
 20
28.0000000000000107
 30
-0.0000000000000062
 11
70.9271697634435299
 21
28.0000000000000107
 31
-0.0000000000000062
210
0.0
220
1.0
230
-0.0000000000000002
  0
LINE
  5
19FC
  8
0
  6
CONTINUOUS
 10
62.9271697634435085
 20
26.0000000000000107
 30
-0.0000000000000058
 11
69.7555968881897002
 21
26.0000000000000107
 31
-0.0000000000000058
210
0.0
220
1.0
230
-0.0000000000000002
  0
LINE
  5
19FD
  8
0
  6
CONTINUOUS
 10
69.7555968881897144
 20
26.0000000000000107
 30
-0.0000000000000058
 11
70.9271697634435299
 21
26.0000000000000107
 31
-0.0000000000000058
210
0.0
220
1.0
230
-0.0000000000000002
  0
LINE
  5
19FE
  8
0
  6
CONTINUOUS
 10
61.9271697634435725
 20
25.0000000000000107
 30
-0.0000000000000056
 11
70.4627036693762818
 21
25.0000000000000107
 31
-0.0000000000000056
210
0.0
220
1.0
230
-0.0000000000000002
  0
LINE
  5
19FF
  8
0
  6
CONTINUOUS
 10
70.4627036693762534
 20
25.0000000000000107
 30
-0.0000000000000056
 11
71.9271697634435014
 21
25.0000000000000107
 31
-0.0000000000000056
210
0.0
220
1.0
230
-0.0000000000000002
  0
LINE
  5
1A00
  8
0
  6
CONTINUOUS
 10
62.9271697634435085
 20
24.0000000000000107
 30
-0.0000000000000053
 11
69.7555968881897002
 21
24.0000000000000107
 31
-0.0000000000000053
210
0.0
220
1.0
230
-0.0000000000000002
  0
LINE
  5
1A01
  8
0
  6
CONTINUOUS
 10
69.7555968881897144
 20
24.0000000000000107
 30
-0.0000000000000053
 11
70.9271697634435299
 21
24.0000000000000107
 31
-0.0000000000000053
210
0.0
220
1.0
230
-0.0000000000000002
  0
LINE
  5
1A02
  8
0
  6
CONTINUOUS
 10
61.9271697634435725
 20
23.0
 30
-0.0000000000000051
 11
70.4627036693762818
 21
23.0
 31
-0.0000000000000051
210
0.0
220
1.0
230
-0.0000000000000002
  0
LINE
  5
1A03
  8
0
  6
CONTINUOUS
 10
70.4627036693762534
 20
23.0
 30
-0.0000000000000051
 11
71.9271697634435014
 21
23.0
 31
-0.0000000000000051
210
0.0
220
1.0
230
-0.0000000000000002
  0
LINE
  5
1A04
  8
0
  6
CONTINUOUS
 10
62.9271697634435085
 20
22.0000000000000107
 30
-0.0000000000000049
 11
69.7555968881897002
 21
22.0000000000000107
 31
-0.0000000000000049
210
0.0
220
1.0
230
-0.0000000000000002
  0
LINE
  5
1A05
  8
0
  6
CONTINUOUS
 10
69.7555968881897144
 20
22.0000000000000107
 30
-0.0000000000000049
 11
70.9271697634435299
 21
22.0000000000000107
 31
-0.0000000000000049
210
0.0
220
1.0
230
-0.0000000000000002
  0
LINE
  5
1A06
  8
0
  6
CONTINUOUS
 10
61.9271697634435725
 20
21.0
 30
-0.0000000000000047
 11
70.4627036693762818
 21
21.0
 31
-0.0000000000000047
210
0.0
220
1.0
230
-0.0000000000000002
  0
LINE
  5
1A07
  8
0
  6
CONTINUOUS
 10
70.4627036693762534
 20
21.0
 30
-0.0000000000000047
 11
71.9271697634435014
 21
21.0
 31
-0.0000000000000047
210
0.0
220
1.0
230
-0.0000000000000002
  0
LINE
  5
1A08
  8
0
  6
CONTINUOUS
 10
62.9271697634435085
 20
20.0
 30
-0.0000000000000044
 11
69.7555968881897002
 21
20.0
 31
-0.0000000000000044
210
0.0
220
1.0
230
-0.0000000000000002
  0
LINE
  5
1A09
  8
0
  6
CONTINUOUS
 10
69.7555968881897144
 20
20.0
 30
-0.0000000000000044
 11
70.9271697634435299
 21
20.0
 31
-0.0000000000000044
210
0.0
220
1.0
230
-0.0000000000000002
  0
LINE
  5
1A0A
  8
0
  6
CONTINUOUS
 10
61.9271697634435725
 20
19.0
 30
-0.0000000000000042
 11
70.4627036693762818
 21
19.0
 31
-0.0000000000000042
210
0.0
220
1.0
230
-0.0000000000000002
  0
LINE
  5
1A0B
  8
0
  6
CONTINUOUS
 10
70.4627036693762534
 20
19.0
 30
-0.0000000000000042
 11
71.9271697634435014
 21
19.0
 31
-0.0000000000000042
210
0.0
220
1.0
230
-0.0000000000000002
  0
LINE
  5
1A0C
  8
0
  6
CONTINUOUS
 10
62.9271697634435085
 20
18.0
 30
-0.000000000000004
 11
69.7555968881897002
 21
18.0
 31
-0.000000000000004
210
0.0
220
1.0
230
-0.0000000000000002
  0
LINE
  5
1A0D
  8
0
  6
CONTINUOUS
 10
69.7555968881897144
 20
18.0
 30
-0.000000000000004
 11
70.9271697634435299
 21
18.0
 31
-0.000000000000004
210
0.0
220
1.0
230
-0.0000000000000002
  0
LINE
  5
1A0E
  8
0
  6
CONTINUOUS
 10
61.9271697634435725
 20
17.0
 30
-0.0000000000000038
 11
70.4627036693762818
 21
17.0
 31
-0.0000000000000038
210
0.0
220
1.0
230
-0.0000000000000002
  0
LINE
  5
1A0F
  8
0
  6
CONTINUOUS
 10
70.4627036693762534
 20
17.0
 30
-0.0000000000000038
 11
71.9271697634435014
 21
17.0
 31
-0.0000000000000038
210
0.0
220
1.0
230
-0.0000000000000002
  0
LINE
  5
1A10
  8
0
  6
CONTINUOUS
 10
62.9271697634435085
 20
16.0
 30
-0.0000000000000036
 11
69.7555968881897002
 21
16.0
 31
-0.0000000000000036
210
0.0
220
1.0
230
-0.0000000000000002
  0
LINE
  5
1A11
  8
0
  6
CONTINUOUS
 10
69.7555968881897144
 20
16.0
 30
-0.0000000000000036
 11
70.9271697634435299
 21
16.0
 31
-0.0000000000000036
210
0.0
220
1.0
230
-0.0000000000000002
  0
LINE
  5
1A12
  8
0
  6
CONTINUOUS
 10
61.9271697634435725
 20
15.0
 30
-0.0000000000000033
 11
70.4627036693762818
 21
15.0
 31
-0.0000000000000033
210
0.0
220
1.0
230
-0.0000000000000002
  0
LINE
  5
1A13
  8
0
  6
CONTINUOUS
 10
70.4627036693762534
 20
15.0
 30
-0.0000000000000033
 11
71.9271697634435014
 21
15.0
 31
-0.0000000000000033
210
0.0
220
1.0
230
-0.0000000000000002
  0
LINE
  5
1A14
  8
0
  6
CONTINUOUS
 10
62.9271697634435085
 20
14.0
 30
-0.0000000000000031
 11
69.7555968881897002
 21
14.0
 31
-0.0000000000000031
210
0.0
220
1.0
230
-0.0000000000000002
  0
LINE
  5
1A15
  8
0
  6
CONTINUOUS
 10
69.7555968881897144
 20
14.0
 30
-0.0000000000000031
 11
70.9271697634435299
 21
14.0
 31
-0.0000000000000031
210
0.0
220
1.0
230
-0.0000000000000002
  0
LINE
  5
1A16
  8
0
  6
CONTINUOUS
 10
61.9271697634435725
 20
13.0
 30
-0.0000000000000029
 11
70.4627036693762818
 21
13.0
 31
-0.0000000000000029
210
0.0
220
1.0
230
-0.0000000000000002
  0
LINE
  5
1A17
  8
0
  6
CONTINUOUS
 10
70.4627036693762534
 20
13.0
 30
-0.0000000000000029
 11
71.9271697634435014
 21
13.0
 31
-0.0000000000000029
210
0.0
220
1.0
230
-0.0000000000000002
  0
LINE
  5
1A18
  8
0
  6
CONTINUOUS
 10
62.9271697634435085
 20
12.0
 30
-0.0000000000000027
 11
69.7555968881897002
 21
12.0
 31
-0.0000000000000027
210
0.0
220
1.0
230
-0.0000000000000002
  0
LINE
  5
1A19
  8
0
  6
CONTINUOUS
 10
69.7555968881897144
 20
12.0
 30
-0.0000000000000027
 11
70.9271697634435299
 21
12.0
 31
-0.0000000000000027
210
0.0
220
1.0
230
-0.0000000000000002
  0
LINE
  5
1A1A
  8
0
  6
CONTINUOUS
 10
61.9271697634435725
 20
11.0
 30
-0.0000000000000024
 11
70.4627036693762818
 21
11.0
 31
-0.0000000000000024
210
0.0
220
1.0
230
-0.0000000000000002
  0
LINE
  5
1A1B
  8
0
  6
CONTINUOUS
 10
70.4627036693762534
 20
11.0
 30
-0.0000000000000024
 11
71.9271697634435014
 21
11.0
 31
-0.0000000000000024
210
0.0
220
1.0
230
-0.0000000000000002
  0
LINE
  5
1A1C
  8
0
  6
CONTINUOUS
 10
62.9271697634435085
 20
10.0
 30
-0.0000000000000022
 11
69.7555968881897002
 21
10.0
 31
-0.0000000000000022
210
0.0
220
1.0
230
-0.0000000000000002
  0
LINE
  5
1A1D
  8
0
  6
CONTINUOUS
 10
69.7555968881897144
 20
10.0
 30
-0.0000000000000022
 11
70.9271697634435299
 21
10.0
 31
-0.0000000000000022
210
0.0
220
1.0
230
-0.0000000000000002
  0
LINE
  5
1A1E
  8
0
  6
CONTINUOUS
 10
61.9271697634435725
 20
9.0000000000000018
 30
-0.000000000000002
 11
70.4627036693762818
 21
9.0000000000000018
 31
-0.000000000000002
210
0.0
220
1.0
230
-0.0000000000000002
  0
LINE
  5
1A1F
  8
0
  6
CONTINUOUS
 10
70.4627036693762534
 20
9.0000000000000018
 30
-0.000000000000002
 11
71.9271697634435014
 21
9.0000000000000018
 31
-0.000000000000002
210
0.0
220
1.0
230
-0.0000000000000002
  0
LINE
  5
1A20
  8
0
  6
CONTINUOUS
 10
62.9271697634435085
 20
8.0000000000000018
 30
-0.0000000000000018
 11
69.7555968881897002
 21
8.0000000000000018
 31
-0.0000000000000018
210
0.0
220
1.0
230
-0.0000000000000002
  0
LINE
  5
1A21
  8
0
  6
CONTINUOUS
 10
69.7555968881897144
 20
8.0000000000000018
 30
-0.0000000000000018
 11
70.9271697634435299
 21
8.0000000000000018
 31
-0.0000000000000018
210
0.0
220
1.0
230
-0.0000000000000002
  0
LINE
  5
1A22
  8
0
  6
CONTINUOUS
 10
61.9271697634435725
 20
7.0000000000000009
 30
-0.0000000000000016
 11
70.4627036693762818
 21
7.0000000000000009
 31
-0.0000000000000016
210
0.0
220
1.0
230
-0.0000000000000002
  0
LINE
  5
1A23
  8
0
  6
CONTINUOUS
 10
70.4627036693762534
 20
7.0000000000000009
 30
-0.0000000000000016
 11
71.9271697634435014
 21
7.0000000000000009
 31
-0.0000000000000016
210
0.0
220
1.0
230
-0.0000000000000002
  0
LINE
  5
1A24
  8
0
  6
CONTINUOUS
 10
62.9271697634435085
 20
6.0000000000000009
 30
-0.0000000000000013
 11
69.7555968881897002
 21
6.0000000000000009
 31
-0.0000000000000013
210
0.0
220
1.0
230
-0.0000000000000002
  0
LINE
  5
1A25
  8
0
  6
CONTINUOUS
 10
69.7555968881897144
 20
6.0000000000000009
 30
-0.0000000000000013
 11
70.9271697634435299
 21
6.0000000000000009
 31
-0.0000000000000013
210
0.0
220
1.0
230
-0.0000000000000002
  0
LINE
  5
1A26
  8
0
  6
CONTINUOUS
 10
61.9271697634435725
 20
5.0
 30
-0.0000000000000011
 11
70.4627036693762818
 21
5.0
 31
-0.0000000000000011
210
0.0
220
1.0
230
-0.0000000000000002
  0
LINE
  5
1A27
  8
0
  6
CONTINUOUS
 10
70.4627036693762534
 20
5.0
 30
-0.0000000000000011
 11
71.9271697634435014
 21
5.0
 31
-0.0000000000000011
210
0.0
220
1.0
230
-0.0000000000000002
  0
LINE
  5
1A28
  8
0
  6
CONTINUOUS
 10
62.9271697634435085
 20
4.0
 30
-0.0000000000000009
 11
69.7555968881897002
 21
4.0
 31
-0.0000000000000009
210
0.0
220
1.0
230
-0.0000000000000002
  0
LINE
  5
1A29
  8
0
  6
CONTINUOUS
 10
69.7555968881897144
 20
4.0
 30
-0.0000000000000009
 11
70.9271697634435299
 21
4.0
 31
-0.0000000000000009
210
0.0
220
1.0
230
-0.0000000000000002
  0
LINE
  5
1A2A
  8
0
  6
CONTINUOUS
 10
70.9271697634435156
 20
28.0000000000000107
 30
-0.0000000000000062
 11
71.9271697634435156
 21
27.0000000000000107
 31
-0.000000000000006
210
0.0
220
1.0
230
-0.0000000000000002
  0
LINE
  5
1A2B
  8
0
  6
CONTINUOUS
 10
62.9271697634435085
 20
28.0000000000000107
 30
-0.0000000000000062
 11
61.9271697634435085
 21
27.0000000000000107
 31
-0.000000000000006
210
0.0
220
1.0
230
-0.0000000000000002
  0
LINE
  5
1A2C
  8
0
  6
CONTINUOUS
 10
62.9271697634435085
 20
26.0000000000000107
 30
-0.0000000000000058
 11
61.9271697634435085
 21
27.0000000000000107
 31
-0.000000000000006
210
0.0
220
1.0
230
-0.0000000000000002
  0
LINE
  5
1A2D
  8
0
  6
CONTINUOUS
 10
70.9271697634435156
 20
26.0000000000000107
 30
-0.0000000000000058
 11
71.9271697634435156
 21
27.0000000000000107
 31
-0.000000000000006
210
0.0
220
1.0
230
-0.0000000000000002
  0
LINE
  5
1A2E
  8
0
  6
CONTINUOUS
 10
70.9271697634435156
 20
26.0000000000000107
 30
-0.0000000000000058
 11
71.9271697634435156
 21
25.0000000000000107
 31
-0.0000000000000056
210
0.0
220
1.0
230
-0.0000000000000002
  0
LINE
  5
1A2F
  8
0
  6
CONTINUOUS
 10
62.9271697634435085
 20
26.0000000000000107
 30
-0.0000000000000058
 11
61.9271697634435085
 21
25.0000000000000107
 31
-0.0000000000000056
210
0.0
220
1.0
230
-0.0000000000000002
  0
LINE
  5
1A30
  8
0
  6
CONTINUOUS
 10
62.9271697634435085
 20
24.0000000000000107
 30
-0.0000000000000053
 11
61.9271697634435085
 21
25.0000000000000107
 31
-0.0000000000000056
210
0.0
220
1.0
230
-0.0000000000000002
  0
LINE
  5
1A31
  8
0
  6
CONTINUOUS
 10
70.9271697634435156
 20
24.0000000000000107
 30
-0.0000000000000053
 11
71.9271697634435156
 21
25.0000000000000107
 31
-0.0000000000000056
210
0.0
220
1.0
230
-0.0000000000000002
  0
LINE
  5
1A32
  8
0
  6
CONTINUOUS
 10
70.9271697634435156
 20
24.0000000000000107
 30
-0.0000000000000053
 11
71.9271697634435156
 21
23.0
 31
-0.0000000000000051
210
0.0
220
1.0
230
-0.0000000000000002
  0
LINE
  5
1A33
  8
0
  6
CONTINUOUS
 10
62.9271697634435085
 20
24.0000000000000107
 30
-0.0000000000000053
 11
61.9271697634435085
 21
23.0
 31
-0.0000000000000051
210
0.0
220
1.0
230
-0.0000000000000002
  0
LINE
  5
1A34
  8
0
  6
CONTINUOUS
 10
62.9271697634435085
 20
22.0000000000000107
 30
-0.0000000000000049
 11
61.9271697634435085
 21
23.0
 31
-0.0000000000000051
210
0.0
220
1.0
230
-0.0000000000000002
  0
LINE
  5
1A35
  8
0
  6
CONTINUOUS
 10
70.9271697634435156
 20
22.0000000000000107
 30
-0.0000000000000049
 11
71.9271697634435156
 21
23.0
 31
-0.0000000000000051
210
0.0
220
1.0
230
-0.0000000000000002
  0
LINE
  5
1A36
  8
0
  6
CONTINUOUS
 10
70.9271697634435156
 20
22.0000000000000107
 30
-0.0000000000000049
 11
71.9271697634435156
 21
21.0
 31
-0.0000000000000047
210
0.0
220
1.0
230
-0.0000000000000002
  0
LINE
  5
1A37
  8
0
  6
CONTINUOUS
 10
62.9271697634435085
 20
22.0000000000000107
 30
-0.0000000000000049
 11
61.9271697634435085
 21
21.0
 31
-0.0000000000000047
210
0.0
220
1.0
230
-0.0000000000000002
  0
LINE
  5
1A38
  8
0
  6
CONTINUOUS
 10
62.9271697634435085
 20
20.0
 30
-0.0000000000000044
 11
61.9271697634435085
 21
21.0
 31
-0.0000000000000047
210
0.0
220
1.0
230
-0.0000000000000002
  0
LINE
  5
1A39
  8
0
  6
CONTINUOUS
 10
70.9271697634435156
 20
20.0
 30
-0.0000000000000044
 11
71.9271697634435156
 21
21.0
 31
-0.0000000000000047
210
0.0
220
1.0
230
-0.0000000000000002
  0
LINE
  5
1A3A
  8
0
  6
CONTINUOUS
 10
70.9271697634435156
 20
20.0
 30
-0.0000000000000044
 11
71.9271697634435156
 21
19.0
 31
-0.0000000000000042
210
0.0
220
1.0
230
-0.0000000000000002
  0
LINE
  5
1A3B
  8
0
  6
CONTINUOUS
 10
62.9271697634435085
 20
20.0
 30
-0.0000000000000044
 11
61.9271697634435085
 21
19.0
 31
-0.0000000000000042
210
0.0
220
1.0
230
-0.0000000000000002
  0
LINE
  5
1A3C
  8
0
  6
CONTINUOUS
 10
62.9271697634435085
 20
18.0
 30
-0.000000000000004
 11
61.9271697634435085
 21
19.0
 31
-0.0000000000000042
210
0.0
220
1.0
230
-0.0000000000000002
  0
LINE
  5
1A3D
  8
0
  6
CONTINUOUS
 10
70.9271697634435156
 20
18.0
 30
-0.000000000000004
 11
71.9271697634435156
 21
19.0
 31
-0.0000000000000042
210
0.0
220
1.0
230
-0.0000000000000002
  0
LINE
  5
1A3E
  8
0
  6
CONTINUOUS
 10
70.9271697634435156
 20
18.0
 30
-0.000000000000004
 11
71.9271697634435156
 21
17.0
 31
-0.0000000000000038
210
0.0
220
1.0
230
-0.0000000000000002
  0
LINE
  5
1A3F
  8
0
  6
CONTINUOUS
 10
62.9271697634435085
 20
18.0
 30
-0.000000000000004
 11
61.9271697634435085
 21
17.0
 31
-0.0000000000000038
210
0.0
220
1.0
230
-0.0000000000000002
  0
LINE
  5
1A40
  8
0
  6
CONTINUOUS
 10
62.9271697634435085
 20
16.0
 30
-0.0000000000000036
 11
61.9271697634435085
 21
17.0
 31
-0.0000000000000038
210
0.0
220
1.0
230
-0.0000000000000002
  0
LINE
  5
1A41
  8
0
  6
CONTINUOUS
 10
70.9271697634435156
 20
16.0
 30
-0.0000000000000036
 11
71.9271697634435156
 21
17.0
 31
-0.0000000000000038
210
0.0
220
1.0
230
-0.0000000000000002
  0
LINE
  5
1A42
  8
0
  6
CONTINUOUS
 10
70.9271697634435156
 20
16.0
 30
-0.0000000000000036
 11
71.9271697634435156
 21
15.0
 31
-0.0000000000000033
210
0.0
220
1.0
230
-0.0000000000000002
  0
LINE
  5
1A43
  8
0
  6
CONTINUOUS
 10
62.9271697634435085
 20
16.0
 30
-0.0000000000000036
 11
61.9271697634435085
 21
15.0
 31
-0.0000000000000033
210
0.0
220
1.0
230
-0.0000000000000002
  0
LINE
  5
1A44
  8
0
  6
CONTINUOUS
 10
62.9271697634435085
 20
14.0
 30
-0.0000000000000031
 11
61.9271697634435085
 21
15.0
 31
-0.0000000000000033
210
0.0
220
1.0
230
-0.0000000000000002
  0
LINE
  5
1A45
  8
0
  6
CONTINUOUS
 10
70.9271697634435156
 20
14.0
 30
-0.0000000000000031
 11
71.9271697634435156
 21
15.0
 31
-0.0000000000000033
210
0.0
220
1.0
230
-0.0000000000000002
  0
LINE
  5
1A46
  8
0
  6
CONTINUOUS
 10
70.9271697634435156
 20
14.0
 30
-0.0000000000000031
 11
71.9271697634435156
 21
13.0
 31
-0.0000000000000029
210
0.0
220
1.0
230
-0.0000000000000002
  0
LINE
  5
1A47
  8
0
  6
CONTINUOUS
 10
62.9271697634435085
 20
14.0
 30
-0.0000000000000031
 11
61.9271697634435085
 21
13.0
 31
-0.0000000000000029
210
0.0
220
1.0
230
-0.0000000000000002
  0
LINE
  5
1A48
  8
0
  6
CONTINUOUS
 10
62.9271697634435085
 20
12.0
 30
-0.0000000000000027
 11
61.9271697634435085
 21
13.0
 31
-0.0000000000000029
210
0.0
220
1.0
230
-0.0000000000000002
  0
LINE
  5
1A49
  8
0
  6
CONTINUOUS
 10
70.9271697634435156
 20
12.0
 30
-0.0000000000000027
 11
71.9271697634435156
 21
13.0
 31
-0.0000000000000029
210
0.0
220
1.0
230
-0.0000000000000002
  0
LINE
  5
1A4A
  8
0
  6
CONTINUOUS
 10
70.9271697634435156
 20
12.0
 30
-0.0000000000000027
 11
71.9271697634435156
 21
11.0
 31
-0.0000000000000024
210
0.0
220
1.0
230
-0.0000000000000002
  0
LINE
  5
1A4B
  8
0
  6
CONTINUOUS
 10
62.9271697634435085
 20
12.0
 30
-0.0000000000000027
 11
61.9271697634435085
 21
11.0
 31
-0.0000000000000024
210
0.0
220
1.0
230
-0.0000000000000002
  0
LINE
  5
1A4C
  8
0
  6
CONTINUOUS
 10
62.9271697634435085
 20
10.0
 30
-0.0000000000000022
 11
61.9271697634435085
 21
11.0
 31
-0.0000000000000024
210
0.0
220
1.0
230
-0.0000000000000002
  0
LINE
  5
1A4D
  8
0
  6
CONTINUOUS
 10
70.9271697634435156
 20
10.0
 30
-0.0000000000000022
 11
71.9271697634435156
 21
11.0
 31
-0.0000000000000024
210
0.0
220
1.0
230
-0.0000000000000002
  0
LINE
  5
1A4E
  8
0
  6
CONTINUOUS
 10
70.9271697634435156
 20
10.0
 30
-0.0000000000000022
 11
71.9271697634435156
 21
9.0000000000000018
 31
-0.000000000000002
210
0.0
220
1.0
230
-0.0000000000000002
  0
LINE
  5
1A4F
  8
0
  6
CONTINUOUS
 10
62.9271697634435085
 20
10.0
 30
-0.0000000000000022
 11
61.9271697634435085
 21
9.0000000000000018
 31
-0.000000000000002
210
0.0
220
1.0
230
-0.0000000000000002
  0
LINE
  5
1A50
  8
0
  6
CONTINUOUS
 10
62.9271697634435085
 20
8.0000000000000018
 30
-0.0000000000000018
 11
61.9271697634435085
 21
9.0000000000000018
 31
-0.000000000000002
210
0.0
220
1.0
230
-0.0000000000000002
  0
LINE
  5
1A51
  8
0
  6
CONTINUOUS
 10
70.9271697634435156
 20
8.0000000000000018
 30
-0.0000000000000018
 11
71.9271697634435156
 21
9.0000000000000018
 31
-0.000000000000002
210
0.0
220
1.0
230
-0.0000000000000002
  0
LINE
  5
1A52
  8
0
  6
CONTINUOUS
 10
70.9271697634435156
 20
8.0000000000000018
 30
-0.0000000000000018
 11
71.9271697634435156
 21
7.0000000000000009
 31
-0.0000000000000016
210
0.0
220
1.0
230
-0.0000000000000002
  0
LINE
  5
1A53
  8
0
  6
CONTINUOUS
 10
62.9271697634435085
 20
8.0000000000000018
 30
-0.0000000000000018
 11
61.9271697634435085
 21
7.0000000000000009
 31
-0.0000000000000016
210
0.0
220
1.0
230
-0.0000000000000002
  0
LINE
  5
1A54
  8
0
  6
CONTINUOUS
 10
62.9271697634435085
 20
6.0000000000000009
 30
-0.0000000000000013
 11
61.9271697634435085
 21
7.0000000000000009
 31
-0.0000000000000016
210
0.0
220
1.0
230
-0.0000000000000002
  0
LINE
  5
1A55
  8
0
  6
CONTINUOUS
 10
70.9271697634435156
 20
6.0000000000000009
 30
-0.0000000000000013
 11
71.9271697634435156
 21
7.0000000000000009
 31
-0.0000000000000016
210
0.0
220
1.0
230
-0.0000000000000002
  0
LINE
  5
1A56
  8
0
  6
CONTINUOUS
 10
70.9271697634435156
 20
6.0000000000000009
 30
-0.0000000000000013
 11
71.9271697634435156
 21
5.0
 31
-0.0000000000000011
210
0.0
220
1.0
230
-0.0000000000000002
  0
LINE
  5
1A57
  8
0
  6
CONTINUOUS
 10
62.9271697634435085
 20
6.0000000000000009
 30
-0.0000000000000013
 11
61.9271697634435085
 21
5.0
 31
-0.0000000000000011
210
0.0
220
1.0
230
-0.0000000000000002
  0
LINE
  5
1A58
  8
0
  6
CONTINUOUS
 10
62.9271697634435085
 20
4.0
 30
-0.0000000000000009
 11
61.9271697634435085
 21
5.0
 31
-0.0000000000000011
210
0.0
220
1.0
230
-0.0000000000000002
  0
LINE
  5
1A59
  8
0
  6
CONTINUOUS
 10
70.9271697634435156
 20
4.0
 30
-0.0000000000000009
 11
71.9271697634435156
 21
5.0
 31
-0.0000000000000011
210
0.0
220
1.0
230
-0.0000000000000002
  0
LINE
  5
1A5A
  8
0
  6
CONTINUOUS
 10
70.9271697634435156
 20
4.0
 30
-0.0000000000000009
 11
71.9271697634435156
 21
3.0
 31
-0.0000000000000007
210
0.0
220
1.0
230
-0.0000000000000002
  0
LINE
  5
1A5B
  8
0
  6
CONTINUOUS
 10
62.9271697634435085
 20
4.0
 30
-0.0000000000000009
 11
61.9271697634435085
 21
3.0
 31
-0.0000000000000007
210
0.0
220
1.0
230
-0.0000000000000002
  0
LINE
  5
1A5C
  8
0
  6
CONTINUOUS
 10
-154.8753914472478073
 20
27.0000000000000107
 30
-0.000000000000006
 11
-144.8753914472478073
 21
27.0000000000000107
 31
-0.000000000000006
210
0.0
220
1.0
230
-0.0000000000000002
  0
LINE
  5
1A5D
  8
0
  6
CONTINUOUS
 10
-153.8753914472478073
 20
28.0000000000000107
 30
-0.0000000000000062
 11
-145.8753914472478073
 21
28.0000000000000107
 31
-0.0000000000000062
210
0.0
220
1.0
230
-0.0000000000000002
  0
LINE
  5
1A5E
  8
0
  6
CONTINUOUS
 10
-153.8753914472478073
 20
26.0000000000000107
 30
-0.0000000000000058
 11
-145.8753914472478073
 21
26.0000000000000107
 31
-0.0000000000000058
210
0.0
220
1.0
230
-0.0000000000000002
  0
LINE
  5
1A5F
  8
0
  6
CONTINUOUS
 10
-154.8753914472478073
 20
25.0000000000000107
 30
-0.0000000000000056
 11
-144.8753914472478073
 21
25.0000000000000107
 31
-0.0000000000000056
210
0.0
220
1.0
230
-0.0000000000000002
  0
LINE
  5
1A60
  8
0
  6
CONTINUOUS
 10
-153.8753914472478073
 20
24.0000000000000107
 30
-0.0000000000000053
 11
-145.8753914472478073
 21
24.0000000000000107
 31
-0.0000000000000053
210
0.0
220
1.0
230
-0.0000000000000002
  0
LINE
  5
1A61
  8
0
  6
CONTINUOUS
 10
-154.8753914472478073
 20
23.0
 30
-0.0000000000000051
 11
-144.8753914472478073
 21
23.0
 31
-0.0000000000000051
210
0.0
220
1.0
230
-0.0000000000000002
  0
LINE
  5
1A62
  8
0
  6
CONTINUOUS
 10
-153.8753914472478073
 20
22.0000000000000107
 30
-0.0000000000000049
 11
-145.8753914472478073
 21
22.0000000000000107
 31
-0.0000000000000049
210
0.0
220
1.0
230
-0.0000000000000002
  0
LINE
  5
1A63
  8
0
  6
CONTINUOUS
 10
-154.8753914472478073
 20
21.0
 30
-0.0000000000000047
 11
-144.8753914472478073
 21
21.0
 31
-0.0000000000000047
210
0.0
220
1.0
230
-0.0000000000000002
  0
LINE
  5
1A64
  8
0
  6
CONTINUOUS
 10
-153.8753914472478073
 20
20.0
 30
-0.0000000000000044
 11
-145.8753914472478073
 21
20.0
 31
-0.0000000000000044
210
0.0
220
1.0
230
-0.0000000000000002
  0
LINE
  5
1A65
  8
0
  6
CONTINUOUS
 10
-154.8753914472478073
 20
19.0
 30
-0.0000000000000042
 11
-144.8753914472478073
 21
19.0
 31
-0.0000000000000042
210
0.0
220
1.0
230
-0.0000000000000002
  0
LINE
  5
1A66
  8
0
  6
CONTINUOUS
 10
-153.8753914472478073
 20
18.0
 30
-0.000000000000004
 11
-145.8753914472478073
 21
18.0
 31
-0.000000000000004
210
0.0
220
1.0
230
-0.0000000000000002
  0
LINE
  5
1A67
  8
0
  6
CONTINUOUS
 10
-154.8753914472478073
 20
17.0
 30
-0.0000000000000038
 11
-144.8753914472478073
 21
17.0
 31
-0.0000000000000038
210
0.0
220
1.0
230
-0.0000000000000002
  0
LINE
  5
1A68
  8
0
  6
CONTINUOUS
 10
-153.8753914472478073
 20
16.0
 30
-0.0000000000000036
 11
-145.8753914472478073
 21
16.0
 31
-0.0000000000000036
210
0.0
220
1.0
230
-0.0000000000000002
  0
LINE
  5
1A69
  8
0
  6
CONTINUOUS
 10
-154.8753914472478073
 20
15.0
 30
-0.0000000000000033
 11
-144.8753914472478073
 21
15.0
 31
-0.0000000000000033
210
0.0
220
1.0
230
-0.0000000000000002
  0
LINE
  5
1A6A
  8
0
  6
CONTINUOUS
 10
-153.8753914472478073
 20
14.0
 30
-0.0000000000000031
 11
-145.8753914472478073
 21
14.0
 31
-0.0000000000000031
210
0.0
220
1.0
230
-0.0000000000000002
  0
LINE
  5
1A6B
  8
0
  6
CONTINUOUS
 10
-154.8753914472478073
 20
13.0
 30
-0.0000000000000029
 11
-144.8753914472478073
 21
13.0
 31
-0.0000000000000029
210
0.0
220
1.0
230
-0.0000000000000002
  0
LINE
  5
1A6C
  8
0
  6
CONTINUOUS
 10
-153.8753914472478073
 20
12.0
 30
-0.0000000000000027
 11
-145.8753914472478073
 21
12.0
 31
-0.0000000000000027
210
0.0
220
1.0
230
-0.0000000000000002
  0
LINE
  5
1A6D
  8
0
  6
CONTINUOUS
 10
-154.8753914472478073
 20
11.0
 30
-0.0000000000000024
 11
-144.8753914472478073
 21
11.0
 31
-0.0000000000000024
210
0.0
220
1.0
230
-0.0000000000000002
  0
LINE
  5
1A6E
  8
0
  6
CONTINUOUS
 10
-153.8753914472478073
 20
10.0
 30
-0.0000000000000022
 11
-145.8753914472478073
 21
10.0
 31
-0.0000000000000022
210
0.0
220
1.0
230
-0.0000000000000002
  0
LINE
  5
1A6F
  8
0
  6
CONTINUOUS
 10
-154.8753914472478073
 20
9.0000000000000018
 30
-0.000000000000002
 11
-144.8753914472478073
 21
9.0000000000000018
 31
-0.000000000000002
210
0.0
220
1.0
230
-0.0000000000000002
  0
LINE
  5
1A70
  8
0
  6
CONTINUOUS
 10
-153.8753914472478073
 20
8.0000000000000018
 30
-0.0000000000000018
 11
-145.8753914472478073
 21
8.0000000000000018
 31
-0.0000000000000018
210
0.0
220
1.0
230
-0.0000000000000002
  0
LINE
  5
1A71
  8
0
  6
CONTINUOUS
 10
-154.8753914472478073
 20
7.0000000000000009
 30
-0.0000000000000016
 11
-144.8753914472478073
 21
7.0000000000000009
 31
-0.0000000000000016
210
0.0
220
1.0
230
-0.0000000000000002
  0
LINE
  5
1A72
  8
0
  6
CONTINUOUS
 10
-153.8753914472478073
 20
6.0000000000000009
 30
-0.0000000000000013
 11
-145.8753914472478073
 21
6.0000000000000009
 31
-0.0000000000000013
210
0.0
220
1.0
230
-0.0000000000000002
  0
LINE
  5
1A73
  8
0
  6
CONTINUOUS
 10
-154.8753914472478073
 20
5.0
 30
-0.0000000000000011
 11
-144.8753914472478073
 21
5.0
 31
-0.0000000000000011
210
0.0
220
1.0
230
-0.0000000000000002
  0
LINE
  5
1A74
  8
0
  6
CONTINUOUS
 10
-153.8753914472478073
 20
4.0
 30
-0.0000000000000009
 11
-145.8753914472478073
 21
4.0
 31
-0.0000000000000009
210
0.0
220
1.0
230
-0.0000000000000002
  0
LINE
  5
1A75
  8
0
  6
CONTINUOUS
 10
-145.8753914472478073
 20
28.0000000000000107
 30
-0.0000000000000062
 11
-144.8753914472478073
 21
27.0000000000000107
 31
-0.000000000000006
210
0.0
220
1.0
230
-0.0000000000000002
  0
LINE
  5
1A76
  8
0
  6
CONTINUOUS
 10
-153.8753914472478073
 20
28.0000000000000107
 30
-0.0000000000000062
 11
-154.8753914472478073
 21
27.0000000000000107
 31
-0.000000000000006
210
0.0
220
1.0
230
-0.0000000000000002
  0
LINE
  5
1A77
  8
0
  6
CONTINUOUS
 10
-153.8753914472478073
 20
26.0000000000000107
 30
-0.0000000000000058
 11
-154.8753914472478073
 21
27.0000000000000107
 31
-0.000000000000006
210
0.0
220
1.0
230
-0.0000000000000002
  0
LINE
  5
1A78
  8
0
  6
CONTINUOUS
 10
-145.8753914472478073
 20
26.0000000000000107
 30
-0.0000000000000058
 11
-144.8753914472478073
 21
27.0000000000000107
 31
-0.000000000000006
210
0.0
220
1.0
230
-0.0000000000000002
  0
LINE
  5
1A79
  8
0
  6
CONTINUOUS
 10
-145.8753914472478073
 20
26.0000000000000107
 30
-0.0000000000000058
 11
-144.8753914472478073
 21
25.0000000000000107
 31
-0.0000000000000056
210
0.0
220
1.0
230
-0.0000000000000002
  0
LINE
  5
1A7A
  8
0
  6
CONTINUOUS
 10
-153.8753914472478073
 20
26.0000000000000107
 30
-0.0000000000000058
 11
-154.8753914472478073
 21
25.0000000000000107
 31
-0.0000000000000056
210
0.0
220
1.0
230
-0.0000000000000002
  0
LINE
  5
1A7B
  8
0
  6
CONTINUOUS
 10
-153.8753914472478073
 20
24.0000000000000107
 30
-0.0000000000000053
 11
-154.8753914472478073
 21
25.0000000000000107
 31
-0.0000000000000056
210
0.0
220
1.0
230
-0.0000000000000002
  0
LINE
  5
1A7C
  8
0
  6
CONTINUOUS
 10
-145.8753914472478073
 20
24.0000000000000107
 30
-0.0000000000000053
 11
-144.8753914472478073
 21
25.0000000000000107
 31
-0.0000000000000056
210
0.0
220
1.0
230
-0.0000000000000002
  0
LINE
  5
1A7D
  8
0
  6
CONTINUOUS
 10
-145.8753914472478073
 20
24.0000000000000107
 30
-0.0000000000000053
 11
-144.8753914472478073
 21
23.0
 31
-0.0000000000000051
210
0.0
220
1.0
230
-0.0000000000000002
  0
LINE
  5
1A7E
  8
0
  6
CONTINUOUS
 10
-153.8753914472478073
 20
24.0000000000000107
 30
-0.0000000000000053
 11
-154.8753914472478073
 21
23.0
 31
-0.0000000000000051
210
0.0
220
1.0
230
-0.0000000000000002
  0
LINE
  5
1A7F
  8
0
  6
CONTINUOUS
 10
-153.8753914472478073
 20
22.0000000000000107
 30
-0.0000000000000049
 11
-154.8753914472478073
 21
23.0
 31
-0.0000000000000051
210
0.0
220
1.0
230
-0.0000000000000002
  0
LINE
  5
1A80
  8
0
  6
CONTINUOUS
 10
-145.8753914472478073
 20
22.0000000000000107
 30
-0.0000000000000049
 11
-144.8753914472478073
 21
23.0
 31
-0.0000000000000051
210
0.0
220
1.0
230
-0.0000000000000002
  0
LINE
  5
1A81
  8
0
  6
CONTINUOUS
 10
-145.8753914472478073
 20
22.0000000000000107
 30
-0.0000000000000049
 11
-144.8753914472478073
 21
21.0
 31
-0.0000000000000047
210
0.0
220
1.0
230
-0.0000000000000002
  0
LINE
  5
1A82
  8
0
  6
CONTINUOUS
 10
-153.8753914472478073
 20
22.0000000000000107
 30
-0.0000000000000049
 11
-154.8753914472478073
 21
21.0
 31
-0.0000000000000047
210
0.0
220
1.0
230
-0.0000000000000002
  0
LINE
  5
1A83
  8
0
  6
CONTINUOUS
 10
-153.8753914472478073
 20
20.0
 30
-0.0000000000000044
 11
-154.8753914472478073
 21
21.0
 31
-0.0000000000000047
210
0.0
220
1.0
230
-0.0000000000000002
  0
LINE
  5
1A84
  8
0
  6
CONTINUOUS
 10
-145.8753914472478073
 20
20.0
 30
-0.0000000000000044
 11
-144.8753914472478073
 21
21.0
 31
-0.0000000000000047
210
0.0
220
1.0
230
-0.0000000000000002
  0
LINE
  5
1A85
  8
0
  6
CONTINUOUS
 10
-145.8753914472478073
 20
20.0
 30
-0.0000000000000044
 11
-144.8753914472478073
 21
19.0
 31
-0.0000000000000042
210
0.0
220
1.0
230
-0.0000000000000002
  0
LINE
  5
1A86
  8
0
  6
CONTINUOUS
 10
-153.8753914472478073
 20
20.0
 30
-0.0000000000000044
 11
-154.8753914472478073
 21
19.0
 31
-0.0000000000000042
210
0.0
220
1.0
230
-0.0000000000000002
  0
LINE
  5
1A87
  8
0
  6
CONTINUOUS
 10
-153.8753914472478073
 20
18.0
 30
-0.000000000000004
 11
-154.8753914472478073
 21
19.0
 31
-0.0000000000000042
210
0.0
220
1.0
230
-0.0000000000000002
  0
LINE
  5
1A88
  8
0
  6
CONTINUOUS
 10
-145.8753914472478073
 20
18.0
 30
-0.000000000000004
 11
-144.8753914472478073
 21
19.0
 31
-0.0000000000000042
210
0.0
220
1.0
230
-0.0000000000000002
  0
LINE
  5
1A89
  8
0
  6
CONTINUOUS
 10
-145.8753914472478073
 20
18.0
 30
-0.000000000000004
 11
-144.8753914472478073
 21
17.0
 31
-0.0000000000000038
210
0.0
220
1.0
230
-0.0000000000000002
  0
LINE
  5
1A8A
  8
0
  6
CONTINUOUS
 10
-153.8753914472478073
 20
18.0
 30
-0.000000000000004
 11
-154.8753914472478073
 21
17.0
 31
-0.0000000000000038
210
0.0
220
1.0
230
-0.0000000000000002
  0
LINE
  5
1A8B
  8
0
  6
CONTINUOUS
 10
-153.8753914472478073
 20
16.0
 30
-0.0000000000000036
 11
-154.8753914472478073
 21
17.0
 31
-0.0000000000000038
210
0.0
220
1.0
230
-0.0000000000000002
  0
LINE
  5
1A8C
  8
0
  6
CONTINUOUS
 10
-145.8753914472478073
 20
16.0
 30
-0.0000000000000036
 11
-144.8753914472478073
 21
17.0
 31
-0.0000000000000038
210
0.0
220
1.0
230
-0.0000000000000002
  0
LINE
  5
1A8D
  8
0
  6
CONTINUOUS
 10
-145.8753914472478073
 20
16.0
 30
-0.0000000000000036
 11
-144.8753914472478073
 21
15.0
 31
-0.0000000000000033
210
0.0
220
1.0
230
-0.0000000000000002
  0
LINE
  5
1A8E
  8
0
  6
CONTINUOUS
 10
-153.8753914472478073
 20
16.0
 30
-0.0000000000000036
 11
-154.8753914472478073
 21
15.0
 31
-0.0000000000000033
210
0.0
220
1.0
230
-0.0000000000000002
  0
LINE
  5
1A8F
  8
0
  6
CONTINUOUS
 10
-153.8753914472478073
 20
14.0
 30
-0.0000000000000031
 11
-154.8753914472478073
 21
15.0
 31
-0.0000000000000033
210
0.0
220
1.0
230
-0.0000000000000002
  0
LINE
  5
1A90
  8
0
  6
CONTINUOUS
 10
-145.8753914472478073
 20
14.0
 30
-0.0000000000000031
 11
-144.8753914472478073
 21
15.0
 31
-0.0000000000000033
210
0.0
220
1.0
230
-0.0000000000000002
  0
LINE
  5
1A91
  8
0
  6
CONTINUOUS
 10
-145.8753914472478073
 20
14.0
 30
-0.0000000000000031
 11
-144.8753914472478073
 21
13.0
 31
-0.0000000000000029
210
0.0
220
1.0
230
-0.0000000000000002
  0
LINE
  5
1A92
  8
0
  6
CONTINUOUS
 10
-153.8753914472478073
 20
14.0
 30
-0.0000000000000031
 11
-154.8753914472478073
 21
13.0
 31
-0.0000000000000029
210
0.0
220
1.0
230
-0.0000000000000002
  0
LINE
  5
1A93
  8
0
  6
CONTINUOUS
 10
-153.8753914472478073
 20
12.0
 30
-0.0000000000000027
 11
-154.8753914472478073
 21
13.0
 31
-0.0000000000000029
210
0.0
220
1.0
230
-0.0000000000000002
  0
LINE
  5
1A94
  8
0
  6
CONTINUOUS
 10
-145.8753914472478073
 20
12.0
 30
-0.0000000000000027
 11
-144.8753914472478073
 21
13.0
 31
-0.0000000000000029
210
0.0
220
1.0
230
-0.0000000000000002
  0
LINE
  5
1A95
  8
0
  6
CONTINUOUS
 10
-145.8753914472478073
 20
12.0
 30
-0.0000000000000027
 11
-144.8753914472478073
 21
11.0
 31
-0.0000000000000024
210
0.0
220
1.0
230
-0.0000000000000002
  0
LINE
  5
1A96
  8
0
  6
CONTINUOUS
 10
-153.8753914472478073
 20
12.0
 30
-0.0000000000000027
 11
-154.8753914472478073
 21
11.0
 31
-0.0000000000000024
210
0.0
220
1.0
230
-0.0000000000000002
  0
LINE
  5
1A97
  8
0
  6
CONTINUOUS
 10
-153.8753914472478073
 20
10.0
 30
-0.0000000000000022
 11
-154.8753914472478073
 21
11.0
 31
-0.0000000000000024
210
0.0
220
1.0
230
-0.0000000000000002
  0
LINE
  5
1A98
  8
0
  6
CONTINUOUS
 10
-145.8753914472478073
 20
10.0
 30
-0.0000000000000022
 11
-144.8753914472478073
 21
11.0
 31
-0.0000000000000024
210
0.0
220
1.0
230
-0.0000000000000002
  0
LINE
  5
1A99
  8
0
  6
CONTINUOUS
 10
-145.8753914472478073
 20
10.0
 30
-0.0000000000000022
 11
-144.8753914472478073
 21
9.0000000000000018
 31
-0.000000000000002
210
0.0
220
1.0
230
-0.0000000000000002
  0
LINE
  5
1A9A
  8
0
  6
CONTINUOUS
 10
-153.8753914472478073
 20
10.0
 30
-0.0000000000000022
 11
-154.8753914472478073
 21
9.0000000000000018
 31
-0.000000000000002
210
0.0
220
1.0
230
-0.0000000000000002
  0
LINE
  5
1A9B
  8
0
  6
CONTINUOUS
 10
-153.8753914472478073
 20
8.0000000000000018
 30
-0.0000000000000018
 11
-154.8753914472478073
 21
9.0000000000000018
 31
-0.000000000000002
210
0.0
220
1.0
230
-0.0000000000000002
  0
LINE
  5
1A9C
  8
0
  6
CONTINUOUS
 10
-145.8753914472478073
 20
8.0000000000000018
 30
-0.0000000000000018
 11
-144.8753914472478073
 21
9.0000000000000018
 31
-0.000000000000002
210
0.0
220
1.0
230
-0.0000000000000002
  0
LINE
  5
1A9D
  8
0
  6
CONTINUOUS
 10
-145.8753914472478073
 20
8.0000000000000018
 30
-0.0000000000000018
 11
-144.8753914472478073
 21
7.0000000000000009
 31
-0.0000000000000016
210
0.0
220
1.0
230
-0.0000000000000002
  0
LINE
  5
1A9E
  8
0
  6
CONTINUOUS
 10
-153.8753914472478073
 20
8.0000000000000018
 30
-0.0000000000000018
 11
-154.8753914472478073
 21
7.0000000000000009
 31
-0.0000000000000016
210
0.0
220
1.0
230
-0.0000000000000002
  0
LINE
  5
1A9F
  8
0
  6
CONTINUOUS
 10
-153.8753914472478073
 20
6.0000000000000009
 30
-0.0000000000000013
 11
-154.8753914472478073
 21
7.0000000000000009
 31
-0.0000000000000016
210
0.0
220
1.0
230
-0.0000000000000002
  0
LINE
  5
1AA0
  8
0
  6
CONTINUOUS
 10
-145.8753914472478073
 20
6.0000000000000009
 30
-0.0000000000000013
 11
-144.8753914472478073
 21
7.0000000000000009
 31
-0.0000000000000016
210
0.0
220
1.0
230
-0.0000000000000002
  0
LINE
  5
1AA1
  8
0
  6
CONTINUOUS
 10
-145.8753914472478073
 20
6.0000000000000009
 30
-0.0000000000000013
 11
-144.8753914472478073
 21
5.0
 31
-0.0000000000000011
210
0.0
220
1.0
230
-0.0000000000000002
  0
LINE
  5
1AA2
  8
0
  6
CONTINUOUS
 10
-153.8753914472478073
 20
6.0000000000000009
 30
-0.0000000000000013
 11
-154.8753914472478073
 21
5.0
 31
-0.0000000000000011
210
0.0
220
1.0
230
-0.0000000000000002
  0
LINE
  5
1AA3
  8
0
  6
CONTINUOUS
 10
-153.8753914472478073
 20
4.0
 30
-0.0000000000000009
 11
-154.8753914472478073
 21
5.0
 31
-0.0000000000000011
210
0.0
220
1.0
230
-0.0000000000000002
  0
LINE
  5
1AA4
  8
0
  6
CONTINUOUS
 10
-145.8753914472478073
 20
4.0
 30
-0.0000000000000009
 11
-144.8753914472478073
 21
5.0
 31
-0.0000000000000011
210
0.0
220
1.0
230
-0.0000000000000002
  0
LINE
  5
1AA5
  8
0
  6
CONTINUOUS
 10
-145.8753914472478073
 20
4.0
 30
-0.0000000000000009
 11
-144.8753914472478073
 21
3.0
 31
-0.0000000000000007
210
0.0
220
1.0
230
-0.0000000000000002
  0
LINE
  5
1AA6
  8
0
  6
CONTINUOUS
 10
-153.8753914472478073
 20
4.0
 30
-0.0000000000000009
 11
-154.8753914472478073
 21
3.0
 31
-0.0000000000000007
210
0.0
220
1.0
230
-0.0000000000000002
  0
LINE
  5
1AA7
  8
0
  6
CONTINUOUS
 10
-117.6779526579394002
 20
27.0000000000000107
 30
-0.000000000000006
 11
-116.2134865638720953
 21
27.0000000000000107
 31
-0.000000000000006
210
0.0
220
1.0
230
-0.0000000000000002
  0
LINE
  5
1AA8
  8
0
  6
CONTINUOUS
 10
-116.2134865638720953
 20
27.0000000000000107
 30
-0.000000000000006
 11
-107.6779526579394002
 21
27.0000000000000107
 31
-0.000000000000006
210
0.0
220
1.0
230
-0.0000000000000002
  0
LINE
  5
1AA9
  8
0
  6
CONTINUOUS
 10
-116.6779526579394002
 20
28.0000000000000107
 30
-0.0000000000000062
 11
-115.5063797826854994
 21
28.0000000000000107
 31
-0.0000000000000062
210
0.0
220
1.0
230
-0.0000000000000002
  0
LINE
  5
1AAA
  8
0
  6
CONTINUOUS
 10
-115.5063797826854994
 20
28.0000000000000107
 30
-0.0000000000000062
 11
-108.6779526579393007
 21
28.0000000000000107
 31
-0.0000000000000062
210
0.0
220
1.0
230
-0.0000000000000002
  0
LINE
  5
1AAB
  8
0
  6
CONTINUOUS
 10
-116.6779526579394002
 20
26.0000000000000107
 30
-0.0000000000000058
 11
-115.5063797826854994
 21
26.0000000000000107
 31
-0.0000000000000058
210
0.0
220
1.0
230
-0.0000000000000002
  0
LINE
  5
1AAC
  8
0
  6
CONTINUOUS
 10
-115.5063797826854994
 20
26.0000000000000107
 30
-0.0000000000000058
 11
-108.6779526579393007
 21
26.0000000000000107
 31
-0.0000000000000058
210
0.0
220
1.0
230
-0.0000000000000002
  0
LINE
  5
1AAD
  8
0
  6
CONTINUOUS
 10
-117.6779526579394002
 20
25.0000000000000107
 30
-0.0000000000000056
 11
-116.2134865638720953
 21
25.0000000000000107
 31
-0.0000000000000056
210
0.0
220
1.0
230
-0.0000000000000002
  0
LINE
  5
1AAE
  8
0
  6
CONTINUOUS
 10
-116.2134865638720953
 20
25.0000000000000107
 30
-0.0000000000000056
 11
-107.6779526579394002
 21
25.0000000000000107
 31
-0.0000000000000056
210
0.0
220
1.0
230
-0.0000000000000002
  0
LINE
  5
1AAF
  8
0
  6
CONTINUOUS
 10
-116.6779526579394002
 20
24.0000000000000107
 30
-0.0000000000000053
 11
-115.5063797826854994
 21
24.0000000000000107
 31
-0.0000000000000053
210
0.0
220
1.0
230
-0.0000000000000002
  0
LINE
  5
1AB0
  8
0
  6
CONTINUOUS
 10
-115.5063797826854994
 20
24.0000000000000107
 30
-0.0000000000000053
 11
-108.6779526579393007
 21
24.0000000000000107
 31
-0.0000000000000053
210
0.0
220
1.0
230
-0.0000000000000002
  0
LINE
  5
1AB1
  8
0
  6
CONTINUOUS
 10
-117.6779526579394002
 20
23.0
 30
-0.0000000000000051
 11
-116.2134865638720953
 21
23.0
 31
-0.0000000000000051
210
0.0
220
1.0
230
-0.0000000000000002
  0
LINE
  5
1AB2
  8
0
  6
CONTINUOUS
 10
-116.2134865638720953
 20
23.0
 30
-0.0000000000000051
 11
-107.6779526579394002
 21
23.0
 31
-0.0000000000000051
210
0.0
220
1.0
230
-0.0000000000000002
  0
LINE
  5
1AB3
  8
0
  6
CONTINUOUS
 10
-116.6779526579394002
 20
22.0000000000000107
 30
-0.0000000000000049
 11
-115.5063797826854994
 21
22.0000000000000107
 31
-0.0000000000000049
210
0.0
220
1.0
230
-0.0000000000000002
  0
LINE
  5
1AB4
  8
0
  6
CONTINUOUS
 10
-115.5063797826854994
 20
22.0000000000000107
 30
-0.0000000000000049
 11
-108.6779526579393007
 21
22.0000000000000107
 31
-0.0000000000000049
210
0.0
220
1.0
230
-0.0000000000000002
  0
LINE
  5
1AB5
  8
0
  6
CONTINUOUS
 10
-117.6779526579394002
 20
21.0
 30
-0.0000000000000047
 11
-116.2134865638720953
 21
21.0
 31
-0.0000000000000047
210
0.0
220
1.0
230
-0.0000000000000002
  0
LINE
  5
1AB6
  8
0
  6
CONTINUOUS
 10
-116.2134865638720953
 20
21.0
 30
-0.0000000000000047
 11
-107.6779526579394002
 21
21.0
 31
-0.0000000000000047
210
0.0
220
1.0
230
-0.0000000000000002
  0
LINE
  5
1AB7
  8
0
  6
CONTINUOUS
 10
-116.6779526579394002
 20
20.0
 30
-0.0000000000000044
 11
-115.5063797826854994
 21
20.0
 31
-0.0000000000000044
210
0.0
220
1.0
230
-0.0000000000000002
  0
LINE
  5
1AB8
  8
0
  6
CONTINUOUS
 10
-115.5063797826854994
 20
20.0
 30
-0.0000000000000044
 11
-108.6779526579393007
 21
20.0
 31
-0.0000000000000044
210
0.0
220
1.0
230
-0.0000000000000002
  0
LINE
  5
1AB9
  8
0
  6
CONTINUOUS
 10
-117.6779526579394002
 20
19.0
 30
-0.0000000000000042
 11
-116.2134865638720953
 21
19.0
 31
-0.0000000000000042
210
0.0
220
1.0
230
-0.0000000000000002
  0
LINE
  5
1ABA
  8
0
  6
CONTINUOUS
 10
-116.2134865638720953
 20
19.0
 30
-0.0000000000000042
 11
-107.6779526579394002
 21
19.0
 31
-0.0000000000000042
210
0.0
220
1.0
230
-0.0000000000000002
  0
LINE
  5
1ABB
  8
0
  6
CONTINUOUS
 10
-116.6779526579394002
 20
18.0
 30
-0.000000000000004
 11
-115.5063797826854994
 21
18.0
 31
-0.000000000000004
210
0.0
220
1.0
230
-0.0000000000000002
  0
LINE
  5
1ABC
  8
0
  6
CONTINUOUS
 10
-115.5063797826854994
 20
18.0
 30
-0.000000000000004
 11
-108.6779526579393007
 21
18.0
 31
-0.000000000000004
210
0.0
220
1.0
230
-0.0000000000000002
  0
LINE
  5
1ABD
  8
0
  6
CONTINUOUS
 10
-117.6779526579394002
 20
17.0
 30
-0.0000000000000038
 11
-116.2134865638720953
 21
17.0
 31
-0.0000000000000038
210
0.0
220
1.0
230
-0.0000000000000002
  0
LINE
  5
1ABE
  8
0
  6
CONTINUOUS
 10
-116.2134865638720953
 20
17.0
 30
-0.0000000000000038
 11
-107.6779526579394002
 21
17.0
 31
-0.0000000000000038
210
0.0
220
1.0
230
-0.0000000000000002
  0
LINE
  5
1ABF
  8
0
  6
CONTINUOUS
 10
-116.6779526579394002
 20
16.0
 30
-0.0000000000000036
 11
-115.5063797826854994
 21
16.0
 31
-0.0000000000000036
210
0.0
220
1.0
230
-0.0000000000000002
  0
LINE
  5
1AC0
  8
0
  6
CONTINUOUS
 10
-115.5063797826854994
 20
16.0
 30
-0.0000000000000036
 11
-108.6779526579393007
 21
16.0
 31
-0.0000000000000036
210
0.0
220
1.0
230
-0.0000000000000002
  0
LINE
  5
1AC1
  8
0
  6
CONTINUOUS
 10
-117.6779526579394002
 20
15.0
 30
-0.0000000000000033
 11
-116.2134865638720953
 21
15.0
 31
-0.0000000000000033
210
0.0
220
1.0
230
-0.0000000000000002
  0
LINE
  5
1AC2
  8
0
  6
CONTINUOUS
 10
-116.2134865638720953
 20
15.0
 30
-0.0000000000000033
 11
-107.6779526579394002
 21
15.0
 31
-0.0000000000000033
210
0.0
220
1.0
230
-0.0000000000000002
  0
LINE
  5
1AC3
  8
0
  6
CONTINUOUS
 10
-116.6779526579394002
 20
14.0
 30
-0.0000000000000031
 11
-115.5063797826854994
 21
14.0
 31
-0.0000000000000031
210
0.0
220
1.0
230
-0.0000000000000002
  0
LINE
  5
1AC4
  8
0
  6
CONTINUOUS
 10
-115.5063797826854994
 20
14.0
 30
-0.0000000000000031
 11
-108.6779526579393007
 21
14.0
 31
-0.0000000000000031
210
0.0
220
1.0
230
-0.0000000000000002
  0
LINE
  5
1AC5
  8
0
  6
CONTINUOUS
 10
-117.6779526579394002
 20
13.0
 30
-0.0000000000000029
 11
-116.2134865638720953
 21
13.0
 31
-0.0000000000000029
210
0.0
220
1.0
230
-0.0000000000000002
  0
LINE
  5
1AC6
  8
0
  6
CONTINUOUS
 10
-116.2134865638720953
 20
13.0
 30
-0.0000000000000029
 11
-107.6779526579394002
 21
13.0
 31
-0.0000000000000029
210
0.0
220
1.0
230
-0.0000000000000002
  0
LINE
  5
1AC7
  8
0
  6
CONTINUOUS
 10
-116.6779526579394002
 20
12.0
 30
-0.0000000000000027
 11
-115.5063797826854994
 21
12.0
 31
-0.0000000000000027
210
0.0
220
1.0
230
-0.0000000000000002
  0
LINE
  5
1AC8
  8
0
  6
CONTINUOUS
 10
-115.5063797826854994
 20
12.0
 30
-0.0000000000000027
 11
-108.6779526579393007
 21
12.0
 31
-0.0000000000000027
210
0.0
220
1.0
230
-0.0000000000000002
  0
LINE
  5
1AC9
  8
0
  6
CONTINUOUS
 10
-117.6779526579394002
 20
11.0
 30
-0.0000000000000024
 11
-116.2134865638720953
 21
11.0
 31
-0.0000000000000024
210
0.0
220
1.0
230
-0.0000000000000002
  0
LINE
  5
1ACA
  8
0
  6
CONTINUOUS
 10
-116.2134865638720953
 20
11.0
 30
-0.0000000000000024
 11
-107.6779526579394002
 21
11.0
 31
-0.0000000000000024
210
0.0
220
1.0
230
-0.0000000000000002
  0
LINE
  5
1ACB
  8
0
  6
CONTINUOUS
 10
-116.6779526579394002
 20
10.0
 30
-0.0000000000000022
 11
-115.5063797826854994
 21
10.0
 31
-0.0000000000000022
210
0.0
220
1.0
230
-0.0000000000000002
  0
LINE
  5
1ACC
  8
0
  6
CONTINUOUS
 10
-115.5063797826854994
 20
10.0
 30
-0.0000000000000022
 11
-108.6779526579393007
 21
10.0
 31
-0.0000000000000022
210
0.0
220
1.0
230
-0.0000000000000002
  0
LINE
  5
1ACD
  8
0
  6
CONTINUOUS
 10
-117.6779526579394002
 20
9.0000000000000018
 30
-0.000000000000002
 11
-116.2134865638720953
 21
9.0000000000000018
 31
-0.000000000000002
210
0.0
220
1.0
230
-0.0000000000000002
  0
LINE
  5
1ACE
  8
0
  6
CONTINUOUS
 10
-116.2134865638720953
 20
9.0000000000000018
 30
-0.000000000000002
 11
-107.6779526579394002
 21
9.0000000000000018
 31
-0.000000000000002
210
0.0
220
1.0
230
-0.0000000000000002
  0
LINE
  5
1ACF
  8
0
  6
CONTINUOUS
 10
-116.6779526579394002
 20
8.0000000000000018
 30
-0.0000000000000018
 11
-115.5063797826854994
 21
8.0000000000000018
 31
-0.0000000000000018
210
0.0
220
1.0
230
-0.0000000000000002
  0
LINE
  5
1AD0
  8
0
  6
CONTINUOUS
 10
-115.5063797826854994
 20
8.0000000000000018
 30
-0.0000000000000018
 11
-108.6779526579393007
 21
8.0000000000000018
 31
-0.0000000000000018
210
0.0
220
1.0
230
-0.0000000000000002
  0
LINE
  5
1AD1
  8
0
  6
CONTINUOUS
 10
-117.6779526579394002
 20
7.0000000000000009
 30
-0.0000000000000016
 11
-116.2134865638720953
 21
7.0000000000000009
 31
-0.0000000000000016
210
0.0
220
1.0
230
-0.0000000000000002
  0
LINE
  5
1AD2
  8
0
  6
CONTINUOUS
 10
-116.2134865638720953
 20
7.0000000000000009
 30
-0.0000000000000016
 11
-107.6779526579394002
 21
7.0000000000000009
 31
-0.0000000000000016
210
0.0
220
1.0
230
-0.0000000000000002
  0
LINE
  5
1AD3
  8
0
  6
CONTINUOUS
 10
-116.6779526579394002
 20
6.0000000000000009
 30
-0.0000000000000013
 11
-115.5063797826854994
 21
6.0000000000000009
 31
-0.0000000000000013
210
0.0
220
1.0
230
-0.0000000000000002
  0
LINE
  5
1AD4
  8
0
  6
CONTINUOUS
 10
-115.5063797826854994
 20
6.0000000000000009
 30
-0.0000000000000013
 11
-108.6779526579393007
 21
6.0000000000000009
 31
-0.0000000000000013
210
0.0
220
1.0
230
-0.0000000000000002
  0
LINE
  5
1AD5
  8
0
  6
CONTINUOUS
 10
-117.6779526579394002
 20
5.0
 30
-0.0000000000000011
 11
-116.2134865638720953
 21
5.0
 31
-0.0000000000000011
210
0.0
220
1.0
230
-0.0000000000000002
  0
LINE
  5
1AD6
  8
0
  6
CONTINUOUS
 10
-116.2134865638720953
 20
5.0
 30
-0.0000000000000011
 11
-107.6779526579394002
 21
5.0
 31
-0.0000000000000011
210
0.0
220
1.0
230
-0.0000000000000002
  0
LINE
  5
1AD7
  8
0
  6
CONTINUOUS
 10
-116.6779526579394002
 20
4.0
 30
-0.0000000000000009
 11
-115.5063797826854994
 21
4.0
 31
-0.0000000000000009
210
0.0
220
1.0
230
-0.0000000000000002
  0
LINE
  5
1AD8
  8
0
  6
CONTINUOUS
 10
-115.5063797826854994
 20
4.0
 30
-0.0000000000000009
 11
-108.6779526579393007
 21
4.0
 31
-0.0000000000000009
210
0.0
220
1.0
230
-0.0000000000000002
  0
LINE
  5
1AD9
  8
0
  6
CONTINUOUS
 10
-108.6779526579394002
 20
28.0000000000000107
 30
-0.0000000000000062
 11
-107.6779526579394002
 21
27.0000000000000107
 31
-0.000000000000006
210
0.0
220
1.0
230
-0.0000000000000002
  0
LINE
  5
1ADA
  8
0
  6
CONTINUOUS
 10
-116.6779526579394002
 20
28.0000000000000107
 30
-0.0000000000000062
 11
-117.6779526579394002
 21
27.0000000000000107
 31
-0.000000000000006
210
0.0
220
1.0
230
-0.0000000000000002
  0
LINE
  5
1ADB
  8
0
  6
CONTINUOUS
 10
-116.6779526579394002
 20
26.0000000000000107
 30
-0.0000000000000058
 11
-117.6779526579394002
 21
27.0000000000000107
 31
-0.000000000000006
210
0.0
220
1.0
230
-0.0000000000000002
  0
LINE
  5
1ADC
  8
0
  6
CONTINUOUS
 10
-108.6779526579394002
 20
26.0000000000000107
 30
-0.0000000000000058
 11
-107.6779526579394002
 21
27.0000000000000107
 31
-0.000000000000006
210
0.0
220
1.0
230
-0.0000000000000002
  0
LINE
  5
1ADD
  8
0
  6
CONTINUOUS
 10
-108.6779526579394002
 20
26.0000000000000107
 30
-0.0000000000000058
 11
-107.6779526579394002
 21
25.0000000000000107
 31
-0.0000000000000056
210
0.0
220
1.0
230
-0.0000000000000002
  0
LINE
  5
1ADE
  8
0
  6
CONTINUOUS
 10
-116.6779526579394002
 20
26.0000000000000107
 30
-0.0000000000000058
 11
-117.6779526579394002
 21
25.0000000000000107
 31
-0.0000000000000056
210
0.0
220
1.0
230
-0.0000000000000002
  0
LINE
  5
1ADF
  8
0
  6
CONTINUOUS
 10
-116.6779526579394002
 20
24.0000000000000107
 30
-0.0000000000000053
 11
-117.6779526579394002
 21
25.0000000000000107
 31
-0.0000000000000056
210
0.0
220
1.0
230
-0.0000000000000002
  0
LINE
  5
1AE0
  8
0
  6
CONTINUOUS
 10
-108.6779526579394002
 20
24.0000000000000107
 30
-0.0000000000000053
 11
-107.6779526579394002
 21
25.0000000000000107
 31
-0.0000000000000056
210
0.0
220
1.0
230
-0.0000000000000002
  0
LINE
  5
1AE1
  8
0
  6
CONTINUOUS
 10
-108.6779526579394002
 20
24.0000000000000107
 30
-0.0000000000000053
 11
-107.6779526579394002
 21
23.0
 31
-0.0000000000000051
210
0.0
220
1.0
230
-0.0000000000000002
  0
LINE
  5
1AE2
  8
0
  6
CONTINUOUS
 10
-116.6779526579394002
 20
24.0000000000000107
 30
-0.0000000000000053
 11
-117.6779526579394002
 21
23.0
 31
-0.0000000000000051
210
0.0
220
1.0
230
-0.0000000000000002
  0
LINE
  5
1AE3
  8
0
  6
CONTINUOUS
 10
-116.6779526579394002
 20
22.0000000000000107
 30
-0.0000000000000049
 11
-117.6779526579394002
 21
23.0
 31
-0.0000000000000051
210
0.0
220
1.0
230
-0.0000000000000002
  0
LINE
  5
1AE4
  8
0
  6
CONTINUOUS
 10
-108.6779526579394002
 20
22.0000000000000107
 30
-0.0000000000000049
 11
-107.6779526579394002
 21
23.0
 31
-0.0000000000000051
210
0.0
220
1.0
230
-0.0000000000000002
  0
LINE
  5
1AE5
  8
0
  6
CONTINUOUS
 10
-108.6779526579394002
 20
22.0000000000000107
 30
-0.0000000000000049
 11
-107.6779526579394002
 21
21.0
 31
-0.0000000000000047
210
0.0
220
1.0
230
-0.0000000000000002
  0
LINE
  5
1AE6
  8
0
  6
CONTINUOUS
 10
-116.6779526579394002
 20
22.0000000000000107
 30
-0.0000000000000049
 11
-117.6779526579394002
 21
21.0
 31
-0.0000000000000047
210
0.0
220
1.0
230
-0.0000000000000002
  0
LINE
  5
1AE7
  8
0
  6
CONTINUOUS
 10
-116.6779526579394002
 20
20.0
 30
-0.0000000000000044
 11
-117.6779526579394002
 21
21.0
 31
-0.0000000000000047
210
0.0
220
1.0
230
-0.0000000000000002
  0
LINE
  5
1AE8
  8
0
  6
CONTINUOUS
 10
-108.6779526579394002
 20
20.0
 30
-0.0000000000000044
 11
-107.6779526579394002
 21
21.0
 31
-0.0000000000000047
210
0.0
220
1.0
230
-0.0000000000000002
  0
LINE
  5
1AE9
  8
0
  6
CONTINUOUS
 10
-108.6779526579394002
 20
20.0
 30
-0.0000000000000044
 11
-107.6779526579394002
 21
19.0
 31
-0.0000000000000042
210
0.0
220
1.0
230
-0.0000000000000002
  0
LINE
  5
1AEA
  8
0
  6
CONTINUOUS
 10
-116.6779526579394002
 20
20.0
 30
-0.0000000000000044
 11
-117.6779526579394002
 21
19.0
 31
-0.0000000000000042
210
0.0
220
1.0
230
-0.0000000000000002
  0
LINE
  5
1AEB
  8
0
  6
CONTINUOUS
 10
-116.6779526579394002
 20
18.0
 30
-0.000000000000004
 11
-117.6779526579394002
 21
19.0
 31
-0.0000000000000042
210
0.0
220
1.0
230
-0.0000000000000002
  0
LINE
  5
1AEC
  8
0
  6
CONTINUOUS
 10
-108.6779526579394002
 20
18.0
 30
-0.000000000000004
 11
-107.6779526579394002
 21
19.0
 31
-0.0000000000000042
210
0.0
220
1.0
230
-0.0000000000000002
  0
LINE
  5
1AED
  8
0
  6
CONTINUOUS
 10
-108.6779526579394002
 20
18.0
 30
-0.000000000000004
 11
-107.6779526579394002
 21
17.0
 31
-0.0000000000000038
210
0.0
220
1.0
230
-0.0000000000000002
  0
LINE
  5
1AEE
  8
0
  6
CONTINUOUS
 10
-116.6779526579394002
 20
18.0
 30
-0.000000000000004
 11
-117.6779526579394002
 21
17.0
 31
-0.0000000000000038
210
0.0
220
1.0
230
-0.0000000000000002
  0
LINE
  5
1AEF
  8
0
  6
CONTINUOUS
 10
-116.6779526579394002
 20
16.0
 30
-0.0000000000000036
 11
-117.6779526579394002
 21
17.0
 31
-0.0000000000000038
210
0.0
220
1.0
230
-0.0000000000000002
  0
LINE
  5
1AF0
  8
0
  6
CONTINUOUS
 10
-108.6779526579394002
 20
16.0
 30
-0.0000000000000036
 11
-107.6779526579394002
 21
17.0
 31
-0.0000000000000038
210
0.0
220
1.0
230
-0.0000000000000002
  0
LINE
  5
1AF1
  8
0
  6
CONTINUOUS
 10
-108.6779526579394002
 20
16.0
 30
-0.0000000000000036
 11
-107.6779526579394002
 21
15.0
 31
-0.0000000000000033
210
0.0
220
1.0
230
-0.0000000000000002
  0
LINE
  5
1AF2
  8
0
  6
CONTINUOUS
 10
-116.6779526579394002
 20
16.0
 30
-0.0000000000000036
 11
-117.6779526579394002
 21
15.0
 31
-0.0000000000000033
210
0.0
220
1.0
230
-0.0000000000000002
  0
LINE
  5
1AF3
  8
0
  6
CONTINUOUS
 10
-116.6779526579394002
 20
14.0
 30
-0.0000000000000031
 11
-117.6779526579394002
 21
15.0
 31
-0.0000000000000033
210
0.0
220
1.0
230
-0.0000000000000002
  0
LINE
  5
1AF4
  8
0
  6
CONTINUOUS
 10
-108.6779526579394002
 20
14.0
 30
-0.0000000000000031
 11
-107.6779526579394002
 21
15.0
 31
-0.0000000000000033
210
0.0
220
1.0
230
-0.0000000000000002
  0
LINE
  5
1AF5
  8
0
  6
CONTINUOUS
 10
-108.6779526579394002
 20
14.0
 30
-0.0000000000000031
 11
-107.6779526579394002
 21
13.0
 31
-0.0000000000000029
210
0.0
220
1.0
230
-0.0000000000000002
  0
LINE
  5
1AF6
  8
0
  6
CONTINUOUS
 10
-116.6779526579394002
 20
14.0
 30
-0.0000000000000031
 11
-117.6779526579394002
 21
13.0
 31
-0.0000000000000029
210
0.0
220
1.0
230
-0.0000000000000002
  0
LINE
  5
1AF7
  8
0
  6
CONTINUOUS
 10
-116.6779526579394002
 20
12.0
 30
-0.0000000000000027
 11
-117.6779526579394002
 21
13.0
 31
-0.0000000000000029
210
0.0
220
1.0
230
-0.0000000000000002
  0
LINE
  5
1AF8
  8
0
  6
CONTINUOUS
 10
-108.6779526579394002
 20
12.0
 30
-0.0000000000000027
 11
-107.6779526579394002
 21
13.0
 31
-0.0000000000000029
210
0.0
220
1.0
230
-0.0000000000000002
  0
LINE
  5
1AF9
  8
0
  6
CONTINUOUS
 10
-108.6779526579394002
 20
12.0
 30
-0.0000000000000027
 11
-107.6779526579394002
 21
11.0
 31
-0.0000000000000024
210
0.0
220
1.0
230
-0.0000000000000002
  0
LINE
  5
1AFA
  8
0
  6
CONTINUOUS
 10
-116.6779526579394002
 20
12.0
 30
-0.0000000000000027
 11
-117.6779526579394002
 21
11.0
 31
-0.0000000000000024
210
0.0
220
1.0
230
-0.0000000000000002
  0
LINE
  5
1AFB
  8
0
  6
CONTINUOUS
 10
-116.6779526579394002
 20
10.0
 30
-0.0000000000000022
 11
-117.6779526579394002
 21
11.0
 31
-0.0000000000000024
210
0.0
220
1.0
230
-0.0000000000000002
  0
LINE
  5
1AFC
  8
0
  6
CONTINUOUS
 10
-108.6779526579394002
 20
10.0
 30
-0.0000000000000022
 11
-107.6779526579394002
 21
11.0
 31
-0.0000000000000024
210
0.0
220
1.0
230
-0.0000000000000002
  0
LINE
  5
1AFD
  8
0
  6
CONTINUOUS
 10
-108.6779526579394002
 20
10.0
 30
-0.0000000000000022
 11
-107.6779526579394002
 21
9.0000000000000018
 31
-0.000000000000002
210
0.0
220
1.0
230
-0.0000000000000002
  0
LINE
  5
1AFE
  8
0
  6
CONTINUOUS
 10
-116.6779526579394002
 20
10.0
 30
-0.0000000000000022
 11
-117.6779526579394002
 21
9.0000000000000018
 31
-0.000000000000002
210
0.0
220
1.0
230
-0.0000000000000002
  0
LINE
  5
1AFF
  8
0
  6
CONTINUOUS
 10
-116.6779526579394002
 20
8.0000000000000018
 30
-0.0000000000000018
 11
-117.6779526579394002
 21
9.0000000000000018
 31
-0.000000000000002
210
0.0
220
1.0
230
-0.0000000000000002
  0
LINE
  5
1B00
  8
0
  6
CONTINUOUS
 10
-108.6779526579394002
 20
8.0000000000000018
 30
-0.0000000000000018
 11
-107.6779526579394002
 21
9.0000000000000018
 31
-0.000000000000002
210
0.0
220
1.0
230
-0.0000000000000002
  0
LINE
  5
1B01
  8
0
  6
CONTINUOUS
 10
-108.6779526579394002
 20
8.0000000000000018
 30
-0.0000000000000018
 11
-107.6779526579394002
 21
7.0000000000000009
 31
-0.0000000000000016
210
0.0
220
1.0
230
-0.0000000000000002
  0
LINE
  5
1B02
  8
0
  6
CONTINUOUS
 10
-116.6779526579394002
 20
8.0000000000000018
 30
-0.0000000000000018
 11
-117.6779526579394002
 21
7.0000000000000009
 31
-0.0000000000000016
210
0.0
220
1.0
230
-0.0000000000000002
  0
LINE
  5
1B03
  8
0
  6
CONTINUOUS
 10
-116.6779526579394002
 20
6.0000000000000009
 30
-0.0000000000000013
 11
-117.6779526579394002
 21
7.0000000000000009
 31
-0.0000000000000016
210
0.0
220
1.0
230
-0.0000000000000002
  0
LINE
  5
1B04
  8
0
  6
CONTINUOUS
 10
-108.6779526579394002
 20
6.0000000000000009
 30
-0.0000000000000013
 11
-107.6779526579394002
 21
7.0000000000000009
 31
-0.0000000000000016
210
0.0
220
1.0
230
-0.0000000000000002
  0
LINE
  5
1B05
  8
0
  6
CONTINUOUS
 10
-108.6779526579394002
 20
6.0000000000000009
 30
-0.0000000000000013
 11
-107.6779526579394002
 21
5.0
 31
-0.0000000000000011
210
0.0
220
1.0
230
-0.0000000000000002
  0
LINE
  5
1B06
  8
0
  6
CONTINUOUS
 10
-116.6779526579394002
 20
6.0000000000000009
 30
-0.0000000000000013
 11
-117.6779526579394002
 21
5.0
 31
-0.0000000000000011
210
0.0
220
1.0
230
-0.0000000000000002
  0
LINE
  5
1B07
  8
0
  6
CONTINUOUS
 10
-116.6779526579394002
 20
4.0
 30
-0.0000000000000009
 11
-117.6779526579394002
 21
5.0
 31
-0.0000000000000011
210
0.0
220
1.0
230
-0.0000000000000002
  0
LINE
  5
1B08
  8
0
  6
CONTINUOUS
 10
-108.6779526579394002
 20
4.0
 30
-0.0000000000000009
 11
-107.6779526579394002
 21
5.0
 31
-0.0000000000000011
210
0.0
220
1.0
230
-0.0000000000000002
  0
LINE
  5
1B09
  8
0
  6
CONTINUOUS
 10
-108.6779526579394002
 20
4.0
 30
-0.0000000000000009
 11
-107.6779526579394002
 21
3.0
 31
-0.0000000000000007
210
0.0
220
1.0
230
-0.0000000000000002
  0
LINE
  5
1B0A
  8
0
  6
CONTINUOUS
 10
-116.6779526579394002
 20
4.0
 30
-0.0000000000000009
 11
-117.6779526579394002
 21
3.0
 31
-0.0000000000000007
210
0.0
220
1.0
230
-0.0000000000000002
  0
LINE
  5
1B0B
  8
0
  6
CONTINUOUS
 10
-179.3753914472486031
 20
2.9999999999995448
 30
-0.0000000000000007
 11
133.6246085527529885
 21
3.0000000000004552
 31
-0.0000000000000007
210
0.0
220
1.0
230
-0.0000000000000002
  0
LINE
  5
1B0C
  8
0
  6
CONTINUOUS
 10
-180.3753914472480915
 20
2.0
 30
-0.0000000000000004
 11
134.6246085527525054
 21
2.0000000000009091
 31
-0.0000000000000004
210
0.0
220
1.0
230
-0.0000000000000002
  0
LINE
  5
1B0D
  8
0
  6
CONTINUOUS
 10
-180.3753914472480062
 20
-0.0000000000004547
 30
0.0
 11
134.6246085527523917
 21
0.0000000000004547
 31
0.0
210
0.0
220
1.0
230
-0.0000000000000002
  0
LINE
  5
1B0E
  8
0
  6
CONTINUOUS
 10
-18.4834181840280891
 20
27.6080267367802286
 30
-0.0000000000000061
 11
48.4861231131094996
 21
27.6080267367804097
 31
-0.0000000000000061
210
0.0
220
1.0
230
-0.0000000000000002
  0
LINE
  5
1B0F
  8
0
  6
CONTINUOUS
 10
-94.2369060076052136
 20
27.6080267367799195
 30
-0.0000000000000061
 11
-27.2673647104677492
 21
27.6080267367801895
 31
-0.0000000000000061
210
0.0
220
1.0
230
-0.0000000000000002
  0
LINE
  5
1B10
  8
0
  6
CONTINUOUS
 10
133.6246085527529885
 20
3.0000000000004712
 30
-0.0000000000000007
 11
134.6246085527525054
 21
2.000000000000933
 31
-0.0000000000000004
210
0.0
220
1.0
230
-0.0000000000000002
  0
LINE
  5
1B11
  8
0
  6
CONTINUOUS
 10
-179.3753914472486031
 20
2.9999999999995359
 30
-0.0000000000000007
 11
-180.3753914472480915
 21
1.99999999999999
 31
-0.0000000000000004
210
0.0
220
1.0
230
-0.0000000000000002
  0
LINE
  5
1B12
  8
0
  6
CONTINUOUS
 10
134.6246085527525054
 20
2.0000000000009308
 30
-0.0000000000000004
 11
134.6246085527525054
 21
0.0000000000004761
 31
0.0
210
0.0
220
1.0
230
-0.0000000000000002
  0
LINE
  5
1B13
  8
0
  6
CONTINUOUS
 10
-180.3753914472480915
 20
2.0
 30
-0.0000000000000004
 11
-180.3753914472480915
 21
-0.0000000000004547
 31
0.0
210
0.0
220
1.0
230
-0.0000000000000002
  0
LINE
  5
1B14
  8
0
  6
CONTINUOUS
 10
48.4861231131096275
 20
27.6080267367804595
 30
-0.0000000000000061
 11
58.1557528627156515
 21
4.8278066145314966
 31
-0.0000000000000011
210
0.0
220
1.0
230
-0.0000000000000002
  0
LINE
  5
1B15
  8
0
  6
CONTINUOUS
 10
-94.2369060076053557
 20
27.6080267367799799
 30
-0.0000000000000061
 11
-103.9065357572112021
 21
4.8278066145309957
 31
-0.0000000000000011
210
0.0
220
1.0
230
-0.0000000000000002
  0
ARC
  5
1B16
  8
0
  6
CONTINUOUS
 10
106.6680503175678041
 20
5.9999999999990941
 30
0.0
 40
2.9999999999995368
210
0.0
220
-0.0000000000000002
230
-1.0
 50
203.0000000000100897
 51
270.0000000000130171
  0
ARC
  5
1B17
  8
0
  6
CONTINUOUS
 10
-60.9172674230721682
 20
5.9999999999995559
 30
0.0
 40
2.9999999999994911
210
0.0
220
-0.0000000000000002
230
-1.0
 50
269.999999999986585
 51
336.9999999999897113
  0
LINE
  5
1B18
  8
0
  6
VERDECKT
 62
     1
 10
-91.4753914472478868
 20
26.4358333513121195
 30
-0.0000000000000059
 11
45.7246085527520378
 21
26.4358333513125707
 31
-0.0000000000000059
210
0.0
220
1.0
230
-0.0000000000000002
  0
LINE
  5
1B19
  8
0
  6
VERDECKT
 62
     1
 10
-27.2673647104677492
 20
27.6080267367801895
 30
-0.0000000000000061
 11
-18.4834181840280891
 21
27.6080267367801895
 31
-0.0000000000000061
210
0.0
220
1.0
230
-0.0000000000000002
  0
ARC
  5
1B1A
  8
0
  6
VERDECKT
 62
     1
 10
106.668050317568003
 20
5.9999999999997016
 30
0.0
 40
5.999999999999952
210
0.0
220
-0.0000000000000002
230
-1.0
 50
203.0000000000028137
 51
270.0000000000022737
  0
ARC
  5
1B1B
  8
0
  6
VERDECKT
 62
     1
 10
-60.9172674230724027
 20
6.0000000000001998
 30
0.0
 40
5.9999999999999449
210
0.0
220
-0.0000000000000002
230
-1.0
 50
270.0
 51
336.9999999999993179
  0
LINE
  5
1B1C
  8
0
  6
VERDECKT
 62
     1
 10
45.7246085527521231
 20
26.4358333513125885
 30
-0.0000000000000059
 11
55.3942383023580405
 21
3.6556132290643188
 31
-0.0000000000000008
210
0.0
220
1.0
230
-0.0000000000000002
  0
LINE
  5
1B1D
  8
0
  6
VERDECKT
 62
     1
 10
-91.47539144724783
 20
26.4358333513121195
 30
-0.0000000000000059
 11
-101.1450211968536053
 21
3.655613229063825
 31
-0.0000000000000008
210
0.0
220
1.0
230
-0.0000000000000002
  0
LINE
  5
1B1E
  8
0
  6
VERDECKT
 62
     1
 10
-91.47539144724783
 20
26.4358333513121302
 30
-0.0000000000000059
 11
-94.2369060076052847
 21
27.6080267367799692
 31
-0.0000000000000061
210
0.0
220
1.0
230
-0.0000000000000002
  0
LINE
  5
1B1F
  8
0
  6
VERDECKT
 62
     1
 10
45.7246085527520165
 20
26.4358333513125707
 30
-0.0000000000000059
 11
48.4861231131094712
 21
27.6080267367804204
 31
-0.0000000000000061
210
0.0
220
1.0
230
-0.0000000000000002
  0
ENDBLK
  5
1B21
  8
0
  0
ENDSEC
  0
SECTION
  2
ENTITIES
  0
INSERT
  5
EFC
  8
ADSK_ASSOC_ENTITY_BACKUPS
  2
*S3
 10
0.0
 20
0.0
 30
0.0
  0
INSERT
  5
1946
  8
STEMPEL
  2
A$CBE8BEA4C
 10
369.289184966357027
 20
37.5787522005709889
 30
0.0
  0
INSERT
  5
1B22
  8
STEMPEL
  2
A$C19696FDA
 10
369.289184966357027
 20
162.2860657706237077
 30
-0.0000000000000036
  0
VIEWPORT
  5
D06
 67
     1
  8
0
 10
44.1282511530399901
 20
70.1242080776902412
 30
0.0
 40
755.1471947795562301
 41
423.0035756853396265
 68
     1
 69
     1
1001
ACAD
1000
MVIEW
1002
{
1070
    16
1010
0.0
1020
0.0
1030
0.0
1010
0.0
1020
0.0
1030
1.0
1040
0.0
1040
423.0035756853396265
1040
44.1282511530399901
1040
70.1242080776902412
1040
50.0
1040
0.0
1040
0.0
1070
     0
1070
  1500
1070
     1
1070
     1
1070
     0
1070
     0
1070
     0
1070
     0
1040
0.0
1040
0.0
1040
0.0
1040
10.0
1040
10.0
1040
10.0
1040
10.0
1070
     0
1002
{
1002
}
1002
}
  0
ENDSEC
  0
EOF
