  0
SECTION
  2
HEADER
  9
$ACADVER
  1
AC1009
  9
$INSBASE
 10
0.0
 20
0.0
 30
0.0
  9
$EXTMIN
 10
216.685462815515308
 20
-240.1780888261696987
 30
-34.5490189736440314
  9
$EXTMAX
 10
536.6862907691073588
 20
136.6798534185543872
 30
1.0000000000000231
  9
$LIMMIN
 10
0.0
 20
0.0
  9
$LIMMAX
 10
420.0
 20
297.0
  9
$ORTHOMODE
 70
     1
  9
$REGENMODE
 70
     1
  9
$FILLMODE
 70
     1
  9
$QTEXTMODE
 70
     0
  9
$MIRRTEXT
 70
     1
  9
$DRAGMODE
 70
     2
  9
$LTSCALE
 40
10.0
  9
$OSMODE
 70
  2495
  9
$ATTMODE
 70
     1
  9
$TEXTSIZE
 40
3.5
  9
$TRACEWID
 40
1.0
  9
$TEXTSTYLE
  7
STANDARD
  9
$CLAYER
  8
STEMPEL
  9
$CELTYPE
  6
BYLAYER
  9
$CECOLOR
 62
   256
  9
$DIMSCALE
 40
1.0
  9
$DIMASZ
 40
3.5
  9
$DIMEXO
 40
1.0
  9
$DIMDLI
 40
7.0
  9
$DIMRND
 40
0.0
  9
$DIMDLE
 40
0.0
  9
$DIMEXE
 40
1.0
  9
$DIMTP
 40
0.0
  9
$DIMTM
 40
0.0
  9
$DIMTXT
 40
3.5
  9
$DIMCEN
 40
1.5
  9
$DIMTSZ
 40
0.0
  9
$DIMTOL
 70
     0
  9
$DIMLIM
 70
     0
  9
$DIMTIH
 70
     0
  9
$DIMTOH
 70
     0
  9
$DIMSE1
 70
     0
  9
$DIMSE2
 70
     0
  9
$DIMTAD
 70
     1
  9
$DIMZIN
 70
     8
  9
$DIMBLK
  1

  9
$DIMASO
 70
     1
  9
$DIMSHO
 70
     0
  9
$DIMPOST
  1

  9
$DIMAPOST
  1

  9
$DIMALT
 70
     0
  9
$DIMALTD
 70
     2
  9
$DIMALTF
 40
25.3999999999999986
  9
$DIMLFAC
 40
2.0
  9
$DIMTOFL
 70
     1
  9
$DIMTVP
 40
0.0
  9
$DIMTIX
 70
     0
  9
$DIMSOXD
 70
     0
  9
$DIMSAH
 70
     0
  9
$DIMBLK1
  1

  9
$DIMBLK2
  1

  9
$DIMSTYLE
  2
STANDARD
  9
$DIMCLRD
 70
     0
  9
$DIMCLRE
 70
     0
  9
$DIMCLRT
 70
     1
  9
$DIMTFAC
 40
0.5142857142857143
  9
$DIMGAP
 40
1.5
  9
$LUNITS
 70
     2
  9
$LUPREC
 70
     2
  9
$SKETCHINC
 40
1.0
  9
$FILLETRAD
 40
0.0
  9
$AUNITS
 70
     0
  9
$AUPREC
 70
     0
  9
$MENU
  1
ACAD
  9
$ELEVATION
 40
0.0
  9
$PELEVATION
 40
0.0
  9
$THICKNESS
 40
0.0
  9
$LIMCHECK
 70
     0
  9
$BLIPMODE
 70
     0
  9
$CHAMFERA
 40
1.0
  9
$CHAMFERB
 40
1.0
  9
$SKPOLY
 70
     0
  9
$TDCREATE
 40
2455397.867048610933125
  9
$TDUPDATE
 40
2459041.4885069439187646
  9
$TDINDWG
 40
0.2717302431
  9
$TDUSRTIMER
 40
0.2717302431
  9
$USRTIMER
 70
     1
  9
$ANGBASE
 50
0.0
  9
$ANGDIR
 70
     0
  9
$PDMODE
 70
     0
  9
$PDSIZE
 40
0.0
  9
$PLINEWID
 40
0.0
  9
$COORDS
 70
     1
  9
$SPLFRAME
 70
     0
  9
$SPLINETYPE
 70
     6
  9
$SPLINESEGS
 70
     8
  9
$ATTDIA
 70
     1
  9
$ATTREQ
 70
     1
  9
$HANDLING
 70
     1
  9
$HANDSEED
  5
132F
  9
$SURFTAB1
 70
     6
  9
$SURFTAB2
 70
     6
  9
$SURFTYPE
 70
     6
  9
$SURFU
 70
     6
  9
$SURFV
 70
     6
  9
$UCSNAME
  2

  9
$UCSORG
 10
0.0
 20
0.0
 30
0.0
  9
$UCSXDIR
 10
1.0
 20
0.0
 30
0.0
  9
$UCSYDIR
 10
0.0
 20
1.0
 30
0.0
  9
$PUCSNAME
  2

  9
$PUCSORG
 10
0.0
 20
0.0
 30
0.0
  9
$PUCSXDIR
 10
1.0
 20
0.0
 30
0.0
  9
$PUCSYDIR
 10
0.0
 20
1.0
 30
0.0
  9
$USERI1
 70
     0
  9
$USERI2
 70
     0
  9
$USERI3
 70
     0
  9
$USERI4
 70
     0
  9
$USERI5
 70
     0
  9
$USERR1
 40
0.0
  9
$USERR2
 40
0.0
  9
$USERR3
 40
0.0
  9
$USERR4
 40
0.0
  9
$USERR5
 40
0.0
  9
$WORLDVIEW
 70
     1
  9
$SHADEDGE
 70
     3
  9
$SHADEDIF
 70
    70
  9
$TILEMODE
 70
     1
  9
$MAXACTVP
 70
    16
  9
$PLIMCHECK
 70
     0
  9
$PEXTMIN
 10
1.0000000000000000E+20
 20
1.0000000000000000E+20
 30
1.0000000000000000E+20
  9
$PEXTMAX
 10
-1.0000000000000000E+20
 20
-1.0000000000000000E+20
 30
-1.0000000000000000E+20
  9
$PLIMMIN
 10
-104.3717488469599033
 20
-139.8757919223097019
  9
$PLIMMAX
 10
192.6282511530399972
 20
280.1242080776901844
  9
$UNITMODE
 70
     0
  9
$VISRETAIN
 70
     0
  9
$PLINEGEN
 70
     0
  9
$PSLTSCALE
 70
     0
  0
ENDSEC
  0
SECTION
  2
TABLES
  0
TABLE
  2
VPORT
 70
     1
  0
VPORT
  2
*ACTIVE
 70
     0
 10
0.0
 20
0.0
 11
1.0
 21
1.0
 12
0.5000052812677894
 22
28.4289744396973596
 13
0.0
 23
0.0
 14
1.0
 24
1.0
 15
10.0
 25
10.0
 16
-0.0000000000002274
 26
0.0
 36
1130.5934663214679858
 17
376.1858715110436151
 27
-80.1780921435050118
 37
-16.7745094868220015
 40
379.5529930831846741
 41
1.7852028639618129
 42
50.0
 43
0.0
 44
0.0
 50
0.0
 51
0.0
 71
     0
 72
  1500
 73
     1
 74
     0
 75
     0
 76
     0
 77
     0
 78
     0
  0
ENDTAB
  0
TABLE
  2
LTYPE
 70
     6
  0
LTYPE
  2
CONTINUOUS
 70
     0
  3
Solid line
 72
    65
 73
     0
 40
0.0
  0
LTYPE
  2
AUSGEZOGEN
 70
     0
  3
Ausgezogene Linie
 72
    65
 73
     0
 40
0.0
  0
LTYPE
  2
PHANTOM2
 70
     0
  3
Phantom (.5x) ___ _ _ ___ _ _ ___ _ _ ___ _ _
 72
    65
 73
     6
 40
1.25
 49
0.625
 49
-0.125
 49
0.125
 49
-0.125
 49
0.125
 49
-0.125
  0
LTYPE
  2
VERDECKT
 70
     0
  3
Verdeckt __ __ __ __ __ __ __ __ __ __ __ __ __
 72
    65
 73
     2
 40
0.375
 49
0.25
 49
-0.125
  0
ENDTAB
  0
TABLE
  2
LAYER
 70
    13
  0
LAYER
  2
0
 70
     0
 62
     7
  6
CONTINUOUS
  0
LAYER
  2
STEMPEL
 70
     0
 62
     3
  6
CONTINUOUS
  0
LAYER
  2
DEFPOINTS
 70
     0
 62
     7
  6
AUSGEZOGEN
  0
LAYER
  2
ADSK_ASSOC_ENTITY_BACKUPS
 70
     1
 62
    -7
  6
CONTINUOUS
  0
ENDTAB
  0
TABLE
  2
STYLE
 70
     4
  0
STYLE
  2
STANDARD
 70
     0
 40
0.0
 41
0.8
 50
0.0
 71
     0
 42
3.5
  3
simplex.shx
  4

  0
ENDTAB
  0
TABLE
  2
VIEW
 70
     1
  0
ENDTAB
  0
TABLE
  2
UCS
 70
     0
  0
ENDTAB
  0
TABLE
  2
APPID
 70
    21
  0
APPID
  2
ACAD
 70
     0
  0
APPID
  2
ACAD_NAV_VCDISPLAY
 70
     0
  0
APPID
  2
GRADIENTCOLOR1ACI
 70
     0
  0
APPID
  2
GRADIENTCOLOR2ACI
 70
     0
  0
APPID
  2
ACAD_DSTYLE_DIMRADIAL_EXTENSION
 70
     0
  0
APPID
  2
ACADANNOMONITORALERTICONDI
 70
     0
  0
APPID
  2
ACAD_EXEMPT_FROM_CAD_STANDARDS
 70
     0
  0
APPID
  2
ACAD_MLEADERVER
 70
     0
  0
APPID
  2
ACAD_PSEXT
 70
     0
  0
APPID
  2
ACAECLAYERSTANDARD
 70
     0
  0
APPID
  2
ACAUTHENVIRON
 70
     0
  0
APPID
  2
ACAD_STEPID
 70
     0
  0
APPID
  2
ACCMTRANSPARENCY
 70
     0
  0
APPID
  2
ACSYNERGY
 70
     0
  0
APPID
  2
SYNERGY_BODY_TBR_ID
 70
     0
  0
APPID
  2
ACAD_VIEW_EDGE_ID
 70
     0
  0
APPID
  2
ACSYNERGYSKETCH
 70
     0
  0
APPID
  2
ACAD_MODELDOC_XFORM
 70
     0
  0
APPID
  2
ACAD_DSTYLE_DIMJAG
 70
     0
  0
APPID
  2
ACAD_DSTYLE_DIMTALN
 70
     0
  0
APPID
  2
AcDbAttr
 70
     0
  0
ENDTAB
  0
TABLE
  2
DIMSTYLE
 70
     2
  0
DIMSTYLE
  2
STANDARD
 70
     0
  3

  4

  5

  6

  7

 40
1.0
 41
0.18
 42
0.0625
 43
0.38
 44
0.18
 45
0.0
 46
0.0
 47
0.0
 48
0.0
140
0.18
141
0.09
142
0.0
143
25.3999999999999986
144
1.0
145
0.0
146
1.0
147
0.09
 71
     0
 72
     0
 73
     1
 74
     1
 75
     0
 76
     0
 77
     0
 78
     0
170
     0
171
     2
172
     0
173
     0
174
     0
175
     0
176
     0
177
     0
178
     0
  0
ENDTAB
  0
ENDSEC
  0
SECTION
  2
BLOCKS
  0
BLOCK
  8
0
  2
$MODEL_SPACE
 70
     0
 10
0.0
 20
0.0
 30
0.0
  3
$MODEL_SPACE
  1

  0
ENDBLK
  5
38
  8
0
  0
BLOCK
 67
     1
  8
0
  2
$PAPER_SPACE
 70
     0
 10
0.0
 20
0.0
 30
0.0
  3
$PAPER_SPACE
  1

  0
ENDBLK
  5
36
 67
     1
  8
0
  0
BLOCK
  8
0
  2
*S3
 70
     1
 10
0.0
 20
0.0
 30
0.0
  3
*S3
  1

  0
ENDBLK
  5
EFA
  8
0
  0
BLOCK
  8
0
  2
A$C523D7D2B
 70
     0
 10
0.0
 20
0.0
 30
0.0
  3
A$C523D7D2B
  1

  0
CIRCLE
  5
12AA
  8
0
  6
CONTINUOUS
 10
-22.8753914472477788
 20
-80.0312009062975562
 30
-0.0000000000000053
 40
94.0
  0
CIRCLE
  5
12AB
  8
0
  6
CONTINUOUS
 10
-22.8753914472477788
 20
-80.0312009062975562
 30
-0.0000000000000053
 40
95.0
  0
CIRCLE
  5
12AC
  8
0
  6
CONTINUOUS
 10
-22.8753914472477788
 20
-80.0312009062975562
 30
-0.0000000000000053
 40
159.0
  0
CIRCLE
  5
12AD
  8
0
  6
CONTINUOUS
 10
-112.6779526579393007
 20
-169.8337621169891065
 30
-0.0000000000000249
 40
7.0
  0
CIRCLE
  5
12AE
  8
0
  6
CONTINUOUS
 10
66.9271697634437714
 20
-169.8337621169891065
 30
0.0000000000000151
 40
7.0
  0
CIRCLE
  5
12AF
  8
0
  6
CONTINUOUS
 10
66.9271697634437146
 20
9.7713603043940651
 30
0.0000000000000151
 40
7.0000000000000018
  0
CIRCLE
  5
12B0
  8
0
  6
CONTINUOUS
 10
-112.6779526579392012
 20
9.7713603043940651
 30
-0.0000000000000249
 40
7.0
  0
CIRCLE
  5
12B1
  8
0
  6
CONTINUOUS
 10
-22.8753914472477504
 20
46.9687990937024367
 30
-0.0000000000000053
 40
7.0
  0
CIRCLE
  5
12B2
  8
0
  6
CONTINUOUS
 10
104.1246085527522069
 20
-80.0312009062975278
 30
0.0000000000000231
 40
7.0000000000000009
  0
CIRCLE
  5
12B3
  8
0
  6
CONTINUOUS
 10
-22.8753914472477788
 20
-207.0312009062976131
 30
-0.0000000000000053
 40
7.0000000000000009
  0
CIRCLE
  5
12B4
  8
0
  6
CONTINUOUS
 10
-149.8753914472478073
 20
-80.0312009062975562
 30
-0.0000000000000329
 40
7.0000000000000009
  0
CIRCLE
  5
12B5
  8
0
  6
CONTINUOUS
 10
-22.8753914472477788
 20
-80.0312009062975562
 30
-0.0000000000000053
 40
160.0
  0
ENDBLK
  5
12B7
  8
0
  0
BLOCK
  8
0
  2
A$CDBA07C21
 70
     0
 10
0.0
 20
0.0
 30
0.0
  3
A$CDBA07C21
  1

  0
LINE
  5
12BB
  8
0
  6
CONTINUOUS
 10
136.1246085527521927
 20
0.0
 30
0.0
 11
-181.8753914472478073
 21
0.0
 31
0.0
210
0.0
220
1.0
230
-0.0000000000000002
  0
LINE
  5
12BC
  8
0
  6
CONTINUOUS
 10
-181.8753914472478073
 20
6.0000000000000009
 30
-0.0000000000000013
 11
136.1246085527521927
 21
6.0000000000000009
 31
-0.0000000000000013
210
0.0
220
1.0
230
-0.0000000000000002
  0
LINE
  5
12BD
  8
0
  6
CONTINUOUS
 10
-182.8753914472478073
 20
1.0
 30
-0.0000000000000002
 11
137.1246085527521927
 21
1.0
 31
-0.0000000000000002
210
0.0
220
1.0
230
-0.0000000000000002
  0
LINE
  5
12BE
  8
0
  6
CONTINUOUS
 10
137.1246085527521927
 20
5.0
 30
-0.0000000000000011
 11
-182.8753914472478073
 21
5.0
 31
-0.0000000000000011
210
0.0
220
1.0
230
-0.0000000000000002
  0
LINE
  5
12BF
  8
0
  6
CONTINUOUS
 10
-181.8753914472478073
 20
0.0000000000000001
 30
0.0
 11
-182.8753914472478073
 21
1.0
 31
-0.0000000000000002
210
0.0
220
1.0
230
-0.0000000000000002
  0
LINE
  5
12C0
  8
0
  6
CONTINUOUS
 10
136.1246085527521927
 20
0.0000000000000001
 30
0.0
 11
137.1246085527521927
 21
1.0
 31
-0.0000000000000002
210
0.0
220
1.0
230
-0.0000000000000002
  0
LINE
  5
12C1
  8
0
  6
CONTINUOUS
 10
-182.8753914472478073
 20
1.0
 30
-0.0000000000000002
 11
-182.8753914472478073
 21
5.0
 31
-0.0000000000000011
210
0.0
220
1.0
230
-0.0000000000000002
  0
LINE
  5
12C2
  8
0
  6
CONTINUOUS
 10
137.1246085527521927
 20
1.0
 30
-0.0000000000000002
 11
137.1246085527521927
 21
5.0
 31
-0.0000000000000011
210
0.0
220
1.0
230
-0.0000000000000002
  0
LINE
  5
12C3
  8
0
  6
CONTINUOUS
 10
136.1246085527521927
 20
6.0000000000000009
 30
-0.0000000000000013
 11
137.1246085527521927
 21
5.0
 31
-0.0000000000000011
210
0.0
220
1.0
230
-0.0000000000000002
  0
LINE
  5
12C4
  8
0
  6
CONTINUOUS
 10
-181.8753914472478073
 20
6.0000000000000009
 30
-0.0000000000000013
 11
-182.8753914472478073
 21
5.0
 31
-0.0000000000000011
210
0.0
220
1.0
230
-0.0000000000000002
  0
LINE
  5
12C5
  8
0
  6
VERDECKT
 62
     1
 10
71.1246085527522212
 20
1.0
 30
-0.0000000000000002
 11
72.1246085527522212
 21
0.0000000000000001
 31
0.0
210
0.0
220
1.0
230
-0.0000000000000002
  0
LINE
  5
12C6
  8
0
  6
VERDECKT
 62
     1
 10
-116.8753914472477931
 20
1.0
 30
-0.0000000000000002
 11
-117.8753914472477931
 21
0.0000000000000001
 31
0.0
210
0.0
220
1.0
230
-0.0000000000000002
  0
LINE
  5
12C7
  8
0
  6
VERDECKT
 62
     1
 10
-116.8753914472477931
 20
1.0
 30
-0.0000000000000002
 11
-116.8753914472477931
 21
5.0
 31
-0.0000000000000011
210
0.0
220
1.0
230
-0.0000000000000002
  0
LINE
  5
12C8
  8
0
  6
VERDECKT
 62
     1
 10
71.1246085527522212
 20
1.0
 30
-0.0000000000000002
 11
71.1246085527522212
 21
5.0
 31
-0.0000000000000011
210
0.0
220
1.0
230
-0.0000000000000002
  0
LINE
  5
12C9
  8
0
  6
VERDECKT
 62
     1
 10
-116.8753914472477931
 20
5.0
 30
-0.0000000000000011
 11
-117.8753914472477931
 21
6.0000000000000009
 31
-0.0000000000000013
210
0.0
220
1.0
230
-0.0000000000000002
  0
LINE
  5
12CA
  8
0
  6
VERDECKT
 62
     1
 10
71.1246085527522212
 20
5.0
 30
-0.0000000000000011
 11
72.1246085527522212
 21
6.0000000000000009
 31
-0.0000000000000013
210
0.0
220
1.0
230
-0.0000000000000002
  0
LINE
  5
12CB
  8
0
  6
VERDECKT
 62
     1
 10
-119.6779526579393007
 20
-0.0000000000000018
 30
0.0
 11
-119.6779526579393007
 21
6.0000000000000053
 31
-0.0000000000000013
210
0.0
220
1.0
230
-0.0000000000000002
  0
LINE
  5
12CC
  8
0
  6
VERDECKT
 62
     1
 10
-105.6779526579393007
 20
-0.0000000000000018
 30
0.0
 11
-105.6779526579393007
 21
6.0000000000000053
 31
-0.0000000000000013
210
0.0
220
1.0
230
-0.0000000000000002
  0
LINE
  5
12CD
  8
0
  6
VERDECKT
 62
     1
 10
59.9271697634437714
 20
-0.0000000000000018
 30
0.0
 11
59.9271697634437714
 21
6.0000000000000053
 31
-0.0000000000000013
210
0.0
220
1.0
230
-0.0000000000000002
  0
LINE
  5
12CE
  8
0
  6
VERDECKT
 62
     1
 10
73.9271697634437714
 20
-0.0000000000000018
 30
0.0
 11
73.9271697634437714
 21
6.0000000000000053
 31
-0.0000000000000013
210
0.0
220
1.0
230
-0.0000000000000002
  0
LINE
  5
12CF
  8
0
  6
VERDECKT
 62
     1
 10
97.1246085527522354
 20
-0.0000000000000018
 30
0.0
 11
97.1246085527522354
 21
6.0000000000000053
 31
-0.0000000000000013
210
0.0
220
1.0
230
-0.0000000000000002
  0
LINE
  5
12D0
  8
0
  6
VERDECKT
 62
     1
 10
111.1246085527522069
 20
-0.0000000000000018
 30
0.0
 11
111.1246085527522069
 21
6.0000000000000053
 31
-0.0000000000000013
210
0.0
220
1.0
230
-0.0000000000000002
  0
LINE
  5
12D1
  8
0
  6
VERDECKT
 62
     1
 10
-29.8753914472477895
 20
-0.0000000000000018
 30
0.0
 11
-29.8753914472477895
 21
6.0000000000000053
 31
-0.0000000000000013
210
0.0
220
1.0
230
-0.0000000000000002
  0
LINE
  5
12D2
  8
0
  6
VERDECKT
 62
     1
 10
-15.8753914472477806
 20
-0.0000000000000018
 30
0.0
 11
-15.8753914472477806
 21
6.0000000000000053
 31
-0.0000000000000013
210
0.0
220
1.0
230
-0.0000000000000002
  0
LINE
  5
12D3
  8
0
  6
VERDECKT
 62
     1
 10
-156.8753914472478073
 20
-0.0000000000000018
 30
0.0
 11
-156.8753914472478073
 21
6.0000000000000053
 31
-0.0000000000000013
210
0.0
220
1.0
230
-0.0000000000000002
  0
LINE
  5
12D4
  8
0
  6
VERDECKT
 62
     1
 10
-142.8753914472478073
 20
-0.0000000000000018
 30
0.0
 11
-142.8753914472478073
 21
6.0000000000000053
 31
-0.0000000000000013
210
0.0
220
1.0
230
-0.0000000000000002
  0
ENDBLK
  5
12D6
  8
0
  0
ENDSEC
  0
SECTION
  2
ENTITIES
  0
INSERT
  5
EFC
  8
ADSK_ASSOC_ENTITY_BACKUPS
  2
*S3
 10
0.0
 20
0.0
 30
0.0
  0
INSERT
  5
12B8
  8
STEMPEL
  2
A$C523D7D2B
 10
399.5616822163552797
 20
-0.1468879198721993
 30
1.0
  0
INSERT
  5
12D7
  8
STEMPEL
  2
A$CDBA07C21
 10
399.5608542627630868
 20
130.6798534185543872
 30
-34.5490189736440314
  0
VIEWPORT
  5
D06
 67
     1
  8
0
 10
44.1282511530399901
 20
70.1242080776902412
 30
0.0
 40
755.1471947795562301
 41
423.0035756853396265
 68
     1
 69
     1
1001
ACAD
1000
MVIEW
1002
{
1070
    16
1010
0.0
1020
0.0
1030
0.0
1010
0.0
1020
0.0
1030
1.0
1040
0.0
1040
423.0035756853396265
1040
44.1282511530399901
1040
70.1242080776902412
1040
50.0
1040
0.0
1040
0.0
1070
     0
1070
  1500
1070
     1
1070
     1
1070
     0
1070
     0
1070
     0
1070
     0
1040
0.0
1040
0.0
1040
0.0
1040
10.0
1040
10.0
1040
10.0
1040
10.0
1070
     0
1002
{
1002
}
1002
}
  0
ENDSEC
  0
EOF
