  0
SECTION
  2
HEADER
  9
$ACADVER
  1
AC1009
  9
$INSBASE
 10
0.0
 20
0.0
 30
0.0
  9
$EXTMIN
 10
426.0039256944696149
 20
132.5512126089014089
 30
0.0000000000000233
  9
$EXTMAX
 10
756.0039256944696717
 20
518.3113508124280315
 30
0.0000000000000793
  9
$LIMMIN
 10
0.0
 20
0.0
  9
$LIMMAX
 10
419.9999999999998863
 20
594.0000000000002274
  9
$ORTHOMODE
 70
     1
  9
$REGENMODE
 70
     1
  9
$FILLMODE
 70
     1
  9
$QTEXTMODE
 70
     0
  9
$MIRRTEXT
 70
     1
  9
$DRAGMODE
 70
     2
  9
$LTSCALE
 40
10.0
  9
$OSMODE
 70
  2495
  9
$ATTMODE
 70
     1
  9
$TEXTSIZE
 40
3.5
  9
$TRACEWID
 40
0.5
  9
$TEXTSTYLE
  7
STANDARD
  9
$CLAYER
  8
0
  9
$CELTYPE
  6
BYLAYER
  9
$CECOLOR
 62
   256
  9
$DIMSCALE
 40
1.0
  9
$DIMASZ
 40
3.5
  9
$DIMEXO
 40
1.0
  9
$DIMDLI
 40
8.0
  9
$DIMRND
 40
0.0
  9
$DIMDLE
 40
0.0
  9
$DIMEXE
 40
1.0
  9
$DIMTP
 40
0.0
  9
$DIMTM
 40
0.0
  9
$DIMTXT
 40
3.5
  9
$DIMCEN
 40
1.5
  9
$DIMTSZ
 40
0.0
  9
$DIMTOL
 70
     0
  9
$DIMLIM
 70
     0
  9
$DIMTIH
 70
     0
  9
$DIMTOH
 70
     0
  9
$DIMSE1
 70
     0
  9
$DIMSE2
 70
     0
  9
$DIMTAD
 70
     1
  9
$DIMZIN
 70
     8
  9
$DIMBLK
  1

  9
$DIMASO
 70
     1
  9
$DIMSHO
 70
     0
  9
$DIMPOST
  1

  9
$DIMAPOST
  1

  9
$DIMALT
 70
     0
  9
$DIMALTD
 70
     2
  9
$DIMALTF
 40
25.3999999999999986
  9
$DIMLFAC
 40
2.0
  9
$DIMTOFL
 70
     1
  9
$DIMTVP
 40
0.0
  9
$DIMTIX
 70
     0
  9
$DIMSOXD
 70
     0
  9
$DIMSAH
 70
     0
  9
$DIMBLK1
  1

  9
$DIMBLK2
  1

  9
$DIMSTYLE
  2
STANDARD
  9
$DIMCLRD
 70
     0
  9
$DIMCLRE
 70
     0
  9
$DIMCLRT
 70
     1
  9
$DIMTFAC
 40
0.5
  9
$DIMGAP
 40
1.5
  9
$LUNITS
 70
     2
  9
$LUPREC
 70
     2
  9
$SKETCHINC
 40
1.0
  9
$FILLETRAD
 40
3.0
  9
$AUNITS
 70
     0
  9
$AUPREC
 70
     0
  9
$MENU
  1
ACAD
  9
$ELEVATION
 40
0.0
  9
$PELEVATION
 40
0.0
  9
$THICKNESS
 40
0.0
  9
$LIMCHECK
 70
     0
  9
$BLIPMODE
 70
     0
  9
$CHAMFERA
 40
0.0
  9
$CHAMFERB
 40
0.0
  9
$SKPOLY
 70
     0
  9
$TDCREATE
 40
2451795.4861111110076308
  9
$TDUPDATE
 40
2458780.4415740738622844
  9
$TDINDWG
 40
0.248239294
  9
$TDUSRTIMER
 40
0.248239294
  9
$USRTIMER
 70
     1
  9
$ANGBASE
 50
0.0
  9
$ANGDIR
 70
     0
  9
$PDMODE
 70
     0
  9
$PDSIZE
 40
0.0
  9
$PLINEWID
 40
0.0
  9
$COORDS
 70
     1
  9
$SPLFRAME
 70
     0
  9
$SPLINETYPE
 70
     6
  9
$SPLINESEGS
 70
     8
  9
$ATTDIA
 70
     1
  9
$ATTREQ
 70
     1
  9
$HANDLING
 70
     1
  9
$HANDSEED
  5
16B5
  9
$SURFTAB1
 70
     6
  9
$SURFTAB2
 70
     6
  9
$SURFTYPE
 70
     6
  9
$SURFU
 70
     6
  9
$SURFV
 70
     6
  9
$UCSNAME
  2

  9
$UCSORG
 10
0.0
 20
0.0
 30
0.0
  9
$UCSXDIR
 10
1.0
 20
0.0
 30
0.0
  9
$UCSYDIR
 10
0.0
 20
1.0
 30
0.0
  9
$PUCSNAME
  2

  9
$PUCSORG
 10
0.0
 20
0.0
 30
0.0
  9
$PUCSXDIR
 10
1.0
 20
0.0
 30
0.0
  9
$PUCSYDIR
 10
0.0
 20
1.0
 30
0.0
  9
$USERI1
 70
     0
  9
$USERI2
 70
     0
  9
$USERI3
 70
     0
  9
$USERI4
 70
     0
  9
$USERI5
 70
     0
  9
$USERR1
 40
0.0
  9
$USERR2
 40
0.0
  9
$USERR3
 40
0.0
  9
$USERR4
 40
0.0
  9
$USERR5
 40
0.0
  9
$WORLDVIEW
 70
     1
  9
$SHADEDGE
 70
     3
  9
$SHADEDIF
 70
    70
  9
$TILEMODE
 70
     1
  9
$MAXACTVP
 70
    16
  9
$PLIMCHECK
 70
     0
  9
$PEXTMIN
 10
1.0000000000000000E+20
 20
1.0000000000000000E+20
 30
1.0000000000000000E+20
  9
$PEXTMAX
 10
-1.0000000000000000E+20
 20
-1.0000000000000000E+20
 30
-1.0000000000000000E+20
  9
$PLIMMIN
 10
-211.3367398213563888
 20
-475.9915696024407907
  9
$PLIMMAX
 10
-1.3367398213563599
 20
-178.9915696024407907
  9
$UNITMODE
 70
     0
  9
$VISRETAIN
 70
     0
  9
$PLINEGEN
 70
     0
  9
$PSLTSCALE
 70
     0
  0
ENDSEC
  0
SECTION
  2
TABLES
  0
TABLE
  2
VPORT
 70
     1
  0
VPORT
  2
*ACTIVE
 70
     0
 10
0.0
 20
0.0
 11
1.0
 21
1.0
 12
-2.6670855644475182
 22
-27.8800643202355403
 13
0.0
 23
0.0
 14
1.0
 24
1.0
 15
20.0
 25
20.0
 16
-0.0000000000002274
 26
0.0
 36
1180.1940135846380144
 17
593.6710112589171331
 27
353.3113460309003244
 37
-31.5845706674776494
 40
388.518851945148981
 41
1.7852028639618129
 42
50.0
 43
0.0
 44
0.0
 50
0.0
 51
0.0
 71
     0
 72
  1500
 73
     1
 74
     0
 75
     0
 76
     0
 77
     0
 78
     0
  0
ENDTAB
  0
TABLE
  2
LTYPE
 70
     5
  0
LTYPE
  2
AUSGEZOGEN
 70
     0
  3
Ausgezogene Linie
 72
    65
 73
     0
 40
0.0
  0
LTYPE
  2
CONTINUOUS
 70
     0
  3
Solid line
 72
    65
 73
     0
 40
0.0
  0
ENDTAB
  0
TABLE
  2
LAYER
 70
    12
  0
LAYER
  2
0
 70
     0
 62
     7
  6
AUSGEZOGEN
  0
LAYER
  2
VOLL
 70
     0
 62
     1
  6
AUSGEZOGEN
  0
LAYER
  2
DEFPOINTS
 70
     0
 62
     7
  6
AUSGEZOGEN
  0
LAYER
  2
ADSK_ASSOC_ENTITY_BACKUPS
 70
     1
 62
    -7
  6
CONTINUOUS
  0
ENDTAB
  0
TABLE
  2
STYLE
 70
     3
  0
STYLE
  2
STANDARD
 70
     0
 40
0.0
 41
0.8
 50
0.0
 71
     0
 42
3.5
  3
simplex.shx
  4

  0
STYLE
  2
GREEKS
 70
     0
 40
0.0
 41
0.8
 50
0.0
 71
     0
 42
2.5
  3
SIMPLEX.shx
  4

  0
ENDTAB
  0
TABLE
  2
VIEW
 70
     1
  0
ENDTAB
  0
TABLE
  2
UCS
 70
     0
  0
ENDTAB
  0
TABLE
  2
APPID
 70
    19
  0
APPID
  2
ACAD
 70
     0
  0
APPID
  2
RAK
 70
     0
  0
APPID
  2
ACAECLAYERSTANDARD
 70
     0
  0
APPID
  2
ACCMTRANSPARENCY
 70
     0
  0
APPID
  2
ACAD_NAV_VCDISPLAY
 70
     0
  0
APPID
  2
ACAD_PSEXT
 70
     0
  0
APPID
  2
ACAD_EXEMPT_FROM_CAD_STANDARDS
 70
     0
  0
APPID
  2
ACSYNERGY
 70
     0
  0
APPID
  2
SYNERGY_BODY_TBR_ID
 70
     0
  0
APPID
  2
ACAD_VIEW_EDGE_ID
 70
     0
  0
APPID
  2
ACAD_MLEADERVER
 70
     0
  0
APPID
  2
ACAD_DIMASSOC_CALC_DIMLFAC
 70
     0
  0
APPID
  2
ACAD_DIMASSOC_DIMLFAC
 70
     0
  0
APPID
  2
ACAD_DIMASSOC_OVERRIDDEN_D
 70
     0
  0
APPID
  2
ACAD_DSTYLE_DIMRADIAL_EXTENSION
 70
     0
  0
APPID
  2
ACADANNOMONITORALERTICONDI
 70
     0
  0
APPID
  2
ACAD_DSTYLE_DIMJAG
 70
     0
  0
APPID
  2
ACAD_DSTYLE_DIMTALN
 70
     0
  0
APPID
  2
AcDbAttr
 70
     0
  0
ENDTAB
  0
TABLE
  2
DIMSTYLE
 70
     2
  0
DIMSTYLE
  2
STANDARD
 70
     0
  3

  4

  5

  6

  7

 40
1.0
 41
0.18
 42
0.0625
 43
0.38
 44
0.18
 45
0.0
 46
0.0
 47
0.0
 48
0.0
140
0.18
141
0.09
142
0.0
143
25.3999999999999986
144
1.0
145
0.0
146
1.0
147
0.09
 71
     0
 72
     0
 73
     1
 74
     1
 75
     0
 76
     0
 77
     0
 78
     0
170
     0
171
     2
172
     0
173
     0
174
     0
175
     0
176
     0
177
     0
178
     0
  0
ENDTAB
  0
ENDSEC
  0
SECTION
  2
BLOCKS
  0
BLOCK
  8
0
  2
$MODEL_SPACE
 70
     0
 10
0.0
 20
0.0
 30
0.0
  3
$MODEL_SPACE
  1

  0
ENDBLK
  5
463
  8
0
  0
BLOCK
 67
     1
  8
0
  2
$PAPER_SPACE
 70
     0
 10
0.0
 20
0.0
 30
0.0
  3
$PAPER_SPACE
  1

  0
ENDBLK
  5
461
 67
     1
  8
0
  0
BLOCK
  8
0
  2
*S2
 70
     1
 10
0.0
 20
0.0
 30
0.0
  3
*S2
  1

  0
ENDBLK
  5
D0E
  8
0
  0
BLOCK
  8
0
  2
A$CD8AF41D3
 70
     0
 10
0.0
 20
0.0
 30
0.0
  3
A$CD8AF41D3
  1

  0
CIRCLE
  5
163E
  8
0
  6
AUSGEZOGEN
 62
     3
 10
142.816595125885101
 20
202.3864236733753046
 30
0.0000000000000315
 40
8.0
  0
CIRCLE
  5
163F
  8
0
  6
AUSGEZOGEN
 62
     3
 10
232.6191563365767934
 20
165.1889848840667128
 30
0.0000000000000513
 40
8.0
  0
CIRCLE
  5
1640
  8
0
  6
AUSGEZOGEN
 62
     3
 10
322.4217175472682015
 20
202.3864236733749919
 30
0.0000000000000711
 40
8.0
  0
CIRCLE
  5
1641
  8
0
  6
AUSGEZOGEN
 62
     3
 10
359.6191563365767934
 20
292.1889848840664854
 30
0.0000000000000793
 40
8.0
  0
CIRCLE
  5
1642
  8
0
  6
AUSGEZOGEN
 62
     3
 10
322.4217175472683721
 20
381.9915460947580073
 30
0.0000000000000711
 40
8.0
  0
CIRCLE
  5
1643
  8
0
  6
AUSGEZOGEN
 62
     3
 10
232.6191563365767934
 20
292.1889848840668265
 30
0.0000000000000513
 40
95.0
  0
CIRCLE
  5
1644
  8
0
  6
AUSGEZOGEN
 62
     3
 10
232.619156336577106
 20
419.1889848840665991
 30
0.0000000000000513
 40
8.0
  0
CIRCLE
  5
1645
  8
0
  6
AUSGEZOGEN
 62
     3
 10
142.8165951258854989
 20
381.9915460947584052
 30
0.0000000000000315
 40
8.0
  0
CIRCLE
  5
1646
  8
0
  6
AUSGEZOGEN
 62
     3
 10
105.6191563365767934
 20
292.1889848840668265
 30
0.0000000000000233
 40
8.0
  0
CIRCLE
  5
1647
  8
0
  6
AUSGEZOGEN
 62
     3
 10
232.6191563365767934
 20
292.1889848840668265
 30
0.0000000000000513
 40
165.0
  0
ENDBLK
  5
1649
  8
0
  0
BLOCK
  8
0
  2
A$C7FC4E956
 70
     0
 10
0.0
 20
0.0
 30
0.0
  3
A$C7FC4E956
  1

  0
LINE
  5
164D
  8
0
  6
AUSGEZOGEN
 62
     3
 10
397.6191563365769071
 20
2.0
 30
-0.0000000000000004
 11
67.6191563365768502
 21
2.0
 31
-0.0000000000000004
210
0.0
220
1.0
230
-0.0000000000000002
  0
LINE
  5
164E
  8
0
  6
AUSGEZOGEN
 62
     3
 10
397.6191563365769071
 20
0.0
 30
0.0
 11
67.6191563365768502
 21
0.0
 31
0.0
210
0.0
220
1.0
230
-0.0000000000000002
  0
LINE
  5
164F
  8
0
  6
AUSGEZOGEN
 62
     3
 10
67.6191563365768502
 20
0.0
 30
0.0
 11
67.6191563365768502
 21
2.0
 31
-0.0000000000000004
210
0.0
220
1.0
230
-0.0000000000000002
  0
LINE
  5
1650
  8
0
  6
AUSGEZOGEN
 62
     3
 10
397.6191563365769071
 20
0.0
 30
0.0
 11
397.6191563365769071
 21
2.0
 31
-0.0000000000000004
210
0.0
220
1.0
230
-0.0000000000000002
  0
LINE
  5
1651
  8
0
  6
AUSGEZOGEN
 62
     1
 10
134.816595125885101
 20
0.0
 30
0.0
 11
134.816595125885101
 21
2.0
 31
-0.0000000000000004
210
0.0
220
1.0
230
-0.0000000000000002
  0
LINE
  5
1652
  8
0
  6
AUSGEZOGEN
 62
     1
 10
150.816595125885101
 20
0.0
 30
0.0
 11
150.816595125885101
 21
2.0
 31
-0.0000000000000004
210
0.0
220
1.0
230
-0.0000000000000002
  0
LINE
  5
1653
  8
0
  6
AUSGEZOGEN
 62
     1
 10
224.6191563365769071
 20
0.0
 30
0.0
 11
224.6191563365769071
 21
2.0
 31
-0.0000000000000004
210
0.0
220
1.0
230
-0.0000000000000002
  0
LINE
  5
1654
  8
0
  6
AUSGEZOGEN
 62
     1
 10
240.6191563365767934
 20
0.0
 30
0.0
 11
240.6191563365767934
 21
2.0
 31
-0.0000000000000004
210
0.0
220
1.0
230
-0.0000000000000002
  0
LINE
  5
1655
  8
0
  6
AUSGEZOGEN
 62
     1
 10
314.4217175472682015
 20
0.0
 30
0.0
 11
314.4217175472682015
 21
2.0
 31
-0.0000000000000004
210
0.0
220
1.0
230
-0.0000000000000002
  0
LINE
  5
1656
  8
0
  6
AUSGEZOGEN
 62
     1
 10
330.4217175472682015
 20
0.0
 30
0.0
 11
330.4217175472682015
 21
2.0
 31
-0.0000000000000004
210
0.0
220
1.0
230
-0.0000000000000002
  0
LINE
  5
1657
  8
0
  6
AUSGEZOGEN
 62
     1
 10
351.6191563365769071
 20
0.0
 30
0.0
 11
351.6191563365769071
 21
2.0
 31
-0.0000000000000004
210
0.0
220
1.0
230
-0.0000000000000002
  0
LINE
  5
1658
  8
0
  6
AUSGEZOGEN
 62
     1
 10
367.6191563365767934
 20
0.0
 30
0.0
 11
367.6191563365767934
 21
2.0
 31
-0.0000000000000004
210
0.0
220
1.0
230
-0.0000000000000002
  0
LINE
  5
1659
  8
0
  6
AUSGEZOGEN
 62
     1
 10
137.6191563365767934
 20
0.0
 30
0.0
 11
137.6191563365767934
 21
2.0
 31
-0.0000000000000004
210
0.0
220
1.0
230
-0.0000000000000002
  0
LINE
  5
165A
  8
0
  6
AUSGEZOGEN
 62
     1
 10
327.6191563365767934
 20
0.0
 30
0.0
 11
327.6191563365767934
 21
2.0
 31
-0.0000000000000004
210
0.0
220
1.0
230
-0.0000000000000002
  0
LINE
  5
165B
  8
0
  6
AUSGEZOGEN
 62
     1
 10
97.6191563365768644
 20
0.0
 30
0.0
 11
97.6191563365768644
 21
2.0
 31
-0.0000000000000004
210
0.0
220
1.0
230
-0.0000000000000002
  0
LINE
  5
165C
  8
0
  6
AUSGEZOGEN
 62
     1
 10
113.6191563365767934
 20
0.0
 30
0.0
 11
113.6191563365767934
 21
2.0
 31
-0.0000000000000004
210
0.0
220
1.0
230
-0.0000000000000002
  0
ENDBLK
  5
165E
  8
0
  0
ENDSEC
  0
SECTION
  2
ENTITIES
  0
TEXT
  5
16A
  8
VOLL
 10
78.076754716981128
 20
31.025947764705851
 30
0.0
 40
1.8
  1

  7
GREEKS
  0
TEXT
  5
398
  8
VOLL
 10
156.1535094339621992
 20
62.0518955294116878
 30
0.0
 40
3.6000000000000001
  1

  7
GREEKS
  0
TEXT
  5
807
  8
VOLL
 10
566.1562222796394508
 20
13.4216998677469501
 30
0.0
 40
1.8
  1

  7
GREEKS
  0
TEXT
  5
85C
  8
VOLL
 10
644.2329769966206641
 20
44.4476476324527923
 30
0.0
 40
3.6000000000000001
  1

  7
GREEKS
  0
INSERT
  5
D10
  8
ADSK_ASSOC_ENTITY_BACKUPS
  2
*S2
 10
0.0
 20
0.0
 30
0.0
  0
INSERT
  5
164A
  8
0
  2
A$CD8AF41D3
 10
358.3847693578928215
 20
61.122365928361198
 30
0.0
  0
INSERT
  5
165F
  8
0
  2
A$C7FC4E956
 10
358.3847693578928215
 20
132.5512126089014089
 30
0.0000000000000497
  0
VIEWPORT
  5
CD8
 67
     1
  8
0
 10
-106.3367398213563035
 20
-327.4915696024407907
 30
0.0
 40
533.9969448798290159
 41
299.1239570917758783
 68
     1
 69
     1
1001
ACAD
1000
MVIEW
1002
{
1070
    16
1010
0.0
1020
0.0
1030
0.0
1010
0.0
1020
0.0
1030
1.0
1040
0.0
1040
299.1239570917758783
1040
-106.3367398213563035
1040
-327.4915696024407907
1040
50.0
1040
0.0
1040
0.0
1070
     0
1070
  1500
1070
     1
1070
     1
1070
     0
1070
     0
1070
     0
1070
     0
1040
0.0
1040
0.0
1040
0.0
1040
10.0
1040
10.0
1040
10.0
1040
10.0
1070
     0
1002
{
1002
}
1002
}
  0
TEXT
  5
D9A
 67
     1
  8
VOLL
 10
540.3869231859865749
 20
-413.9396740730290958
 30
0.0
 40
3.6000000000000001
  1

  7
GREEKS
  0
ENDSEC
  0
EOF
