  0
SECTION
  2
HEADER
  9
$ACADVER
  1
AC1009
  9
$INSBASE
 10
0.0
 20
0.0
 30
0.0
  9
$EXTMIN
 10
439.6770566147380919
 20
245.835298300063414
 30
-0.0011358543639517
  9
$EXTMAX
 10
739.7518768024084466
 20
588.89712662121417
 30
0.0024084344807136
  9
$LIMMIN
 10
0.0
 20
0.0
  9
$LIMMAX
 10
419.9999999999998863
 20
594.0000000000002274
  9
$ORTHOMODE
 70
     1
  9
$REGENMODE
 70
     1
  9
$FILLMODE
 70
     1
  9
$QTEXTMODE
 70
     0
  9
$MIRRTEXT
 70
     1
  9
$DRAGMODE
 70
     2
  9
$LTSCALE
 40
10.0
  9
$OSMODE
 70
  2495
  9
$ATTMODE
 70
     1
  9
$TEXTSIZE
 40
3.5
  9
$TRACEWID
 40
0.5
  9
$TEXTSTYLE
  7
STANDARD
  9
$CLAYER
  8
0
  9
$CELTYPE
  6
BYLAYER
  9
$CECOLOR
 62
   256
  9
$DIMSCALE
 40
1.0
  9
$DIMASZ
 40
3.5
  9
$DIMEXO
 40
1.0
  9
$DIMDLI
 40
8.0
  9
$DIMRND
 40
0.0
  9
$DIMDLE
 40
0.0
  9
$DIMEXE
 40
1.0
  9
$DIMTP
 40
0.0
  9
$DIMTM
 40
0.0
  9
$DIMTXT
 40
3.5
  9
$DIMCEN
 40
1.5
  9
$DIMTSZ
 40
0.0
  9
$DIMTOL
 70
     0
  9
$DIMLIM
 70
     0
  9
$DIMTIH
 70
     0
  9
$DIMTOH
 70
     0
  9
$DIMSE1
 70
     0
  9
$DIMSE2
 70
     0
  9
$DIMTAD
 70
     1
  9
$DIMZIN
 70
     8
  9
$DIMBLK
  1

  9
$DIMASO
 70
     1
  9
$DIMSHO
 70
     0
  9
$DIMPOST
  1

  9
$DIMAPOST
  1

  9
$DIMALT
 70
     0
  9
$DIMALTD
 70
     2
  9
$DIMALTF
 40
25.3999999999999986
  9
$DIMLFAC
 40
2.0
  9
$DIMTOFL
 70
     1
  9
$DIMTVP
 40
0.0
  9
$DIMTIX
 70
     0
  9
$DIMSOXD
 70
     0
  9
$DIMSAH
 70
     0
  9
$DIMBLK1
  1

  9
$DIMBLK2
  1

  9
$DIMSTYLE
  2
STANDARD
  9
$DIMCLRD
 70
     0
  9
$DIMCLRE
 70
     0
  9
$DIMCLRT
 70
     1
  9
$DIMTFAC
 40
0.5
  9
$DIMGAP
 40
1.5
  9
$LUNITS
 70
     2
  9
$LUPREC
 70
     2
  9
$SKETCHINC
 40
1.0
  9
$FILLETRAD
 40
3.0
  9
$AUNITS
 70
     0
  9
$AUPREC
 70
     0
  9
$MENU
  1
ACAD
  9
$ELEVATION
 40
0.0
  9
$PELEVATION
 40
0.0
  9
$THICKNESS
 40
0.0
  9
$LIMCHECK
 70
     0
  9
$BLIPMODE
 70
     0
  9
$CHAMFERA
 40
0.0
  9
$CHAMFERB
 40
0.0
  9
$SKPOLY
 70
     0
  9
$TDCREATE
 40
2451795.4861111110076308
  9
$TDUPDATE
 40
2458780.4386805561371148
  9
$TDINDWG
 40
0.2558781829
  9
$TDUSRTIMER
 40
0.2558781829
  9
$USRTIMER
 70
     1
  9
$ANGBASE
 50
0.0
  9
$ANGDIR
 70
     0
  9
$PDMODE
 70
     0
  9
$PDSIZE
 40
0.0
  9
$PLINEWID
 40
0.0
  9
$COORDS
 70
     1
  9
$SPLFRAME
 70
     0
  9
$SPLINETYPE
 70
     6
  9
$SPLINESEGS
 70
     8
  9
$ATTDIA
 70
     1
  9
$ATTREQ
 70
     1
  9
$HANDLING
 70
     1
  9
$HANDSEED
  5
1499
  9
$SURFTAB1
 70
     6
  9
$SURFTAB2
 70
     6
  9
$SURFTYPE
 70
     6
  9
$SURFU
 70
     6
  9
$SURFV
 70
     6
  9
$UCSNAME
  2

  9
$UCSORG
 10
0.0
 20
0.0
 30
0.0
  9
$UCSXDIR
 10
1.0
 20
0.0
 30
0.0
  9
$UCSYDIR
 10
0.0
 20
1.0
 30
0.0
  9
$PUCSNAME
  2

  9
$PUCSORG
 10
0.0
 20
0.0
 30
0.0
  9
$PUCSXDIR
 10
1.0
 20
0.0
 30
0.0
  9
$PUCSYDIR
 10
0.0
 20
1.0
 30
0.0
  9
$USERI1
 70
     0
  9
$USERI2
 70
     0
  9
$USERI3
 70
     0
  9
$USERI4
 70
     0
  9
$USERI5
 70
     0
  9
$USERR1
 40
0.0
  9
$USERR2
 40
0.0
  9
$USERR3
 40
0.0
  9
$USERR4
 40
0.0
  9
$USERR5
 40
0.0
  9
$WORLDVIEW
 70
     1
  9
$SHADEDGE
 70
     3
  9
$SHADEDIF
 70
    70
  9
$TILEMODE
 70
     1
  9
$MAXACTVP
 70
    16
  9
$PLIMCHECK
 70
     0
  9
$PEXTMIN
 10
1.0000000000000000E+20
 20
1.0000000000000000E+20
 30
1.0000000000000000E+20
  9
$PEXTMAX
 10
-1.0000000000000000E+20
 20
-1.0000000000000000E+20
 30
-1.0000000000000000E+20
  9
$PLIMMIN
 10
-211.3367392942652998
 20
-476.4367768383896191
  9
$PLIMMAX
 10
-1.3367392942652989
 20
-179.4367768383895054
  9
$UNITMODE
 70
     0
  9
$VISRETAIN
 70
     0
  9
$PLINEGEN
 70
     0
  9
$PSLTSCALE
 70
     0
  0
ENDSEC
  0
SECTION
  2
TABLES
  0
TABLE
  2
VPORT
 70
     1
  0
VPORT
  2
*ACTIVE
 70
     0
 10
0.0
 20
0.0
 11
1.0
 21
1.0
 12
0.4307665230871863
 22
-21.4864326702227117
 13
0.0
 23
0.0
 14
1.0
 24
1.0
 15
20.0
 25
20.0
 16
-0.0000000000002274
 26
0.0
 36
1062.3240427099269709
 17
589.2837001854861683
 27
438.8526451308615037
 37
-22.228205779658051
 40
345.5151906214213113
 41
1.7852028639618129
 42
50.0
 43
0.0
 44
0.0
 50
0.0
 51
0.0
 71
     0
 72
  1500
 73
     1
 74
     0
 75
     0
 76
     0
 77
     0
 78
     0
  0
ENDTAB
  0
TABLE
  2
LTYPE
 70
     6
  0
LTYPE
  2
AUSGEZOGEN
 70
     0
  3
Ausgezogene Linie
 72
    65
 73
     0
 40
0.0
  0
LTYPE
  2
CONTINUOUS
 70
     0
  3
Solid line
 72
    65
 73
     0
 40
0.0
  0
LTYPE
  2
VERDECKT
 70
     0
  3
Verdeckt __ __ __ __ __ __ __ __ __ __ __ __ __
 72
    65
 73
     2
 40
0.375
 49
0.25
 49
-0.125
  0
ENDTAB
  0
TABLE
  2
LAYER
 70
    12
  0
LAYER
  2
0
 70
     0
 62
     7
  6
AUSGEZOGEN
  0
LAYER
  2
VOLL
 70
     0
 62
     1
  6
AUSGEZOGEN
  0
LAYER
  2
DEFPOINTS
 70
     0
 62
     7
  6
AUSGEZOGEN
  0
LAYER
  2
ADSK_ASSOC_ENTITY_BACKUPS
 70
     1
 62
    -7
  6
CONTINUOUS
  0
ENDTAB
  0
TABLE
  2
STYLE
 70
     4
  0
STYLE
  2
STANDARD
 70
     0
 40
0.0
 41
0.8
 50
0.0
 71
     0
 42
3.5
  3
simplex.shx
  4

  0
STYLE
  2
GREEKS
 70
     0
 40
0.0
 41
0.8
 50
0.0
 71
     0
 42
2.5
  3
SIMPLEX.shx
  4

  0
ENDTAB
  0
TABLE
  2
VIEW
 70
     1
  0
ENDTAB
  0
TABLE
  2
UCS
 70
     0
  0
ENDTAB
  0
TABLE
  2
APPID
 70
    19
  0
APPID
  2
ACAD
 70
     0
  0
APPID
  2
RAK
 70
     0
  0
APPID
  2
ACAECLAYERSTANDARD
 70
     0
  0
APPID
  2
ACCMTRANSPARENCY
 70
     0
  0
APPID
  2
ACAD_NAV_VCDISPLAY
 70
     0
  0
APPID
  2
ACAD_PSEXT
 70
     0
  0
APPID
  2
ACAD_EXEMPT_FROM_CAD_STANDARDS
 70
     0
  0
APPID
  2
ACSYNERGY
 70
     0
  0
APPID
  2
SYNERGY_BODY_TBR_ID
 70
     0
  0
APPID
  2
ACAD_VIEW_EDGE_ID
 70
     0
  0
APPID
  2
ACAD_MLEADERVER
 70
     0
  0
APPID
  2
ACAD_DIMASSOC_CALC_DIMLFAC
 70
     0
  0
APPID
  2
ACAD_DIMASSOC_DIMLFAC
 70
     0
  0
APPID
  2
ACAD_DIMASSOC_OVERRIDDEN_D
 70
     0
  0
APPID
  2
ACAD_DSTYLE_DIMRADIAL_EXTENSION
 70
     0
  0
APPID
  2
ACADANNOMONITORALERTICONDI
 70
     0
  0
APPID
  2
ACAD_DSTYLE_DIMJAG
 70
     0
  0
APPID
  2
ACAD_DSTYLE_DIMTALN
 70
     0
  0
APPID
  2
AcDbAttr
 70
     0
  0
ENDTAB
  0
TABLE
  2
DIMSTYLE
 70
     2
  0
DIMSTYLE
  2
STANDARD
 70
     0
  3

  4

  5

  6

  7

 40
1.0
 41
0.18
 42
0.0625
 43
0.38
 44
0.18
 45
0.0
 46
0.0
 47
0.0
 48
0.0
140
0.18
141
0.09
142
0.0
143
25.3999999999999986
144
1.0
145
0.0
146
1.0
147
0.09
 71
     0
 72
     0
 73
     1
 74
     1
 75
     0
 76
     0
 77
     0
 78
     0
170
     0
171
     2
172
     0
173
     0
174
     0
175
     0
176
     0
177
     0
178
     0
  0
ENDTAB
  0
ENDSEC
  0
SECTION
  2
BLOCKS
  0
BLOCK
  8
0
  2
$MODEL_SPACE
 70
     0
 10
0.0
 20
0.0
 30
0.0
  3
$MODEL_SPACE
  1

  0
ENDBLK
  5
463
  8
0
  0
BLOCK
 67
     1
  8
0
  2
$PAPER_SPACE
 70
     0
 10
0.0
 20
0.0
 30
0.0
  3
$PAPER_SPACE
  1

  0
ENDBLK
  5
461
 67
     1
  8
0
  0
BLOCK
  8
0
  2
*S2
 70
     1
 10
0.0
 20
0.0
 30
0.0
  3
*S2
  1

  0
ENDBLK
  5
D0E
  8
0
  0
BLOCK
  8
0
  2
A$C8E277235
 70
     0
 10
0.0
 20
0.0
 30
0.0
  3
A$C8E277235
  1

  0
CIRCLE
  5
1423
  8
0
  6
AUSGEZOGEN
 62
     3
 10
232.6191563365767934
 20
404.1889848840668265
 30
0.0000000000000502
 40
8.0
  0
CIRCLE
  5
1424
  8
0
  6
AUSGEZOGEN
 62
     3
 10
344.6191563365766797
 20
292.1889848840668265
 30
0.0000000000000742
 40
8.0
  0
CIRCLE
  5
1425
  8
0
  6
AUSGEZOGEN
 62
     3
 10
232.6191563365767081
 20
180.188984884066798
 30
0.0000000000000502
 40
8.0
  0
CIRCLE
  5
1426
  8
0
  6
AUSGEZOGEN
 62
     3
 10
120.6191563365766939
 20
292.1889848840668265
 30
0.000000000000026
 40
8.0
  0
CIRCLE
  5
1427
  8
0
  6
AUSGEZOGEN
 62
     3
 10
153.4231968436833995
 20
212.9930253911734894
 30
0.0000000000000331
 40
8.0
  0
CIRCLE
  5
1428
  8
0
  6
AUSGEZOGEN
 62
     3
 10
311.8151158294700167
 20
212.9930253911734042
 30
0.0000000000000673
 40
8.0
  0
CIRCLE
  5
1429
  8
0
  6
AUSGEZOGEN
 62
     3
 10
311.8151158294700167
 20
371.3849443769601066
 30
0.0000000000000673
 40
8.0
  0
CIRCLE
  5
142A
  8
0
  6
AUSGEZOGEN
 62
     3
 10
153.4231968436835132
 20
371.3849443769602203
 30
0.0000000000000331
 40
8.0
  0
CIRCLE
  5
142B
  8
0
  6
AUSGEZOGEN
 62
     3
 10
232.6191563365767081
 20
292.1889848840668265
 30
0.0000000000000502
 40
80.0
  0
CIRCLE
  5
142C
  8
0
  6
AUSGEZOGEN
 62
     3
 10
232.6191563365767081
 20
292.1889848840668265
 30
0.0000000000000502
 40
150.0
  0
ENDBLK
  5
142E
  8
0
  0
BLOCK
  8
0
  2
A$CE8102FE7
 70
     0
 10
0.0
 20
0.0
 30
0.0
  3
A$CE8102FE7
  1

  0
LINE
  5
1432
  8
0
  6
AUSGEZOGEN
 62
     3
 10
382.6191563365767934
 20
2.0
 30
-0.0000000000000004
 11
82.6191563365767934
 21
2.0
 31
-0.0000000000000004
210
0.0
220
1.0
230
-0.0000000000000002
  0
LINE
  5
1433
  8
0
  6
AUSGEZOGEN
 62
     3
 10
382.6191563365767934
 20
0.0
 30
0.0
 11
82.6191563365767934
 21
0.0
 31
0.0
210
0.0
220
1.0
230
-0.0000000000000002
  0
LINE
  5
1434
  8
0
  6
AUSGEZOGEN
 62
     3
 10
82.6191563365767649
 20
0.0
 30
0.0
 11
82.6191563365767649
 21
2.0
 31
-0.0000000000000004
210
0.0
220
1.0
230
-0.0000000000000002
  0
LINE
  5
1435
  8
0
  6
AUSGEZOGEN
 62
     3
 10
382.6191563365767934
 20
0.0
 30
0.0
 11
382.6191563365767934
 21
2.0
 31
-0.0000000000000004
210
0.0
220
1.0
230
-0.0000000000000002
  0
LINE
  5
1436
  8
0
  6
VERDECKT
 62
     1
 10
336.6191563365766797
 20
0.0
 30
0.0
 11
336.6191563365766797
 21
2.0
 31
-0.0000000000000004
210
0.0
220
1.0
230
-0.0000000000000002
  0
LINE
  5
1437
  8
0
  6
VERDECKT
 62
     1
 10
352.6191563365766797
 20
0.0
 30
0.0
 11
352.6191563365766797
 21
2.0
 31
-0.0000000000000004
210
0.0
220
1.0
230
-0.0000000000000002
  0
LINE
  5
1438
  8
0
  6
VERDECKT
 62
     1
 10
224.6191563365767081
 20
0.0
 30
0.0
 11
224.6191563365767081
 21
2.0
 31
-0.0000000000000004
210
0.0
220
1.0
230
-0.0000000000000002
  0
LINE
  5
1439
  8
0
  6
VERDECKT
 62
     1
 10
240.6191563365767081
 20
0.0
 30
0.0
 11
240.6191563365767081
 21
2.0
 31
-0.0000000000000004
210
0.0
220
1.0
230
-0.0000000000000002
  0
LINE
  5
143A
  8
0
  6
VERDECKT
 62
     1
 10
112.6191563365766939
 20
0.0
 30
0.0
 11
112.6191563365766939
 21
2.0
 31
-0.0000000000000004
210
0.0
220
1.0
230
-0.0000000000000002
  0
LINE
  5
143B
  8
0
  6
VERDECKT
 62
     1
 10
128.6191563365767081
 20
0.0
 30
0.0
 11
128.6191563365767081
 21
2.0
 31
-0.0000000000000004
210
0.0
220
1.0
230
-0.0000000000000002
  0
LINE
  5
143C
  8
0
  6
VERDECKT
 62
     1
 10
145.4231968436833995
 20
0.0
 30
0.0
 11
145.4231968436833995
 21
2.0
 31
-0.0000000000000004
210
0.0
220
1.0
230
-0.0000000000000002
  0
LINE
  5
143D
  8
0
  6
VERDECKT
 62
     1
 10
161.4231968436833995
 20
0.0
 30
0.0
 11
161.4231968436833995
 21
2.0
 31
-0.0000000000000004
210
0.0
220
1.0
230
-0.0000000000000002
  0
LINE
  5
143E
  8
0
  6
VERDECKT
 62
     1
 10
303.8151158294700167
 20
0.0
 30
0.0
 11
303.8151158294700167
 21
2.0
 31
-0.0000000000000004
210
0.0
220
1.0
230
-0.0000000000000002
  0
LINE
  5
143F
  8
0
  6
VERDECKT
 62
     1
 10
319.8151158294700167
 20
0.0
 30
0.0
 11
319.8151158294700167
 21
2.0
 31
-0.0000000000000004
210
0.0
220
1.0
230
-0.0000000000000002
  0
LINE
  5
1440
  8
0
  6
VERDECKT
 62
     1
 10
152.6191563365767081
 20
0.0
 30
0.0
 11
152.6191563365767081
 21
2.0
 31
-0.0000000000000004
210
0.0
220
1.0
230
-0.0000000000000002
  0
LINE
  5
1441
  8
0
  6
VERDECKT
 62
     1
 10
312.6191563365767934
 20
0.0
 30
0.0
 11
312.6191563365767934
 21
2.0
 31
-0.0000000000000004
210
0.0
220
1.0
230
-0.0000000000000002
  0
ENDBLK
  5
1443
  8
0
  0
ENDSEC
  0
SECTION
  2
ENTITIES
  0
TEXT
  5
16A
  8
VOLL
 10
78.076754716981128
 20
31.025947764705851
 30
0.0
 40
1.8
  1

  7
GREEKS
  0
TEXT
  5
398
  8
VOLL
 10
156.1535094339621992
 20
62.0518955294116878
 30
0.0
 40
3.6000000000000001
  1

  7
GREEKS
  0
TEXT
  5
807
  8
VOLL
 10
566.1562222796394508
 20
13.4216998677469501
 30
0.0
 40
1.8
  1

  7
GREEKS
  0
TEXT
  5
85C
  8
VOLL
 10
644.2329769966206641
 20
44.4476476324527923
 30
0.0
 40
3.6000000000000001
  1

  7
GREEKS
  0
INSERT
  5
D10
  8
ADSK_ASSOC_ENTITY_BACKUPS
  2
*S2
 10
0.0
 20
0.0
 30
0.0
  0
INSERT
  5
142F
  8
0
  2
A$C8E277235
 10
357.1101439967749229
 20
146.66365739892791
 30
0.0
  0
INSERT
  5
1444
  8
0
  2
A$CE8102FE7
 10
357.1101439967749798
 20
245.8703405790998886
 30
0.0000000000000568
  0
VIEWPORT
  5
CD8
 67
     1
  8
0
 10
-106.3367392942652998
 20
-327.9367768383896191
 30
0.0
 40
533.9969448798290159
 41
299.1239570917758783
 68
     1
 69
     1
1001
ACAD
1000
MVIEW
1002
{
1070
    16
1010
0.0
1020
0.0
1030
0.0
1010
0.0
1020
0.0
1030
1.0
1040
0.0
1040
299.1239570917758783
1040
-106.3367392942652998
1040
-327.9367768383896191
1040
50.0
1040
0.0
1040
0.0
1070
     0
1070
  1500
1070
     1
1070
     1
1070
     0
1070
     0
1070
     0
1070
     0
1040
0.0
1040
0.0
1040
0.0
1040
10.0
1040
10.0
1040
10.0
1040
10.0
1070
     0
1002
{
1002
}
1002
}
  0
TEXT
  5
D9A
 67
     1
  8
VOLL
 10
540.3869231859865749
 20
-413.9396740730290958
 30
0.0
 40
3.6000000000000001
  1

  7
GREEKS
  0
ENDSEC
  0
EOF
