  0
SECTION
  2
HEADER
  9
$ACADVER
  1
AC1009
  9
$INSBASE
 10
0.0
 20
0.0
 30
0.0
  9
$EXTMIN
 10
-122.5550647683612056
 20
-345.0026446076840898
 30
-0.0029294639860211
  9
$EXTMAX
 10
122.5018486994108002
 20
96.0233172097050556
 30
0.0043946430137964
  9
$LIMMIN
 10
0.0
 20
0.0
  9
$LIMMAX
 10
1681.9999999999990905
 20
1188.0
  9
$ORTHOMODE
 70
     1
  9
$REGENMODE
 70
     1
  9
$FILLMODE
 70
     1
  9
$QTEXTMODE
 70
     0
  9
$MIRRTEXT
 70
     1
  9
$DRAGMODE
 70
     2
  9
$LTSCALE
 40
20.0
  9
$OSMODE
 70
   511
  9
$ATTMODE
 70
     1
  9
$TEXTSIZE
 40
3.5
  9
$TRACEWID
 40
1.0
  9
$TEXTSTYLE
  7
STANDARD
  9
$CLAYER
  8
STEMPEL
  9
$CELTYPE
  6
BYLAYER
  9
$CECOLOR
 62
   256
  9
$DIMSCALE
 40
1.0
  9
$DIMASZ
 40
3.5
  9
$DIMEXO
 40
1.0
  9
$DIMDLI
 40
0.38
  9
$DIMRND
 40
0.0
  9
$DIMDLE
 40
0.0
  9
$DIMEXE
 40
1.0
  9
$DIMTP
 40
0.0
  9
$DIMTM
 40
0.000000001
  9
$DIMTXT
 40
3.5
  9
$DIMCEN
 40
0.09
  9
$DIMTSZ
 40
0.0
  9
$DIMTOL
 70
     0
  9
$DIMLIM
 70
     0
  9
$DIMTIH
 70
     0
  9
$DIMTOH
 70
     0
  9
$DIMSE1
 70
     0
  9
$DIMSE2
 70
     0
  9
$DIMTAD
 70
     1
  9
$DIMZIN
 70
     8
  9
$DIMBLK
  1

  9
$DIMASO
 70
     1
  9
$DIMSHO
 70
     0
  9
$DIMPOST
  1

  9
$DIMAPOST
  1

  9
$DIMALT
 70
     0
  9
$DIMALTD
 70
     2
  9
$DIMALTF
 40
25.3999999999999986
  9
$DIMLFAC
 40
2.0
  9
$DIMTOFL
 70
     1
  9
$DIMTVP
 40
0.0
  9
$DIMTIX
 70
     0
  9
$DIMSOXD
 70
     0
  9
$DIMSAH
 70
     0
  9
$DIMBLK1
  1

  9
$DIMBLK2
  1

  9
$DIMSTYLE
  2
LORO
  9
$DIMCLRD
 70
     0
  9
$DIMCLRE
 70
     0
  9
$DIMCLRT
 70
     1
  9
$DIMTFAC
 40
0.5
  9
$DIMGAP
 40
1.5
  9
$LUNITS
 70
     2
  9
$LUPREC
 70
     2
  9
$SKETCHINC
 40
1.0
  9
$FILLETRAD
 40
16.0
  9
$AUNITS
 70
     0
  9
$AUPREC
 70
     0
  9
$MENU
  1
ACAD
  9
$ELEVATION
 40
0.0
  9
$PELEVATION
 40
0.0
  9
$THICKNESS
 40
0.0
  9
$LIMCHECK
 70
     0
  9
$BLIPMODE
 70
     0
  9
$CHAMFERA
 40
2.0
  9
$CHAMFERB
 40
2.0
  9
$SKPOLY
 70
     0
  9
$TDCREATE
 40
2455397.867048610933125
  9
$TDUPDATE
 40
2459710.6334837968461215
  9
$TDINDWG
 40
3.8457987963
  9
$TDUSRTIMER
 40
3.8457987963
  9
$USRTIMER
 70
     1
  9
$ANGBASE
 50
0.0
  9
$ANGDIR
 70
     0
  9
$PDMODE
 70
     0
  9
$PDSIZE
 40
0.0
  9
$PLINEWID
 40
0.0
  9
$COORDS
 70
     1
  9
$SPLFRAME
 70
     0
  9
$SPLINETYPE
 70
     6
  9
$SPLINESEGS
 70
     8
  9
$ATTDIA
 70
     1
  9
$ATTREQ
 70
     1
  9
$HANDLING
 70
     1
  9
$HANDSEED
  5
1BB4E
  9
$SURFTAB1
 70
     6
  9
$SURFTAB2
 70
     6
  9
$SURFTYPE
 70
     6
  9
$SURFU
 70
     6
  9
$SURFV
 70
     6
  9
$UCSNAME
  2

  9
$UCSORG
 10
0.0
 20
0.0
 30
0.0
  9
$UCSXDIR
 10
1.0
 20
0.0
 30
0.0
  9
$UCSYDIR
 10
0.0
 20
1.0
 30
0.0
  9
$PUCSNAME
  2

  9
$PUCSORG
 10
0.0
 20
0.0
 30
0.0
  9
$PUCSXDIR
 10
1.0
 20
0.0
 30
0.0
  9
$PUCSYDIR
 10
0.0
 20
1.0
 30
0.0
  9
$USERI1
 70
     0
  9
$USERI2
 70
     0
  9
$USERI3
 70
     0
  9
$USERI4
 70
     0
  9
$USERI5
 70
     0
  9
$USERR1
 40
0.0
  9
$USERR2
 40
0.0
  9
$USERR3
 40
0.0
  9
$USERR4
 40
0.0
  9
$USERR5
 40
0.0
  9
$WORLDVIEW
 70
     1
  9
$SHADEDGE
 70
     3
  9
$SHADEDIF
 70
    70
  9
$TILEMODE
 70
     1
  9
$MAXACTVP
 70
    16
  9
$PLIMCHECK
 70
     0
  9
$PEXTMIN
 10
1.0000000000000000E+20
 20
1.0000000000000000E+20
 30
1.0000000000000000E+20
  9
$PEXTMAX
 10
-1.0000000000000000E+20
 20
-1.0000000000000000E+20
 30
-1.0000000000000000E+20
  9
$PLIMMIN
 10
-3.0331764529324801
 20
-4.2935761623992903
  9
$PLIMMAX
 10
293.9668235470675199
 20
415.7064238376007097
  9
$UNITMODE
 70
     0
  9
$VISRETAIN
 70
     0
  9
$PLINEGEN
 70
     0
  9
$PSLTSCALE
 70
     0
  0
ENDSEC
  0
SECTION
  2
TABLES
  0
TABLE
  2
VPORT
 70
     1
  0
VPORT
  2
*ACTIVE
 70
     0
 10
0.0
 20
0.0
 11
1.0
 21
1.0
 12
-0.0266080344752027
 22
-124.4896636989895029
 13
0.0
 23
0.0
 14
1.0
 24
1.0
 15
10.0
 25
10.0
 16
-0.0000000000001981
 26
0.0
 36
892.3769019873643629
 17
0.0
 27
0.0
 37
-0.0000000000000036
 40
443.2818490901123027
 41
1.8720136518771331
 42
50.0
 43
0.0
 44
0.0
 50
0.0
 51
0.0
 71
     0
 72
  1500
 73
     1
 74
     0
 75
     0
 76
     0
 77
     0
 78
     0
  0
ENDTAB
  0
TABLE
  2
LTYPE
 70
     3
  0
LTYPE
  2
CONTINUOUS
 70
     0
  3
Solid line
 72
    65
 73
     0
 40
0.0
  0
LTYPE
  2
STRICHPUNKT
 70
     0
  3
__ . __ . __ . __ . __ . __ . __ . __ . __ . __
 72
    65
 73
     4
 40
1.0
 49
0.5
 49
-0.25
 49
0.0
 49
-0.25
  0
LTYPE
  2
VERDECKT
 70
     0
  3
Verdeckt __ __ __ __ __ __ __ __ __ __ __ __ __
 72
    65
 73
     2
 40
0.375
 49
0.25
 49
-0.125
  0
ENDTAB
  0
TABLE
  2
LAYER
 70
     6
  0
LAYER
  2
0
 70
     0
 62
     7
  6
CONTINUOUS
  0
LAYER
  2
VOLL
 70
     0
 62
     1
  6
CONTINUOUS
  0
LAYER
  2
STEMPEL
 70
     0
 62
     3
  6
CONTINUOUS
  0
LAYER
  2
DEFPOINTS
 70
     0
 62
     7
  6
CONTINUOUS
  0
LAYER
  2
ADSK_ASSOC_ENTITY_BACKUPS
 70
     1
 62
    -7
  6
CONTINUOUS
  0
ENDTAB
  0
TABLE
  2
STYLE
 70
     3
  0
STYLE
  2
STANDARD
 70
     0
 40
0.0
 41
0.8
 50
0.0
 71
     0
 42
3.5
  3
simplex.shx
  4

  0
STYLE
  2
GREEKS
 70
     0
 40
0.0
 41
0.8
 50
0.0
 71
     0
 42
2.5
  3
SIMPLEX.shx
  4

  0
ENDTAB
  0
TABLE
  2
VIEW
 70
     0
  0
ENDTAB
  0
TABLE
  2
UCS
 70
     0
  0
ENDTAB
  0
TABLE
  2
APPID
 70
    30
  0
APPID
  2
ACAD
 70
     0
  0
APPID
  2
ACAD_EXEMPT_FROM_CAD_STANDARDS
 70
     0
  0
APPID
  2
ACAD_NAV_VCDISPLAY
 70
     0
  0
APPID
  2
GRADIENTCOLOR1ACI
 70
     0
  0
APPID
  2
GRADIENTCOLOR2ACI
 70
     0
  0
APPID
  2
ACAUTHENVIRON
 70
     0
  0
APPID
  2
ACDBDYNAMICBLOCKTRUENAME
 70
     0
  0
APPID
  2
ACDBDYNAMICBLOCKGUID
 70
     0
  0
APPID
  2
ACAD_PSEXT
 70
     0
  0
APPID
  2
ACAD_MLEADERVER
 70
     0
  0
APPID
  2
ACAECLAYERSTANDARD
 70
     0
  0
APPID
  2
ACCMTRANSPARENCY
 70
     0
  0
APPID
  2
ACAD_STEPID
 70
     0
  0
APPID
  2
ACSYNERGY
 70
     0
  0
APPID
  2
SYNERGY_BODY_TBR_ID
 70
     0
  0
APPID
  2
ACAD_VIEW_EDGE_ID
 70
     0
  0
APPID
  2
ACAD_DSTYLE_DIMJAG
 70
     0
  0
APPID
  2
ACAD_DSTYLE_DIMBREAK
 70
     0
  0
APPID
  2
ACAD_DSTYLE_DIMTALN
 70
     0
  0
APPID
  2
ACADANNOMONITORALERTICONDI
 70
     0
  0
APPID
  2
ACAD_DIMASSOC_CALC_DIMLFAC
 70
     0
  0
APPID
  2
ACAD_DIMASSOC_DIMLFAC
 70
     0
  0
APPID
  2
ACAD_DIMASSOC_OVERRIDDEN_D
 70
     0
  0
APPID
  2
ACAD_DSTYLE_DIMRADIAL_EXTENSION
 70
     0
  0
APPID
  2
ACADANNOPO
 70
     0
  0
APPID
  2
ACSYNERGYSKETCH
 70
     0
  0
APPID
  2
ACAD_MODELDOC_XFORM
 70
     0
  0
APPID
  2
SYNERGY_EXCLUDED_FROM_SNAPSHOT
 70
     0
  0
APPID
  2
PLOTTRANSPARENCY
 70
     0
  0
APPID
  2
ACAD_TC
 70
     0
  0
ENDTAB
  0
TABLE
  2
DIMSTYLE
 70
     2
  0
DIMSTYLE
  2
STANDARD
 70
     0
  3

  4

  5

  6

  7

 40
1.0
 41
0.18
 42
0.0625
 43
0.38
 44
0.18
 45
0.0
 46
0.0
 47
0.0
 48
0.0
140
0.18
141
0.09
142
0.0
143
25.3999999999999986
144
1.0
145
0.0
146
1.0
147
0.09
 71
     0
 72
     0
 73
     1
 74
     1
 75
     0
 76
     0
 77
     0
 78
     0
170
     0
171
     2
172
     0
173
     0
174
     0
175
     0
176
     0
177
     0
178
     0
  0
DIMSTYLE
  2
LORO
 70
     0
  3

  4

  5

  6

  7

 40
1.0
 41
3.5
 42
1.0
 43
0.38
 44
1.0
 45
0.0
 46
0.0
 47
0.0
 48
0.000000001
140
3.5
141
0.09
142
0.0
143
25.3999999999999986
144
2.0
145
0.0
146
0.5
147
1.5
 71
     0
 72
     0
 73
     0
 74
     0
 75
     0
 76
     0
 77
     1
 78
     8
170
     0
171
     2
172
     1
173
     0
174
     0
175
     0
176
     0
177
     0
178
     1
  0
ENDTAB
  0
ENDSEC
  0
SECTION
  2
BLOCKS
  0
BLOCK
  8
0
  2
$MODEL_SPACE
 70
     0
 10
0.0
 20
0.0
 30
0.0
  3
$MODEL_SPACE
  1

  0
ENDBLK
  5
38
  8
0
  0
BLOCK
 67
     1
  8
0
  2
$PAPER_SPACE
 70
     0
 10
0.0
 20
0.0
 30
0.0
  3
$PAPER_SPACE
  1

  0
ENDBLK
  5
36
 67
     1
  8
0
  0
BLOCK
  8
0
  2
*S0
 70
     1
 10
0.0
 20
0.0
 30
0.0
  3
*S0
  1

  0
ENDBLK
  5
46EF
  8
0
  0
BLOCK
  8
0
  2
A$C4FD49606
 70
     0
 10
0.0
 20
0.0
 30
0.0
  3
A$C4FD49606
  1

  0
CIRCLE
  5
1B927
  8
0
  6
CONTINUOUS
 62
     3
 10
0.0
 20
-0.0000000000000284
 30
0.0
 40
49.3074442146850203
  0
CIRCLE
  5
1B928
  8
0
  6
CONTINUOUS
 62
     3
 10
0.0000000000000094
 20
-0.0000000000000426
 30
0.0
 40
50.0
  0
CIRCLE
  5
1B929
  8
0
  6
CONTINUOUS
 62
     3
 10
0.0000000000000187
 20
-0.0000000000000568
 30
0.0
 40
53.5000000000000071
  0
CIRCLE
  5
1B92A
  8
0
  6
CONTINUOUS
 62
     3
 10
0.0000000000000189
 20
-0.0000000000000568
 30
0.0
 40
54.6379310344827829
  0
CIRCLE
  5
1B92B
  8
0
  6
CONTINUOUS
 62
     3
 10
0.0000000000000166
 20
-0.0000000000000568
 30
0.0
 40
58.4999999999999787
  0
CIRCLE
  5
1B92C
  8
0
  6
CONTINUOUS
 62
     3
 10
90.0000000000000284
 20
-0.000000000000028
 30
0.0000000000000142
 40
3.999999999999996
  0
CIRCLE
  5
1B92D
  8
0
  6
CONTINUOUS
 62
     3
 10
90.0000000000000284
 20
-0.000000000000028
 30
0.0000000000000142
 40
5.0
  0
CIRCLE
  5
1B92E
  8
0
  6
CONTINUOUS
 62
     3
 10
45.0000000000000284
 20
77.9422863405994519
 30
0.0000000000000142
 40
3.999999999999996
  0
CIRCLE
  5
1B92F
  8
0
  6
CONTINUOUS
 62
     3
 10
45.0000000000000284
 20
77.9422863405994519
 30
0.0000000000000142
 40
5.0
  0
CIRCLE
  5
1B930
  8
0
  6
CONTINUOUS
 62
     3
 10
-44.9999999999999574
 20
77.9422863405994661
 30
-0.0000000000000142
 40
3.999999999999996
  0
CIRCLE
  5
1B931
  8
0
  6
CONTINUOUS
 62
     3
 10
-44.9999999999999574
 20
77.9422863405994661
 30
-0.0000000000000142
 40
5.0
  0
CIRCLE
  5
1B932
  8
0
  6
CONTINUOUS
 62
     3
 10
-90.0
 20
0.0000000000000221
 30
-0.0000000000000142
 40
3.999999999999996
  0
CIRCLE
  5
1B933
  8
0
  6
CONTINUOUS
 62
     3
 10
-90.0
 20
0.0000000000000222
 30
-0.0000000000000142
 40
5.0
  0
CIRCLE
  5
1B934
  8
0
  6
CONTINUOUS
 62
     3
 10
-45.0000000000000213
 20
-77.9422863405995088
 30
-0.0000000000000142
 40
3.9999999999999969
  0
CIRCLE
  5
1B935
  8
0
  6
CONTINUOUS
 62
     3
 10
-45.0000000000000213
 20
-77.9422863405995088
 30
-0.0000000000000142
 40
5.0
  0
CIRCLE
  5
1B936
  8
0
  6
CONTINUOUS
 62
     3
 10
44.9999999999999716
 20
-77.9422863405995514
 30
0.0000000000000142
 40
3.999999999999996
  0
CIRCLE
  5
1B937
  8
0
  6
CONTINUOUS
 62
     3
 10
44.9999999999999716
 20
-77.9422863405995514
 30
0.0000000000000142
 40
5.0
  0
CIRCLE
  5
1B938
  8
0
  6
CONTINUOUS
 62
     3
 10
0.0000000000001268
 20
-0.0000000000000283
 30
0.0
 40
59.4032540765464674
  0
CIRCLE
  5
1B939
  8
0
  6
CONTINUOUS
 62
     3
 10
0.0000000000001295
 20
-0.0000000000000276
 30
0.0
 40
122.5
  0
CIRCLE
  5
1B93A
  8
0
  6
VERDECKT
 62
     1
 10
0.0
 20
-0.0000000000000284
 30
0.0
 40
50.7999999999999829
  0
CIRCLE
  5
1B93B
  8
0
  6
VERDECKT
 62
     1
 10
0.0000000000000094
 20
-0.0000000000000426
 30
0.0
 40
51.4999999999999929
  0
CIRCLE
  5
1B93C
  8
0
  6
VERDECKT
 62
     1
 10
0.0000000000000166
 20
-0.0000000000000568
 30
0.0
 40
56.9999999999999929
  0
CIRCLE
  5
1B93D
  8
0
  6
VERDECKT
 62
     1
 10
0.0000000000001266
 20
-0.0000000000000284
 30
0.0
 40
61.0000000000000071
  0
ENDBLK
  5
1B93F
  8
0
  0
BLOCK
  8
0
  2
A$C81B3C890
 70
     0
 10
0.0
 20
0.0
 30
0.0
  3
A$C81B3C890
  1

  0
LINE
  5
1B943
  8
0
  6
CONTINUOUS
 62
     3
 10
-50.7999999999999829
 20
0.0
 30
0.0
 11
50.7999999999999829
 21
0.0
 31
0.0
210
0.0
220
1.0
230
-0.0000000000000002
  0
LINE
  5
1B944
  8
0
  6
CONTINUOUS
 62
     3
 10
49.9999999999999503
 20
85.0000000000000284
 30
-0.0000000000000189
 11
54.6379310344827829
 21
85.0000000000000568
 31
-0.0000000000000189
210
0.0
220
1.0
230
-0.0000000000000002
  0
LINE
  5
1B945
  8
0
  6
CONTINUOUS
 62
     3
 10
-40.0000000000000497
 20
85.0000000000000568
 30
-0.0000000000000189
 11
39.9999999999999503
 21
85.0000000000000284
 31
-0.0000000000000189
210
0.0
220
1.0
230
-0.0000000000000002
  0
LINE
  5
1B946
  8
0
  6
CONTINUOUS
 62
     3
 10
-54.6379310344827829
 20
85.0000000000000568
 30
-0.0000000000000189
 11
-50.0000000000000568
 21
85.0000000000000284
 31
-0.0000000000000189
210
0.0
220
1.0
230
-0.0000000000000002
  0
ARC
  5
1B947
  8
0
  6
CONTINUOUS
 62
     3
 10
50.4999999999963123
 20
7.0498756211210321
 30
0.0
 40
1.0000000000036799
210
0.0
220
-0.0000000000000002
230
-1.0
 50
354.2894068625124078
 51
359.9999999999910756
  0
ARC
  5
1B948
  8
0
  6
CONTINUOUS
 62
     3
 10
-50.4999999999964473
 20
7.0498756211210321
 30
0.0
 40
1.0000000000035381
210
0.0
220
-0.0000000000000002
230
-1.0
 50
180.0000000000088107
 51
185.7105931374879901
  0
LINE
  5
1B949
  8
0
  6
CONTINUOUS
 62
     3
 10
-50.7999999999999829
 20
-0.0000000000000004
 30
0.0
 11
-51.4950371902099775
 21
6.9503719020998762
 31
-0.0000000000000015
210
0.0
220
1.0
230
-0.0000000000000002
  0
LINE
  5
1B94A
  8
0
  6
CONTINUOUS
 62
     3
 10
50.7999999999999829
 20
-0.0000000000000004
 30
0.0
 11
51.4950371902099775
 21
6.9503719020998833
 31
-0.0000000000000015
210
0.0
220
1.0
230
-0.0000000000000002
  0
LINE
  5
1B94B
  8
0
  6
CONTINUOUS
 62
     3
 10
51.4999999999999787
 20
42.3353876788549428
 30
-0.0000000000000094
 11
51.4999999999999787
 21
7.0498756211208766
 31
-0.0000000000000016
210
0.0
220
1.0
230
-0.0000000000000002
  0
LINE
  5
1B94C
  8
0
  6
CONTINUOUS
 62
     3
 10
-51.4999999999999787
 20
42.3353876788549428
 30
-0.0000000000000094
 11
-51.4999999999999787
 21
7.0498756211208766
 31
-0.0000000000000016
210
0.0
220
1.0
230
-0.0000000000000002
  0
LINE
  5
1B94D
  8
0
  6
CONTINUOUS
 62
     3
 10
-52.6755117121215193
 20
46.0636345151367692
 30
-0.0000000000000102
 11
-54.9734648636353214
 21
49.345451728057931
 31
-0.000000000000011
210
0.0
220
1.0
230
-0.0000000000000002
  0
LINE
  5
1B94E
  8
0
  6
CONTINUOUS
 62
     3
 10
52.6755117121215193
 20
46.0636345151367692
 30
-0.0000000000000102
 11
54.9734648636353214
 21
49.345451728057931
 31
-0.000000000000011
210
0.0
220
1.0
230
-0.0000000000000002
  0
ARC
  5
1B94F
  8
0
  6
CONTINUOUS
 62
     3
 10
58.0000000000000711
 20
42.3353876788549215
 30
0.0
 40
6.5000000000000968
210
0.0
220
-0.0000000000000002
230
-1.0
 50
145.0000000000001137
 51
179.9999999999996874
  0
ARC
  5
1B950
  8
0
  6
CONTINUOUS
 62
     3
 10
-57.9999999999998792
 20
42.3353876788549712
 30
0.0
 40
6.4999999999998996
210
0.0
220
-0.0000000000000002
230
-1.0
 50
359.9999999999997726
 51
35.0000000000004405
  0
ARC
  5
1B951
  8
0
  6
CONTINUOUS
 62
     3
 10
42.5000000000000782
 20
74.5754793778256584
 30
0.0
 40
15.9999999999999005
210
0.0
220
-0.0000000000000002
230
-1.0
 50
360.0
 51
40.6572486379977676
  0
ARC
  5
1B952
  8
0
  6
CONTINUOUS
 62
     3
 10
-42.5000000000000782
 20
74.5754793778256584
 30
0.0
 40
15.9999999999999005
210
0.0
220
-0.0000000000000002
230
-1.0
 50
139.3427513620021898
 51
180.0
  0
LINE
  5
1B953
  8
0
  6
CONTINUOUS
 62
     3
 10
58.5
 20
74.5754793778256442
 30
-0.0000000000000166
 11
58.5
 21
70.9999999999999005
 31
-0.0000000000000158
210
0.0
220
1.0
230
-0.0000000000000002
  0
LINE
  5
1B954
  8
0
  6
CONTINUOUS
 62
     3
 10
-58.5
 20
74.5754793778256442
 30
-0.0000000000000166
 11
-58.5
 21
70.9999999999999005
 31
-0.0000000000000158
210
0.0
220
1.0
230
-0.0000000000000002
  0
ARC
  5
1B955
  8
0
  6
CONTINUOUS
 62
     3
 10
39.0000000000000213
 20
60.5301922369033107
 30
0.0
 40
19.4999999999999716
210
0.0
220
-0.0000000000000002
230
-1.0
 50
325.0
 51
352.544654740444912
  0
ARC
  5
1B956
  8
0
  6
CONTINUOUS
 62
     3
 10
-39.0000000000001208
 20
60.5301922369032681
 30
0.0
 40
19.4999999999998614
210
0.0
220
-0.0000000000000002
230
-1.0
 50
187.4553452595550027
 51
215.0000000000001137
  0
LINE
  5
1B957
  8
0
  6
CONTINUOUS
 62
     3
 10
86.0000000000000142
 20
91.9999999999999005
 30
-0.0000000000000204
 11
94.0000000000000142
 21
91.9999999999999005
 31
-0.0000000000000204
210
0.0
220
1.0
230
-0.0000000000000002
  0
LINE
  5
1B958
  8
0
  6
CONTINUOUS
 62
     3
 10
85.0000000000000142
 20
90.9999999999999005
 30
-0.0000000000000202
 11
95.0000000000000142
 21
90.9999999999999005
 31
-0.0000000000000202
210
0.0
220
1.0
230
-0.0000000000000002
  0
LINE
  5
1B959
  8
0
  6
CONTINUOUS
 62
     3
 10
86.0000000000000142
 20
89.9999999999999147
 30
-0.00000000000002
 11
94.0000000000000142
 21
89.9999999999999147
 31
-0.00000000000002
210
0.0
220
1.0
230
-0.0000000000000002
  0
LINE
  5
1B95A
  8
0
  6
CONTINUOUS
 62
     3
 10
85.0000000000000142
 20
88.9999999999998863
 30
-0.0000000000000198
 11
95.0000000000000142
 21
88.9999999999998863
 31
-0.0000000000000198
210
0.0
220
1.0
230
-0.0000000000000002
  0
LINE
  5
1B95B
  8
0
  6
CONTINUOUS
 62
     3
 10
86.0000000000000142
 20
87.9999999999999005
 30
-0.0000000000000195
 11
94.0000000000000142
 21
87.9999999999999005
 31
-0.0000000000000195
210
0.0
220
1.0
230
-0.0000000000000002
  0
LINE
  5
1B95C
  8
0
  6
CONTINUOUS
 62
     3
 10
85.0000000000000142
 20
86.9999999999999005
 30
-0.0000000000000193
 11
95.0000000000000142
 21
86.9999999999999005
 31
-0.0000000000000193
210
0.0
220
1.0
230
-0.0000000000000002
  0
LINE
  5
1B95D
  8
0
  6
CONTINUOUS
 62
     3
 10
86.0000000000000142
 20
85.9999999999999005
 30
-0.0000000000000191
 11
94.0000000000000142
 21
85.9999999999999005
 31
-0.0000000000000191
210
0.0
220
1.0
230
-0.0000000000000002
  0
LINE
  5
1B95E
  8
0
  6
CONTINUOUS
 62
     3
 10
85.0000000000000142
 20
84.9999999999999147
 30
-0.0000000000000189
 11
95.0000000000000142
 21
84.9999999999999147
 31
-0.0000000000000189
210
0.0
220
1.0
230
-0.0000000000000002
  0
LINE
  5
1B95F
  8
0
  6
CONTINUOUS
 62
     3
 10
86.0000000000000142
 20
83.9999999999998863
 30
-0.0000000000000187
 11
94.0000000000000142
 21
83.9999999999998863
 31
-0.0000000000000187
210
0.0
220
1.0
230
-0.0000000000000002
  0
LINE
  5
1B960
  8
0
  6
CONTINUOUS
 62
     3
 10
85.0000000000000142
 20
82.9999999999999005
 30
-0.0000000000000184
 11
95.0000000000000142
 21
82.9999999999999005
 31
-0.0000000000000184
210
0.0
220
1.0
230
-0.0000000000000002
  0
LINE
  5
1B961
  8
0
  6
CONTINUOUS
 62
     3
 10
86.0000000000000142
 20
81.9999999999999005
 30
-0.0000000000000182
 11
94.0000000000000142
 21
81.9999999999999005
 31
-0.0000000000000182
210
0.0
220
1.0
230
-0.0000000000000002
  0
LINE
  5
1B962
  8
0
  6
CONTINUOUS
 62
     3
 10
85.0000000000000142
 20
80.9999999999999005
 30
-0.000000000000018
 11
95.0000000000000142
 21
80.9999999999999005
 31
-0.000000000000018
210
0.0
220
1.0
230
-0.0000000000000002
  0
LINE
  5
1B963
  8
0
  6
CONTINUOUS
 62
     3
 10
86.0000000000000142
 20
79.9999999999999005
 30
-0.0000000000000178
 11
94.0000000000000142
 21
79.9999999999999005
 31
-0.0000000000000178
210
0.0
220
1.0
230
-0.0000000000000002
  0
LINE
  5
1B964
  8
0
  6
CONTINUOUS
 62
     3
 10
85.0000000000000142
 20
78.9999999999999005
 30
-0.0000000000000175
 11
95.0000000000000142
 21
78.9999999999999005
 31
-0.0000000000000175
210
0.0
220
1.0
230
-0.0000000000000002
  0
LINE
  5
1B965
  8
0
  6
CONTINUOUS
 62
     3
 10
86.0000000000000142
 20
77.9999999999999005
 30
-0.0000000000000173
 11
94.0000000000000142
 21
77.9999999999999005
 31
-0.0000000000000173
210
0.0
220
1.0
230
-0.0000000000000002
  0
LINE
  5
1B966
  8
0
  6
CONTINUOUS
 62
     3
 10
85.0000000000000142
 20
76.9999999999999005
 30
-0.0000000000000171
 11
95.0000000000000142
 21
76.9999999999999005
 31
-0.0000000000000171
210
0.0
220
1.0
230
-0.0000000000000002
  0
LINE
  5
1B967
  8
0
  6
CONTINUOUS
 62
     3
 10
86.0000000000000142
 20
75.9999999999999005
 30
-0.0000000000000169
 11
94.0000000000000142
 21
75.9999999999999005
 31
-0.0000000000000169
210
0.0
220
1.0
230
-0.0000000000000002
  0
LINE
  5
1B968
  8
0
  6
CONTINUOUS
 62
     3
 10
85.0000000000000142
 20
74.9999999999999005
 30
-0.0000000000000167
 11
95.0000000000000142
 21
74.9999999999999005
 31
-0.0000000000000167
210
0.0
220
1.0
230
-0.0000000000000002
  0
LINE
  5
1B969
  8
0
  6
CONTINUOUS
 62
     3
 10
86.0000000000000142
 20
73.9999999999999005
 30
-0.0000000000000164
 11
94.0000000000000142
 21
73.9999999999999005
 31
-0.0000000000000164
210
0.0
220
1.0
230
-0.0000000000000002
  0
LINE
  5
1B96A
  8
0
  6
CONTINUOUS
 62
     3
 10
85.0000000000000142
 20
72.9999999999999005
 30
-0.0000000000000162
 11
95.0000000000000142
 21
72.9999999999999005
 31
-0.0000000000000162
210
0.0
220
1.0
230
-0.0000000000000002
  0
LINE
  5
1B96B
  8
0
  6
CONTINUOUS
 62
     3
 10
86.0000000000000142
 20
71.9999999999999005
 30
-0.000000000000016
 11
94.0000000000000142
 21
71.9999999999999005
 31
-0.000000000000016
210
0.0
220
1.0
230
-0.0000000000000002
  0
LINE
  5
1B96C
  8
0
  6
CONTINUOUS
 62
     3
 10
86.0000000000000142
 20
95.9999999999999005
 30
-0.0000000000000213
 11
94.0000000000000142
 21
95.9999999999999005
 31
-0.0000000000000213
210
0.0
220
1.0
230
-0.0000000000000002
  0
LINE
  5
1B96D
  8
0
  6
CONTINUOUS
 62
     3
 10
85.0000000000000142
 20
94.9999999999999147
 30
-0.0000000000000211
 11
95.0000000000000142
 21
94.9999999999999147
 31
-0.0000000000000211
210
0.0
220
1.0
230
-0.0000000000000002
  0
LINE
  5
1B96E
  8
0
  6
CONTINUOUS
 62
     3
 10
86.0000000000000142
 20
93.9999999999998863
 30
-0.0000000000000209
 11
94.0000000000000142
 21
93.9999999999998863
 31
-0.0000000000000209
210
0.0
220
1.0
230
-0.0000000000000002
  0
LINE
  5
1B96F
  8
0
  6
CONTINUOUS
 62
     3
 10
85.0000000000000142
 20
92.9999999999999005
 30
-0.0000000000000207
 11
95.0000000000000142
 21
92.9999999999999005
 31
-0.0000000000000207
210
0.0
220
1.0
230
-0.0000000000000002
  0
LINE
  5
1B970
  8
0
  6
CONTINUOUS
 62
     3
 10
94.0000000000000142
 20
91.9999999999999005
 30
-0.0000000000000204
 11
95.0000000000000142
 21
90.9999999999999005
 31
-0.0000000000000202
210
0.0
220
1.0
230
-0.0000000000000002
  0
LINE
  5
1B971
  8
0
  6
CONTINUOUS
 62
     3
 10
86.0000000000000142
 20
91.9999999999999005
 30
-0.0000000000000204
 11
85.0000000000000142
 21
90.9999999999999005
 31
-0.0000000000000202
210
0.0
220
1.0
230
-0.0000000000000002
  0
LINE
  5
1B972
  8
0
  6
CONTINUOUS
 62
     3
 10
86.0000000000000142
 20
89.9999999999999147
 30
-0.00000000000002
 11
85.0000000000000142
 21
90.9999999999999005
 31
-0.0000000000000202
210
0.0
220
1.0
230
-0.0000000000000002
  0
LINE
  5
1B973
  8
0
  6
CONTINUOUS
 62
     3
 10
94.0000000000000142
 20
89.9999999999999147
 30
-0.00000000000002
 11
95.0000000000000142
 21
90.9999999999999005
 31
-0.0000000000000202
210
0.0
220
1.0
230
-0.0000000000000002
  0
LINE
  5
1B974
  8
0
  6
CONTINUOUS
 62
     3
 10
94.0000000000000142
 20
89.9999999999999147
 30
-0.00000000000002
 11
95.0000000000000142
 21
88.9999999999998863
 31
-0.0000000000000198
210
0.0
220
1.0
230
-0.0000000000000002
  0
LINE
  5
1B975
  8
0
  6
CONTINUOUS
 62
     3
 10
86.0000000000000142
 20
89.9999999999999147
 30
-0.00000000000002
 11
85.0000000000000142
 21
88.9999999999998863
 31
-0.0000000000000198
210
0.0
220
1.0
230
-0.0000000000000002
  0
LINE
  5
1B976
  8
0
  6
CONTINUOUS
 62
     3
 10
86.0000000000000142
 20
87.9999999999999005
 30
-0.0000000000000195
 11
85.0000000000000142
 21
88.9999999999998863
 31
-0.0000000000000198
210
0.0
220
1.0
230
-0.0000000000000002
  0
LINE
  5
1B977
  8
0
  6
CONTINUOUS
 62
     3
 10
94.0000000000000142
 20
87.9999999999999005
 30
-0.0000000000000195
 11
95.0000000000000142
 21
88.9999999999998863
 31
-0.0000000000000198
210
0.0
220
1.0
230
-0.0000000000000002
  0
LINE
  5
1B978
  8
0
  6
CONTINUOUS
 62
     3
 10
94.0000000000000142
 20
87.9999999999999005
 30
-0.0000000000000195
 11
95.0000000000000142
 21
86.9999999999999005
 31
-0.0000000000000193
210
0.0
220
1.0
230
-0.0000000000000002
  0
LINE
  5
1B979
  8
0
  6
CONTINUOUS
 62
     3
 10
86.0000000000000142
 20
87.9999999999999005
 30
-0.0000000000000195
 11
85.0000000000000142
 21
86.9999999999999005
 31
-0.0000000000000193
210
0.0
220
1.0
230
-0.0000000000000002
  0
LINE
  5
1B97A
  8
0
  6
CONTINUOUS
 62
     3
 10
86.0000000000000142
 20
85.9999999999999005
 30
-0.0000000000000191
 11
85.0000000000000142
 21
86.9999999999999005
 31
-0.0000000000000193
210
0.0
220
1.0
230
-0.0000000000000002
  0
LINE
  5
1B97B
  8
0
  6
CONTINUOUS
 62
     3
 10
94.0000000000000142
 20
85.9999999999999005
 30
-0.0000000000000191
 11
95.0000000000000142
 21
86.9999999999999005
 31
-0.0000000000000193
210
0.0
220
1.0
230
-0.0000000000000002
  0
LINE
  5
1B97C
  8
0
  6
CONTINUOUS
 62
     3
 10
94.0000000000000142
 20
85.9999999999999005
 30
-0.0000000000000191
 11
95.0000000000000142
 21
84.9999999999999147
 31
-0.0000000000000189
210
0.0
220
1.0
230
-0.0000000000000002
  0
LINE
  5
1B97D
  8
0
  6
CONTINUOUS
 62
     3
 10
86.0000000000000142
 20
85.9999999999999005
 30
-0.0000000000000191
 11
85.0000000000000142
 21
84.9999999999999147
 31
-0.0000000000000189
210
0.0
220
1.0
230
-0.0000000000000002
  0
LINE
  5
1B97E
  8
0
  6
CONTINUOUS
 62
     3
 10
86.0000000000000142
 20
83.9999999999998863
 30
-0.0000000000000187
 11
85.0000000000000142
 21
84.9999999999999147
 31
-0.0000000000000189
210
0.0
220
1.0
230
-0.0000000000000002
  0
LINE
  5
1B97F
  8
0
  6
CONTINUOUS
 62
     3
 10
94.0000000000000142
 20
83.9999999999998863
 30
-0.0000000000000187
 11
95.0000000000000142
 21
84.9999999999999147
 31
-0.0000000000000189
210
0.0
220
1.0
230
-0.0000000000000002
  0
LINE
  5
1B980
  8
0
  6
CONTINUOUS
 62
     3
 10
94.0000000000000142
 20
83.9999999999998863
 30
-0.0000000000000187
 11
95.0000000000000142
 21
82.9999999999999005
 31
-0.0000000000000184
210
0.0
220
1.0
230
-0.0000000000000002
  0
LINE
  5
1B981
  8
0
  6
CONTINUOUS
 62
     3
 10
86.0000000000000142
 20
83.9999999999998863
 30
-0.0000000000000187
 11
85.0000000000000142
 21
82.9999999999999005
 31
-0.0000000000000184
210
0.0
220
1.0
230
-0.0000000000000002
  0
LINE
  5
1B982
  8
0
  6
CONTINUOUS
 62
     3
 10
86.0000000000000142
 20
81.9999999999999005
 30
-0.0000000000000182
 11
85.0000000000000142
 21
82.9999999999999005
 31
-0.0000000000000184
210
0.0
220
1.0
230
-0.0000000000000002
  0
LINE
  5
1B983
  8
0
  6
CONTINUOUS
 62
     3
 10
94.0000000000000142
 20
81.9999999999999005
 30
-0.0000000000000182
 11
95.0000000000000142
 21
82.9999999999999005
 31
-0.0000000000000184
210
0.0
220
1.0
230
-0.0000000000000002
  0
LINE
  5
1B984
  8
0
  6
CONTINUOUS
 62
     3
 10
94.0000000000000142
 20
81.9999999999999005
 30
-0.0000000000000182
 11
95.0000000000000142
 21
80.9999999999999005
 31
-0.000000000000018
210
0.0
220
1.0
230
-0.0000000000000002
  0
LINE
  5
1B985
  8
0
  6
CONTINUOUS
 62
     3
 10
86.0000000000000142
 20
81.9999999999999005
 30
-0.0000000000000182
 11
85.0000000000000142
 21
80.9999999999999005
 31
-0.000000000000018
210
0.0
220
1.0
230
-0.0000000000000002
  0
LINE
  5
1B986
  8
0
  6
CONTINUOUS
 62
     3
 10
86.0000000000000142
 20
79.9999999999999005
 30
-0.0000000000000178
 11
85.0000000000000142
 21
80.9999999999999005
 31
-0.000000000000018
210
0.0
220
1.0
230
-0.0000000000000002
  0
LINE
  5
1B987
  8
0
  6
CONTINUOUS
 62
     3
 10
94.0000000000000142
 20
79.9999999999999005
 30
-0.0000000000000178
 11
95.0000000000000142
 21
80.9999999999999005
 31
-0.000000000000018
210
0.0
220
1.0
230
-0.0000000000000002
  0
LINE
  5
1B988
  8
0
  6
CONTINUOUS
 62
     3
 10
94.0000000000000142
 20
79.9999999999999005
 30
-0.0000000000000178
 11
95.0000000000000142
 21
78.9999999999999005
 31
-0.0000000000000175
210
0.0
220
1.0
230
-0.0000000000000002
  0
LINE
  5
1B989
  8
0
  6
CONTINUOUS
 62
     3
 10
86.0000000000000142
 20
79.9999999999999005
 30
-0.0000000000000178
 11
85.0000000000000142
 21
78.9999999999999005
 31
-0.0000000000000175
210
0.0
220
1.0
230
-0.0000000000000002
  0
LINE
  5
1B98A
  8
0
  6
CONTINUOUS
 62
     3
 10
86.0000000000000142
 20
77.9999999999999005
 30
-0.0000000000000173
 11
85.0000000000000142
 21
78.9999999999999005
 31
-0.0000000000000175
210
0.0
220
1.0
230
-0.0000000000000002
  0
LINE
  5
1B98B
  8
0
  6
CONTINUOUS
 62
     3
 10
94.0000000000000142
 20
77.9999999999999005
 30
-0.0000000000000173
 11
95.0000000000000142
 21
78.9999999999999005
 31
-0.0000000000000175
210
0.0
220
1.0
230
-0.0000000000000002
  0
LINE
  5
1B98C
  8
0
  6
CONTINUOUS
 62
     3
 10
94.0000000000000142
 20
77.9999999999999005
 30
-0.0000000000000173
 11
95.0000000000000142
 21
76.9999999999999005
 31
-0.0000000000000171
210
0.0
220
1.0
230
-0.0000000000000002
  0
LINE
  5
1B98D
  8
0
  6
CONTINUOUS
 62
     3
 10
86.0000000000000142
 20
77.9999999999999005
 30
-0.0000000000000173
 11
85.0000000000000142
 21
76.9999999999999005
 31
-0.0000000000000171
210
0.0
220
1.0
230
-0.0000000000000002
  0
LINE
  5
1B98E
  8
0
  6
CONTINUOUS
 62
     3
 10
86.0000000000000142
 20
75.9999999999999005
 30
-0.0000000000000169
 11
85.0000000000000142
 21
76.9999999999999005
 31
-0.0000000000000171
210
0.0
220
1.0
230
-0.0000000000000002
  0
LINE
  5
1B98F
  8
0
  6
CONTINUOUS
 62
     3
 10
94.0000000000000142
 20
75.9999999999999005
 30
-0.0000000000000169
 11
95.0000000000000142
 21
76.9999999999999005
 31
-0.0000000000000171
210
0.0
220
1.0
230
-0.0000000000000002
  0
LINE
  5
1B990
  8
0
  6
CONTINUOUS
 62
     3
 10
94.0000000000000142
 20
75.9999999999999005
 30
-0.0000000000000169
 11
95.0000000000000142
 21
74.9999999999999005
 31
-0.0000000000000167
210
0.0
220
1.0
230
-0.0000000000000002
  0
LINE
  5
1B991
  8
0
  6
CONTINUOUS
 62
     3
 10
86.0000000000000142
 20
75.9999999999999005
 30
-0.0000000000000169
 11
85.0000000000000142
 21
74.9999999999999005
 31
-0.0000000000000167
210
0.0
220
1.0
230
-0.0000000000000002
  0
LINE
  5
1B992
  8
0
  6
CONTINUOUS
 62
     3
 10
86.0000000000000142
 20
73.9999999999999005
 30
-0.0000000000000164
 11
85.0000000000000142
 21
74.9999999999999005
 31
-0.0000000000000167
210
0.0
220
1.0
230
-0.0000000000000002
  0
LINE
  5
1B993
  8
0
  6
CONTINUOUS
 62
     3
 10
94.0000000000000142
 20
73.9999999999999005
 30
-0.0000000000000164
 11
95.0000000000000142
 21
74.9999999999999005
 31
-0.0000000000000167
210
0.0
220
1.0
230
-0.0000000000000002
  0
LINE
  5
1B994
  8
0
  6
CONTINUOUS
 62
     3
 10
94.0000000000000142
 20
73.9999999999999005
 30
-0.0000000000000164
 11
95.0000000000000142
 21
72.9999999999999005
 31
-0.0000000000000162
210
0.0
220
1.0
230
-0.0000000000000002
  0
LINE
  5
1B995
  8
0
  6
CONTINUOUS
 62
     3
 10
86.0000000000000142
 20
73.9999999999999005
 30
-0.0000000000000164
 11
85.0000000000000142
 21
72.9999999999999005
 31
-0.0000000000000162
210
0.0
220
1.0
230
-0.0000000000000002
  0
LINE
  5
1B996
  8
0
  6
CONTINUOUS
 62
     3
 10
86.0000000000000142
 20
71.9999999999999005
 30
-0.000000000000016
 11
85.0000000000000142
 21
72.9999999999999005
 31
-0.0000000000000162
210
0.0
220
1.0
230
-0.0000000000000002
  0
LINE
  5
1B997
  8
0
  6
CONTINUOUS
 62
     3
 10
94.0000000000000142
 20
71.9999999999999005
 30
-0.000000000000016
 11
95.0000000000000142
 21
72.9999999999999005
 31
-0.0000000000000162
210
0.0
220
1.0
230
-0.0000000000000002
  0
LINE
  5
1B998
  8
0
  6
CONTINUOUS
 62
     3
 10
94.0000000000000142
 20
71.9999999999999005
 30
-0.000000000000016
 11
95.0000000000000142
 21
70.9999999999999005
 31
-0.0000000000000158
210
0.0
220
1.0
230
-0.0000000000000002
  0
LINE
  5
1B999
  8
0
  6
CONTINUOUS
 62
     3
 10
86.0000000000000142
 20
71.9999999999999005
 30
-0.000000000000016
 11
85.0000000000000142
 21
70.9999999999999005
 31
-0.0000000000000158
210
0.0
220
1.0
230
-0.0000000000000002
  0
LINE
  5
1B99A
  8
0
  6
CONTINUOUS
 62
     3
 10
94.0000000000000142
 20
95.9999999999999005
 30
-0.0000000000000213
 11
95.0000000000000142
 21
94.9999999999999147
 31
-0.0000000000000211
210
0.0
220
1.0
230
-0.0000000000000002
  0
LINE
  5
1B99B
  8
0
  6
CONTINUOUS
 62
     3
 10
86.0000000000000142
 20
95.9999999999999005
 30
-0.0000000000000213
 11
85.0000000000000142
 21
94.9999999999999147
 31
-0.0000000000000211
210
0.0
220
1.0
230
-0.0000000000000002
  0
LINE
  5
1B99C
  8
0
  6
CONTINUOUS
 62
     3
 10
86.0000000000000142
 20
93.9999999999998863
 30
-0.0000000000000209
 11
85.0000000000000142
 21
94.9999999999999147
 31
-0.0000000000000211
210
0.0
220
1.0
230
-0.0000000000000002
  0
LINE
  5
1B99D
  8
0
  6
CONTINUOUS
 62
     3
 10
94.0000000000000142
 20
93.9999999999998863
 30
-0.0000000000000209
 11
95.0000000000000142
 21
94.9999999999999147
 31
-0.0000000000000211
210
0.0
220
1.0
230
-0.0000000000000002
  0
LINE
  5
1B99E
  8
0
  6
CONTINUOUS
 62
     3
 10
94.0000000000000142
 20
93.9999999999998863
 30
-0.0000000000000209
 11
95.0000000000000142
 21
92.9999999999999005
 31
-0.0000000000000207
210
0.0
220
1.0
230
-0.0000000000000002
  0
LINE
  5
1B99F
  8
0
  6
CONTINUOUS
 62
     3
 10
86.0000000000000142
 20
93.9999999999998863
 30
-0.0000000000000209
 11
85.0000000000000142
 21
92.9999999999999005
 31
-0.0000000000000207
210
0.0
220
1.0
230
-0.0000000000000002
  0
LINE
  5
1B9A0
  8
0
  6
CONTINUOUS
 62
     3
 10
86.0000000000000142
 20
91.9999999999999005
 30
-0.0000000000000204
 11
85.0000000000000142
 21
92.9999999999999005
 31
-0.0000000000000207
210
0.0
220
1.0
230
-0.0000000000000002
  0
LINE
  5
1B9A1
  8
0
  6
CONTINUOUS
 62
     3
 10
94.0000000000000142
 20
91.9999999999999005
 30
-0.0000000000000204
 11
95.0000000000000142
 21
92.9999999999999005
 31
-0.0000000000000207
210
0.0
220
1.0
230
-0.0000000000000002
  0
LINE
  5
1B9A2
  8
0
  6
CONTINUOUS
 62
     3
 10
-94.0000000000000142
 20
91.9999999999999005
 30
-0.0000000000000204
 11
-93.4641016151377642
 21
91.9999999999999005
 31
-0.0000000000000204
210
0.0
220
1.0
230
-0.0000000000000002
  0
LINE
  5
1B9A3
  8
0
  6
CONTINUOUS
 62
     3
 10
-93.4641016151377642
 20
91.9999999999999005
 30
-0.0000000000000204
 11
-86.0000000000000142
 21
91.9999999999999005
 31
-0.0000000000000204
210
0.0
220
1.0
230
-0.0000000000000002
  0
LINE
  5
1B9A4
  8
0
  6
CONTINUOUS
 62
     3
 10
-95.0000000000000142
 20
90.9999999999999005
 30
-0.0000000000000202
 11
-94.3301270189222265
 21
90.9999999999999005
 31
-0.0000000000000202
210
0.0
220
1.0
230
-0.0000000000000002
  0
LINE
  5
1B9A5
  8
0
  6
CONTINUOUS
 62
     3
 10
-94.3301270189222265
 20
90.9999999999999005
 30
-0.0000000000000202
 11
-85.0000000000000142
 21
90.9999999999999005
 31
-0.0000000000000202
210
0.0
220
1.0
230
-0.0000000000000002
  0
LINE
  5
1B9A6
  8
0
  6
CONTINUOUS
 62
     3
 10
-94.0000000000000142
 20
89.9999999999999147
 30
-0.00000000000002
 11
-93.4641016151377642
 21
89.9999999999999147
 31
-0.00000000000002
210
0.0
220
1.0
230
-0.0000000000000002
  0
LINE
  5
1B9A7
  8
0
  6
CONTINUOUS
 62
     3
 10
-93.4641016151377642
 20
89.9999999999999147
 30
-0.00000000000002
 11
-86.0000000000000142
 21
89.9999999999999147
 31
-0.00000000000002
210
0.0
220
1.0
230
-0.0000000000000002
  0
LINE
  5
1B9A8
  8
0
  6
CONTINUOUS
 62
     3
 10
-95.0000000000000142
 20
88.9999999999998863
 30
-0.0000000000000198
 11
-94.3301270189222265
 21
88.9999999999998863
 31
-0.0000000000000198
210
0.0
220
1.0
230
-0.0000000000000002
  0
LINE
  5
1B9A9
  8
0
  6
CONTINUOUS
 62
     3
 10
-94.3301270189222265
 20
88.9999999999998863
 30
-0.0000000000000198
 11
-85.0000000000000142
 21
88.9999999999998863
 31
-0.0000000000000198
210
0.0
220
1.0
230
-0.0000000000000002
  0
LINE
  5
1B9AA
  8
0
  6
CONTINUOUS
 62
     3
 10
-94.0000000000000142
 20
87.9999999999999005
 30
-0.0000000000000195
 11
-93.4641016151377642
 21
87.9999999999999005
 31
-0.0000000000000195
210
0.0
220
1.0
230
-0.0000000000000002
  0
LINE
  5
1B9AB
  8
0
  6
CONTINUOUS
 62
     3
 10
-93.4641016151377642
 20
87.9999999999999005
 30
-0.0000000000000195
 11
-86.0000000000000142
 21
87.9999999999999005
 31
-0.0000000000000195
210
0.0
220
1.0
230
-0.0000000000000002
  0
LINE
  5
1B9AC
  8
0
  6
CONTINUOUS
 62
     3
 10
-95.0000000000000142
 20
86.9999999999999005
 30
-0.0000000000000193
 11
-94.3301270189222265
 21
86.9999999999999005
 31
-0.0000000000000193
210
0.0
220
1.0
230
-0.0000000000000002
  0
LINE
  5
1B9AD
  8
0
  6
CONTINUOUS
 62
     3
 10
-94.3301270189222265
 20
86.9999999999999005
 30
-0.0000000000000193
 11
-85.0000000000000142
 21
86.9999999999999005
 31
-0.0000000000000193
210
0.0
220
1.0
230
-0.0000000000000002
  0
LINE
  5
1B9AE
  8
0
  6
CONTINUOUS
 62
     3
 10
-94.0000000000000142
 20
85.9999999999999005
 30
-0.0000000000000191
 11
-93.4641016151377642
 21
85.9999999999999005
 31
-0.0000000000000191
210
0.0
220
1.0
230
-0.0000000000000002
  0
LINE
  5
1B9AF
  8
0
  6
CONTINUOUS
 62
     3
 10
-93.4641016151377642
 20
85.9999999999999005
 30
-0.0000000000000191
 11
-86.0000000000000142
 21
85.9999999999999005
 31
-0.0000000000000191
210
0.0
220
1.0
230
-0.0000000000000002
  0
LINE
  5
1B9B0
  8
0
  6
CONTINUOUS
 62
     3
 10
-95.0000000000000142
 20
84.9999999999999147
 30
-0.0000000000000189
 11
-94.3301270189222265
 21
84.9999999999999147
 31
-0.0000000000000189
210
0.0
220
1.0
230
-0.0000000000000002
  0
LINE
  5
1B9B1
  8
0
  6
CONTINUOUS
 62
     3
 10
-94.3301270189222265
 20
84.9999999999999147
 30
-0.0000000000000189
 11
-85.0000000000000142
 21
84.9999999999999147
 31
-0.0000000000000189
210
0.0
220
1.0
230
-0.0000000000000002
  0
LINE
  5
1B9B2
  8
0
  6
CONTINUOUS
 62
     3
 10
-94.0000000000000142
 20
83.9999999999998863
 30
-0.0000000000000187
 11
-93.4641016151377642
 21
83.9999999999998863
 31
-0.0000000000000187
210
0.0
220
1.0
230
-0.0000000000000002
  0
LINE
  5
1B9B3
  8
0
  6
CONTINUOUS
 62
     3
 10
-93.4641016151377642
 20
83.9999999999998863
 30
-0.0000000000000187
 11
-86.0000000000000142
 21
83.9999999999998863
 31
-0.0000000000000187
210
0.0
220
1.0
230
-0.0000000000000002
  0
LINE
  5
1B9B4
  8
0
  6
CONTINUOUS
 62
     3
 10
-95.0000000000000142
 20
82.9999999999999005
 30
-0.0000000000000184
 11
-94.3301270189222265
 21
82.9999999999999005
 31
-0.0000000000000184
210
0.0
220
1.0
230
-0.0000000000000002
  0
LINE
  5
1B9B5
  8
0
  6
CONTINUOUS
 62
     3
 10
-94.3301270189222265
 20
82.9999999999999005
 30
-0.0000000000000184
 11
-85.0000000000000142
 21
82.9999999999999005
 31
-0.0000000000000184
210
0.0
220
1.0
230
-0.0000000000000002
  0
LINE
  5
1B9B6
  8
0
  6
CONTINUOUS
 62
     3
 10
-94.0000000000000142
 20
81.9999999999999005
 30
-0.0000000000000182
 11
-93.4641016151377642
 21
81.9999999999999005
 31
-0.0000000000000182
210
0.0
220
1.0
230
-0.0000000000000002
  0
LINE
  5
1B9B7
  8
0
  6
CONTINUOUS
 62
     3
 10
-93.4641016151377642
 20
81.9999999999999005
 30
-0.0000000000000182
 11
-86.0000000000000142
 21
81.9999999999999005
 31
-0.0000000000000182
210
0.0
220
1.0
230
-0.0000000000000002
  0
LINE
  5
1B9B8
  8
0
  6
CONTINUOUS
 62
     3
 10
-95.0000000000000142
 20
80.9999999999999005
 30
-0.000000000000018
 11
-94.3301270189222265
 21
80.9999999999999005
 31
-0.000000000000018
210
0.0
220
1.0
230
-0.0000000000000002
  0
LINE
  5
1B9B9
  8
0
  6
CONTINUOUS
 62
     3
 10
-94.3301270189222265
 20
80.9999999999999005
 30
-0.000000000000018
 11
-85.0000000000000142
 21
80.9999999999999005
 31
-0.000000000000018
210
0.0
220
1.0
230
-0.0000000000000002
  0
LINE
  5
1B9BA
  8
0
  6
CONTINUOUS
 62
     3
 10
-94.0000000000000142
 20
79.9999999999999005
 30
-0.0000000000000178
 11
-93.4641016151377642
 21
79.9999999999999005
 31
-0.0000000000000178
210
0.0
220
1.0
230
-0.0000000000000002
  0
LINE
  5
1B9BB
  8
0
  6
CONTINUOUS
 62
     3
 10
-93.4641016151377642
 20
79.9999999999999005
 30
-0.0000000000000178
 11
-86.0000000000000142
 21
79.9999999999999005
 31
-0.0000000000000178
210
0.0
220
1.0
230
-0.0000000000000002
  0
LINE
  5
1B9BC
  8
0
  6
CONTINUOUS
 62
     3
 10
-95.0000000000000142
 20
78.9999999999999005
 30
-0.0000000000000175
 11
-94.3301270189222265
 21
78.9999999999999005
 31
-0.0000000000000175
210
0.0
220
1.0
230
-0.0000000000000002
  0
LINE
  5
1B9BD
  8
0
  6
CONTINUOUS
 62
     3
 10
-94.3301270189222265
 20
78.9999999999999005
 30
-0.0000000000000175
 11
-85.0000000000000142
 21
78.9999999999999005
 31
-0.0000000000000175
210
0.0
220
1.0
230
-0.0000000000000002
  0
LINE
  5
1B9BE
  8
0
  6
CONTINUOUS
 62
     3
 10
-94.0000000000000142
 20
77.9999999999999005
 30
-0.0000000000000173
 11
-93.4641016151377642
 21
77.9999999999999005
 31
-0.0000000000000173
210
0.0
220
1.0
230
-0.0000000000000002
  0
LINE
  5
1B9BF
  8
0
  6
CONTINUOUS
 62
     3
 10
-93.4641016151377642
 20
77.9999999999999005
 30
-0.0000000000000173
 11
-86.0000000000000142
 21
77.9999999999999005
 31
-0.0000000000000173
210
0.0
220
1.0
230
-0.0000000000000002
  0
LINE
  5
1B9C0
  8
0
  6
CONTINUOUS
 62
     3
 10
-95.0000000000000142
 20
76.9999999999999005
 30
-0.0000000000000171
 11
-94.3301270189222265
 21
76.9999999999999005
 31
-0.0000000000000171
210
0.0
220
1.0
230
-0.0000000000000002
  0
LINE
  5
1B9C1
  8
0
  6
CONTINUOUS
 62
     3
 10
-94.3301270189222265
 20
76.9999999999999005
 30
-0.0000000000000171
 11
-85.0000000000000142
 21
76.9999999999999005
 31
-0.0000000000000171
210
0.0
220
1.0
230
-0.0000000000000002
  0
LINE
  5
1B9C2
  8
0
  6
CONTINUOUS
 62
     3
 10
-94.0000000000000142
 20
75.9999999999999005
 30
-0.0000000000000169
 11
-93.4641016151377642
 21
75.9999999999999005
 31
-0.0000000000000169
210
0.0
220
1.0
230
-0.0000000000000002
  0
LINE
  5
1B9C3
  8
0
  6
CONTINUOUS
 62
     3
 10
-93.4641016151377642
 20
75.9999999999999005
 30
-0.0000000000000169
 11
-86.0000000000000142
 21
75.9999999999999005
 31
-0.0000000000000169
210
0.0
220
1.0
230
-0.0000000000000002
  0
LINE
  5
1B9C4
  8
0
  6
CONTINUOUS
 62
     3
 10
-95.0000000000000142
 20
74.9999999999999005
 30
-0.0000000000000167
 11
-94.3301270189221981
 21
74.9999999999999005
 31
-0.0000000000000167
210
0.0
220
1.0
230
-0.0000000000000002
  0
LINE
  5
1B9C5
  8
0
  6
CONTINUOUS
 62
     3
 10
-94.3301270189222265
 20
74.9999999999999005
 30
-0.0000000000000167
 11
-85.0000000000000142
 21
74.9999999999999005
 31
-0.0000000000000167
210
0.0
220
1.0
230
-0.0000000000000002
  0
LINE
  5
1B9C6
  8
0
  6
CONTINUOUS
 62
     3
 10
-94.0000000000000142
 20
73.9999999999999005
 30
-0.0000000000000164
 11
-93.4641016151377642
 21
73.9999999999999005
 31
-0.0000000000000164
210
0.0
220
1.0
230
-0.0000000000000002
  0
LINE
  5
1B9C7
  8
0
  6
CONTINUOUS
 62
     3
 10
-93.4641016151377642
 20
73.9999999999999005
 30
-0.0000000000000164
 11
-86.0000000000000142
 21
73.9999999999999005
 31
-0.0000000000000164
210
0.0
220
1.0
230
-0.0000000000000002
  0
LINE
  5
1B9C8
  8
0
  6
CONTINUOUS
 62
     3
 10
-95.0000000000000142
 20
72.9999999999999005
 30
-0.0000000000000162
 11
-94.3301270189221981
 21
72.9999999999999005
 31
-0.0000000000000162
210
0.0
220
1.0
230
-0.0000000000000002
  0
LINE
  5
1B9C9
  8
0
  6
CONTINUOUS
 62
     3
 10
-94.3301270189222265
 20
72.9999999999999005
 30
-0.0000000000000162
 11
-85.0000000000000142
 21
72.9999999999999005
 31
-0.0000000000000162
210
0.0
220
1.0
230
-0.0000000000000002
  0
LINE
  5
1B9CA
  8
0
  6
CONTINUOUS
 62
     3
 10
-94.0000000000000142
 20
71.9999999999999005
 30
-0.000000000000016
 11
-93.4641016151377642
 21
71.9999999999999005
 31
-0.000000000000016
210
0.0
220
1.0
230
-0.0000000000000002
  0
LINE
  5
1B9CB
  8
0
  6
CONTINUOUS
 62
     3
 10
-93.4641016151377642
 20
71.9999999999999005
 30
-0.000000000000016
 11
-86.0000000000000142
 21
71.9999999999999005
 31
-0.000000000000016
210
0.0
220
1.0
230
-0.0000000000000002
  0
LINE
  5
1B9CC
  8
0
  6
CONTINUOUS
 62
     3
 10
-94.0000000000000142
 20
95.9999999999999005
 30
-0.0000000000000213
 11
-93.4641016151377642
 21
95.9999999999999005
 31
-0.0000000000000213
210
0.0
220
1.0
230
-0.0000000000000002
  0
LINE
  5
1B9CD
  8
0
  6
CONTINUOUS
 62
     3
 10
-93.4641016151377642
 20
95.9999999999999005
 30
-0.0000000000000213
 11
-86.0000000000000142
 21
95.9999999999999005
 31
-0.0000000000000213
210
0.0
220
1.0
230
-0.0000000000000002
  0
LINE
  5
1B9CE
  8
0
  6
CONTINUOUS
 62
     3
 10
-95.0000000000000142
 20
94.9999999999999147
 30
-0.0000000000000211
 11
-94.3301270189222265
 21
94.9999999999999147
 31
-0.0000000000000211
210
0.0
220
1.0
230
-0.0000000000000002
  0
LINE
  5
1B9CF
  8
0
  6
CONTINUOUS
 62
     3
 10
-94.3301270189222265
 20
94.9999999999999147
 30
-0.0000000000000211
 11
-85.0000000000000142
 21
94.9999999999999147
 31
-0.0000000000000211
210
0.0
220
1.0
230
-0.0000000000000002
  0
LINE
  5
1B9D0
  8
0
  6
CONTINUOUS
 62
     3
 10
-94.0000000000000142
 20
93.9999999999998863
 30
-0.0000000000000209
 11
-93.4641016151377642
 21
93.9999999999998863
 31
-0.0000000000000209
210
0.0
220
1.0
230
-0.0000000000000002
  0
LINE
  5
1B9D1
  8
0
  6
CONTINUOUS
 62
     3
 10
-93.4641016151377642
 20
93.9999999999998863
 30
-0.0000000000000209
 11
-86.0000000000000142
 21
93.9999999999998863
 31
-0.0000000000000209
210
0.0
220
1.0
230
-0.0000000000000002
  0
LINE
  5
1B9D2
  8
0
  6
CONTINUOUS
 62
     3
 10
-95.0000000000000142
 20
92.9999999999999005
 30
-0.0000000000000207
 11
-94.3301270189222265
 21
92.9999999999999005
 31
-0.0000000000000207
210
0.0
220
1.0
230
-0.0000000000000002
  0
LINE
  5
1B9D3
  8
0
  6
CONTINUOUS
 62
     3
 10
-94.3301270189222265
 20
92.9999999999999005
 30
-0.0000000000000207
 11
-85.0000000000000142
 21
92.9999999999999005
 31
-0.0000000000000207
210
0.0
220
1.0
230
-0.0000000000000002
  0
LINE
  5
1B9D4
  8
0
  6
CONTINUOUS
 62
     3
 10
-86.0000000000000142
 20
91.9999999999999005
 30
-0.0000000000000204
 11
-85.0000000000000142
 21
90.9999999999999005
 31
-0.0000000000000202
210
0.0
220
1.0
230
-0.0000000000000002
  0
LINE
  5
1B9D5
  8
0
  6
CONTINUOUS
 62
     3
 10
-94.0000000000000142
 20
91.9999999999999005
 30
-0.0000000000000204
 11
-95.0000000000000142
 21
90.9999999999999005
 31
-0.0000000000000202
210
0.0
220
1.0
230
-0.0000000000000002
  0
LINE
  5
1B9D6
  8
0
  6
CONTINUOUS
 62
     3
 10
-94.0000000000000142
 20
89.9999999999999147
 30
-0.00000000000002
 11
-95.0000000000000142
 21
90.9999999999999005
 31
-0.0000000000000202
210
0.0
220
1.0
230
-0.0000000000000002
  0
LINE
  5
1B9D7
  8
0
  6
CONTINUOUS
 62
     3
 10
-86.0000000000000142
 20
89.9999999999999147
 30
-0.00000000000002
 11
-85.0000000000000142
 21
90.9999999999999005
 31
-0.0000000000000202
210
0.0
220
1.0
230
-0.0000000000000002
  0
LINE
  5
1B9D8
  8
0
  6
CONTINUOUS
 62
     3
 10
-86.0000000000000142
 20
89.9999999999999147
 30
-0.00000000000002
 11
-85.0000000000000142
 21
88.9999999999998863
 31
-0.0000000000000198
210
0.0
220
1.0
230
-0.0000000000000002
  0
LINE
  5
1B9D9
  8
0
  6
CONTINUOUS
 62
     3
 10
-94.0000000000000142
 20
89.9999999999999147
 30
-0.00000000000002
 11
-95.0000000000000142
 21
88.9999999999998863
 31
-0.0000000000000198
210
0.0
220
1.0
230
-0.0000000000000002
  0
LINE
  5
1B9DA
  8
0
  6
CONTINUOUS
 62
     3
 10
-94.0000000000000142
 20
87.9999999999999005
 30
-0.0000000000000195
 11
-95.0000000000000142
 21
88.9999999999998863
 31
-0.0000000000000198
210
0.0
220
1.0
230
-0.0000000000000002
  0
LINE
  5
1B9DB
  8
0
  6
CONTINUOUS
 62
     3
 10
-86.0000000000000142
 20
87.9999999999999005
 30
-0.0000000000000195
 11
-85.0000000000000142
 21
88.9999999999998863
 31
-0.0000000000000198
210
0.0
220
1.0
230
-0.0000000000000002
  0
LINE
  5
1B9DC
  8
0
  6
CONTINUOUS
 62
     3
 10
-86.0000000000000142
 20
87.9999999999999005
 30
-0.0000000000000195
 11
-85.0000000000000142
 21
86.9999999999999005
 31
-0.0000000000000193
210
0.0
220
1.0
230
-0.0000000000000002
  0
LINE
  5
1B9DD
  8
0
  6
CONTINUOUS
 62
     3
 10
-94.0000000000000142
 20
87.9999999999999005
 30
-0.0000000000000195
 11
-95.0000000000000142
 21
86.9999999999999005
 31
-0.0000000000000193
210
0.0
220
1.0
230
-0.0000000000000002
  0
LINE
  5
1B9DE
  8
0
  6
CONTINUOUS
 62
     3
 10
-94.0000000000000142
 20
85.9999999999999005
 30
-0.0000000000000191
 11
-95.0000000000000142
 21
86.9999999999999005
 31
-0.0000000000000193
210
0.0
220
1.0
230
-0.0000000000000002
  0
LINE
  5
1B9DF
  8
0
  6
CONTINUOUS
 62
     3
 10
-86.0000000000000142
 20
85.9999999999999005
 30
-0.0000000000000191
 11
-85.0000000000000142
 21
86.9999999999999005
 31
-0.0000000000000193
210
0.0
220
1.0
230
-0.0000000000000002
  0
LINE
  5
1B9E0
  8
0
  6
CONTINUOUS
 62
     3
 10
-86.0000000000000142
 20
85.9999999999999005
 30
-0.0000000000000191
 11
-85.0000000000000142
 21
84.9999999999999147
 31
-0.0000000000000189
210
0.0
220
1.0
230
-0.0000000000000002
  0
LINE
  5
1B9E1
  8
0
  6
CONTINUOUS
 62
     3
 10
-94.0000000000000142
 20
85.9999999999999005
 30
-0.0000000000000191
 11
-95.0000000000000142
 21
84.9999999999999147
 31
-0.0000000000000189
210
0.0
220
1.0
230
-0.0000000000000002
  0
LINE
  5
1B9E2
  8
0
  6
CONTINUOUS
 62
     3
 10
-94.0000000000000142
 20
83.9999999999998863
 30
-0.0000000000000187
 11
-95.0000000000000142
 21
84.9999999999999147
 31
-0.0000000000000189
210
0.0
220
1.0
230
-0.0000000000000002
  0
LINE
  5
1B9E3
  8
0
  6
CONTINUOUS
 62
     3
 10
-86.0000000000000142
 20
83.9999999999998863
 30
-0.0000000000000187
 11
-85.0000000000000142
 21
84.9999999999999147
 31
-0.0000000000000189
210
0.0
220
1.0
230
-0.0000000000000002
  0
LINE
  5
1B9E4
  8
0
  6
CONTINUOUS
 62
     3
 10
-86.0000000000000142
 20
83.9999999999998863
 30
-0.0000000000000187
 11
-85.0000000000000142
 21
82.9999999999999005
 31
-0.0000000000000184
210
0.0
220
1.0
230
-0.0000000000000002
  0
LINE
  5
1B9E5
  8
0
  6
CONTINUOUS
 62
     3
 10
-94.0000000000000142
 20
83.9999999999998863
 30
-0.0000000000000187
 11
-95.0000000000000142
 21
82.9999999999999005
 31
-0.0000000000000184
210
0.0
220
1.0
230
-0.0000000000000002
  0
LINE
  5
1B9E6
  8
0
  6
CONTINUOUS
 62
     3
 10
-94.0000000000000142
 20
81.9999999999999005
 30
-0.0000000000000182
 11
-95.0000000000000142
 21
82.9999999999999005
 31
-0.0000000000000184
210
0.0
220
1.0
230
-0.0000000000000002
  0
LINE
  5
1B9E7
  8
0
  6
CONTINUOUS
 62
     3
 10
-86.0000000000000142
 20
81.9999999999999005
 30
-0.0000000000000182
 11
-85.0000000000000142
 21
82.9999999999999005
 31
-0.0000000000000184
210
0.0
220
1.0
230
-0.0000000000000002
  0
LINE
  5
1B9E8
  8
0
  6
CONTINUOUS
 62
     3
 10
-86.0000000000000142
 20
81.9999999999999005
 30
-0.0000000000000182
 11
-85.0000000000000142
 21
80.9999999999999005
 31
-0.000000000000018
210
0.0
220
1.0
230
-0.0000000000000002
  0
LINE
  5
1B9E9
  8
0
  6
CONTINUOUS
 62
     3
 10
-94.0000000000000142
 20
81.9999999999999005
 30
-0.0000000000000182
 11
-95.0000000000000142
 21
80.9999999999999005
 31
-0.000000000000018
210
0.0
220
1.0
230
-0.0000000000000002
  0
LINE
  5
1B9EA
  8
0
  6
CONTINUOUS
 62
     3
 10
-94.0000000000000142
 20
79.9999999999999005
 30
-0.0000000000000178
 11
-95.0000000000000142
 21
80.9999999999999005
 31
-0.000000000000018
210
0.0
220
1.0
230
-0.0000000000000002
  0
LINE
  5
1B9EB
  8
0
  6
CONTINUOUS
 62
     3
 10
-86.0000000000000142
 20
79.9999999999999005
 30
-0.0000000000000178
 11
-85.0000000000000142
 21
80.9999999999999005
 31
-0.000000000000018
210
0.0
220
1.0
230
-0.0000000000000002
  0
LINE
  5
1B9EC
  8
0
  6
CONTINUOUS
 62
     3
 10
-86.0000000000000142
 20
79.9999999999999005
 30
-0.0000000000000178
 11
-85.0000000000000142
 21
78.9999999999999005
 31
-0.0000000000000175
210
0.0
220
1.0
230
-0.0000000000000002
  0
LINE
  5
1B9ED
  8
0
  6
CONTINUOUS
 62
     3
 10
-94.0000000000000142
 20
79.9999999999999005
 30
-0.0000000000000178
 11
-95.0000000000000142
 21
78.9999999999999005
 31
-0.0000000000000175
210
0.0
220
1.0
230
-0.0000000000000002
  0
LINE
  5
1B9EE
  8
0
  6
CONTINUOUS
 62
     3
 10
-94.0000000000000142
 20
77.9999999999999005
 30
-0.0000000000000173
 11
-95.0000000000000142
 21
78.9999999999999005
 31
-0.0000000000000175
210
0.0
220
1.0
230
-0.0000000000000002
  0
LINE
  5
1B9EF
  8
0
  6
CONTINUOUS
 62
     3
 10
-86.0000000000000142
 20
77.9999999999999005
 30
-0.0000000000000173
 11
-85.0000000000000142
 21
78.9999999999999005
 31
-0.0000000000000175
210
0.0
220
1.0
230
-0.0000000000000002
  0
LINE
  5
1B9F0
  8
0
  6
CONTINUOUS
 62
     3
 10
-86.0000000000000142
 20
77.9999999999999005
 30
-0.0000000000000173
 11
-85.0000000000000142
 21
76.9999999999999005
 31
-0.0000000000000171
210
0.0
220
1.0
230
-0.0000000000000002
  0
LINE
  5
1B9F1
  8
0
  6
CONTINUOUS
 62
     3
 10
-94.0000000000000142
 20
77.9999999999999005
 30
-0.0000000000000173
 11
-95.0000000000000142
 21
76.9999999999999005
 31
-0.0000000000000171
210
0.0
220
1.0
230
-0.0000000000000002
  0
LINE
  5
1B9F2
  8
0
  6
CONTINUOUS
 62
     3
 10
-94.0000000000000142
 20
75.9999999999999005
 30
-0.0000000000000169
 11
-95.0000000000000142
 21
76.9999999999999005
 31
-0.0000000000000171
210
0.0
220
1.0
230
-0.0000000000000002
  0
LINE
  5
1B9F3
  8
0
  6
CONTINUOUS
 62
     3
 10
-86.0000000000000142
 20
75.9999999999999005
 30
-0.0000000000000169
 11
-85.0000000000000142
 21
76.9999999999999005
 31
-0.0000000000000171
210
0.0
220
1.0
230
-0.0000000000000002
  0
LINE
  5
1B9F4
  8
0
  6
CONTINUOUS
 62
     3
 10
-86.0000000000000142
 20
75.9999999999999005
 30
-0.0000000000000169
 11
-85.0000000000000142
 21
74.9999999999999005
 31
-0.0000000000000167
210
0.0
220
1.0
230
-0.0000000000000002
  0
LINE
  5
1B9F5
  8
0
  6
CONTINUOUS
 62
     3
 10
-94.0000000000000142
 20
75.9999999999999005
 30
-0.0000000000000169
 11
-95.0000000000000142
 21
74.9999999999999005
 31
-0.0000000000000167
210
0.0
220
1.0
230
-0.0000000000000002
  0
LINE
  5
1B9F6
  8
0
  6
CONTINUOUS
 62
     3
 10
-94.0000000000000142
 20
73.9999999999999005
 30
-0.0000000000000164
 11
-95.0000000000000142
 21
74.9999999999999005
 31
-0.0000000000000167
210
0.0
220
1.0
230
-0.0000000000000002
  0
LINE
  5
1B9F7
  8
0
  6
CONTINUOUS
 62
     3
 10
-86.0000000000000142
 20
73.9999999999999005
 30
-0.0000000000000164
 11
-85.0000000000000142
 21
74.9999999999999005
 31
-0.0000000000000167
210
0.0
220
1.0
230
-0.0000000000000002
  0
LINE
  5
1B9F8
  8
0
  6
CONTINUOUS
 62
     3
 10
-86.0000000000000142
 20
73.9999999999999005
 30
-0.0000000000000164
 11
-85.0000000000000142
 21
72.9999999999999005
 31
-0.0000000000000162
210
0.0
220
1.0
230
-0.0000000000000002
  0
LINE
  5
1B9F9
  8
0
  6
CONTINUOUS
 62
     3
 10
-94.0000000000000142
 20
73.9999999999999005
 30
-0.0000000000000164
 11
-95.0000000000000142
 21
72.9999999999999005
 31
-0.0000000000000162
210
0.0
220
1.0
230
-0.0000000000000002
  0
LINE
  5
1B9FA
  8
0
  6
CONTINUOUS
 62
     3
 10
-94.0000000000000142
 20
71.9999999999999005
 30
-0.000000000000016
 11
-95.0000000000000142
 21
72.9999999999999005
 31
-0.0000000000000162
210
0.0
220
1.0
230
-0.0000000000000002
  0
LINE
  5
1B9FB
  8
0
  6
CONTINUOUS
 62
     3
 10
-86.0000000000000142
 20
71.9999999999999005
 30
-0.000000000000016
 11
-85.0000000000000142
 21
72.9999999999999005
 31
-0.0000000000000162
210
0.0
220
1.0
230
-0.0000000000000002
  0
LINE
  5
1B9FC
  8
0
  6
CONTINUOUS
 62
     3
 10
-86.0000000000000142
 20
71.9999999999999005
 30
-0.000000000000016
 11
-85.0000000000000142
 21
70.9999999999999005
 31
-0.0000000000000158
210
0.0
220
1.0
230
-0.0000000000000002
  0
LINE
  5
1B9FD
  8
0
  6
CONTINUOUS
 62
     3
 10
-94.0000000000000142
 20
71.9999999999999005
 30
-0.000000000000016
 11
-95.0000000000000142
 21
70.9999999999999005
 31
-0.0000000000000158
210
0.0
220
1.0
230
-0.0000000000000002
  0
LINE
  5
1B9FE
  8
0
  6
CONTINUOUS
 62
     3
 10
-86.0000000000000142
 20
95.9999999999999005
 30
-0.0000000000000213
 11
-85.0000000000000142
 21
94.9999999999999147
 31
-0.0000000000000211
210
0.0
220
1.0
230
-0.0000000000000002
  0
LINE
  5
1B9FF
  8
0
  6
CONTINUOUS
 62
     3
 10
-94.0000000000000142
 20
95.9999999999999005
 30
-0.0000000000000213
 11
-95.0000000000000142
 21
94.9999999999999147
 31
-0.0000000000000211
210
0.0
220
1.0
230
-0.0000000000000002
  0
LINE
  5
1BA00
  8
0
  6
CONTINUOUS
 62
     3
 10
-94.0000000000000142
 20
93.9999999999998863
 30
-0.0000000000000209
 11
-95.0000000000000142
 21
94.9999999999999147
 31
-0.0000000000000211
210
0.0
220
1.0
230
-0.0000000000000002
  0
LINE
  5
1BA01
  8
0
  6
CONTINUOUS
 62
     3
 10
-86.0000000000000142
 20
93.9999999999998863
 30
-0.0000000000000209
 11
-85.0000000000000142
 21
94.9999999999999147
 31
-0.0000000000000211
210
0.0
220
1.0
230
-0.0000000000000002
  0
LINE
  5
1BA02
  8
0
  6
CONTINUOUS
 62
     3
 10
-86.0000000000000142
 20
93.9999999999998863
 30
-0.0000000000000209
 11
-85.0000000000000142
 21
92.9999999999999005
 31
-0.0000000000000207
210
0.0
220
1.0
230
-0.0000000000000002
  0
LINE
  5
1BA03
  8
0
  6
CONTINUOUS
 62
     3
 10
-94.0000000000000142
 20
93.9999999999998863
 30
-0.0000000000000209
 11
-95.0000000000000142
 21
92.9999999999999005
 31
-0.0000000000000207
210
0.0
220
1.0
230
-0.0000000000000002
  0
LINE
  5
1BA04
  8
0
  6
CONTINUOUS
 62
     3
 10
-94.0000000000000142
 20
91.9999999999999005
 30
-0.0000000000000204
 11
-95.0000000000000142
 21
92.9999999999999005
 31
-0.0000000000000207
210
0.0
220
1.0
230
-0.0000000000000002
  0
LINE
  5
1BA05
  8
0
  6
CONTINUOUS
 62
     3
 10
-86.0000000000000142
 20
91.9999999999999005
 30
-0.0000000000000204
 11
-85.0000000000000142
 21
92.9999999999999005
 31
-0.0000000000000207
210
0.0
220
1.0
230
-0.0000000000000002
  0
LINE
  5
1BA06
  8
0
  6
CONTINUOUS
 62
     3
 10
-49.0000000000000497
 20
91.9999999999999005
 30
-0.0000000000000204
 11
-45.0000000000000568
 21
91.9999999999999005
 31
-0.0000000000000204
210
0.0
220
1.0
230
-0.0000000000000002
  0
LINE
  5
1BA07
  8
0
  6
CONTINUOUS
 62
     3
 10
-45.0000000000000568
 20
91.9999999999999005
 30
-0.0000000000000204
 11
-41.0000000000000426
 21
91.9999999999999005
 31
-0.0000000000000204
210
0.0
220
1.0
230
-0.0000000000000002
  0
LINE
  5
1BA08
  8
0
  6
CONTINUOUS
 62
     3
 10
-50.0000000000000497
 20
90.9999999999999005
 30
-0.0000000000000202
 11
-45.0000000000000568
 21
90.9999999999999005
 31
-0.0000000000000202
210
0.0
220
1.0
230
-0.0000000000000002
  0
LINE
  5
1BA09
  8
0
  6
CONTINUOUS
 62
     3
 10
-45.0000000000000568
 20
90.9999999999999005
 30
-0.0000000000000202
 11
-40.0000000000000497
 21
90.9999999999999005
 31
-0.0000000000000202
210
0.0
220
1.0
230
-0.0000000000000002
  0
LINE
  5
1BA0A
  8
0
  6
CONTINUOUS
 62
     3
 10
-49.0000000000000497
 20
89.9999999999999147
 30
-0.00000000000002
 11
-45.0000000000000568
 21
89.9999999999999147
 31
-0.00000000000002
210
0.0
220
1.0
230
-0.0000000000000002
  0
LINE
  5
1BA0B
  8
0
  6
CONTINUOUS
 62
     3
 10
-45.0000000000000568
 20
89.9999999999999147
 30
-0.00000000000002
 11
-41.0000000000000426
 21
89.9999999999999147
 31
-0.00000000000002
210
0.0
220
1.0
230
-0.0000000000000002
  0
LINE
  5
1BA0C
  8
0
  6
CONTINUOUS
 62
     3
 10
-50.0000000000000497
 20
88.9999999999998863
 30
-0.0000000000000198
 11
-45.0000000000000568
 21
88.9999999999998863
 31
-0.0000000000000198
210
0.0
220
1.0
230
-0.0000000000000002
  0
LINE
  5
1BA0D
  8
0
  6
CONTINUOUS
 62
     3
 10
-45.0000000000000568
 20
88.9999999999998863
 30
-0.0000000000000198
 11
-40.0000000000000497
 21
88.9999999999998863
 31
-0.0000000000000198
210
0.0
220
1.0
230
-0.0000000000000002
  0
LINE
  5
1BA0E
  8
0
  6
CONTINUOUS
 62
     3
 10
-49.0000000000000497
 20
87.9999999999999005
 30
-0.0000000000000195
 11
-45.0000000000000568
 21
87.9999999999999005
 31
-0.0000000000000195
210
0.0
220
1.0
230
-0.0000000000000002
  0
LINE
  5
1BA0F
  8
0
  6
CONTINUOUS
 62
     3
 10
-45.0000000000000568
 20
87.9999999999999005
 30
-0.0000000000000195
 11
-41.0000000000000426
 21
87.9999999999999005
 31
-0.0000000000000195
210
0.0
220
1.0
230
-0.0000000000000002
  0
LINE
  5
1BA10
  8
0
  6
CONTINUOUS
 62
     3
 10
-50.0000000000000497
 20
86.9999999999999005
 30
-0.0000000000000193
 11
-45.0000000000000568
 21
86.9999999999999005
 31
-0.0000000000000193
210
0.0
220
1.0
230
-0.0000000000000002
  0
LINE
  5
1BA11
  8
0
  6
CONTINUOUS
 62
     3
 10
-45.0000000000000568
 20
86.9999999999999005
 30
-0.0000000000000193
 11
-40.0000000000000497
 21
86.9999999999999005
 31
-0.0000000000000193
210
0.0
220
1.0
230
-0.0000000000000002
  0
LINE
  5
1BA12
  8
0
  6
CONTINUOUS
 62
     3
 10
-49.0000000000000497
 20
85.9999999999999005
 30
-0.0000000000000191
 11
-45.0000000000000568
 21
85.9999999999999005
 31
-0.0000000000000191
210
0.0
220
1.0
230
-0.0000000000000002
  0
LINE
  5
1BA13
  8
0
  6
CONTINUOUS
 62
     3
 10
-45.0000000000000568
 20
85.9999999999999005
 30
-0.0000000000000191
 11
-41.0000000000000426
 21
85.9999999999999005
 31
-0.0000000000000191
210
0.0
220
1.0
230
-0.0000000000000002
  0
LINE
  5
1BA14
  8
0
  6
CONTINUOUS
 62
     3
 10
-50.0000000000000497
 20
84.9999999999999147
 30
-0.0000000000000189
 11
-45.0000000000000568
 21
84.9999999999999147
 31
-0.0000000000000189
210
0.0
220
1.0
230
-0.0000000000000002
  0
LINE
  5
1BA15
  8
0
  6
CONTINUOUS
 62
     3
 10
-45.0000000000000568
 20
84.9999999999999147
 30
-0.0000000000000189
 11
-40.0000000000000497
 21
84.9999999999999147
 31
-0.0000000000000189
210
0.0
220
1.0
230
-0.0000000000000002
  0
LINE
  5
1BA16
  8
0
  6
CONTINUOUS
 62
     3
 10
-49.0000000000000497
 20
83.9999999999998863
 30
-0.0000000000000187
 11
-45.0000000000000568
 21
83.9999999999998863
 31
-0.0000000000000187
210
0.0
220
1.0
230
-0.0000000000000002
  0
LINE
  5
1BA17
  8
0
  6
CONTINUOUS
 62
     3
 10
-45.0000000000000568
 20
83.9999999999998863
 30
-0.0000000000000187
 11
-41.0000000000000426
 21
83.9999999999998863
 31
-0.0000000000000187
210
0.0
220
1.0
230
-0.0000000000000002
  0
LINE
  5
1BA18
  8
0
  6
CONTINUOUS
 62
     3
 10
-50.0000000000000497
 20
82.9999999999999005
 30
-0.0000000000000184
 11
-45.0000000000000568
 21
82.9999999999999005
 31
-0.0000000000000184
210
0.0
220
1.0
230
-0.0000000000000002
  0
LINE
  5
1BA19
  8
0
  6
CONTINUOUS
 62
     3
 10
-45.0000000000000568
 20
82.9999999999999005
 30
-0.0000000000000184
 11
-40.0000000000000497
 21
82.9999999999999005
 31
-0.0000000000000184
210
0.0
220
1.0
230
-0.0000000000000002
  0
LINE
  5
1BA1A
  8
0
  6
CONTINUOUS
 62
     3
 10
-49.0000000000000497
 20
81.9999999999999005
 30
-0.0000000000000182
 11
-45.0000000000000568
 21
81.9999999999999005
 31
-0.0000000000000182
210
0.0
220
1.0
230
-0.0000000000000002
  0
LINE
  5
1BA1B
  8
0
  6
CONTINUOUS
 62
     3
 10
-45.0000000000000568
 20
81.9999999999999005
 30
-0.0000000000000182
 11
-41.0000000000000426
 21
81.9999999999999005
 31
-0.0000000000000182
210
0.0
220
1.0
230
-0.0000000000000002
  0
LINE
  5
1BA1C
  8
0
  6
CONTINUOUS
 62
     3
 10
-50.0000000000000497
 20
80.9999999999999005
 30
-0.000000000000018
 11
-45.0000000000000568
 21
80.9999999999999005
 31
-0.000000000000018
210
0.0
220
1.0
230
-0.0000000000000002
  0
LINE
  5
1BA1D
  8
0
  6
CONTINUOUS
 62
     3
 10
-45.0000000000000568
 20
80.9999999999999005
 30
-0.000000000000018
 11
-40.0000000000000497
 21
80.9999999999999005
 31
-0.000000000000018
210
0.0
220
1.0
230
-0.0000000000000002
  0
LINE
  5
1BA1E
  8
0
  6
CONTINUOUS
 62
     3
 10
-49.0000000000000497
 20
79.9999999999999005
 30
-0.0000000000000178
 11
-45.0000000000000568
 21
79.9999999999999005
 31
-0.0000000000000178
210
0.0
220
1.0
230
-0.0000000000000002
  0
LINE
  5
1BA1F
  8
0
  6
CONTINUOUS
 62
     3
 10
-45.0000000000000568
 20
79.9999999999999005
 30
-0.0000000000000178
 11
-41.0000000000000426
 21
79.9999999999999005
 31
-0.0000000000000178
210
0.0
220
1.0
230
-0.0000000000000002
  0
LINE
  5
1BA20
  8
0
  6
CONTINUOUS
 62
     3
 10
-50.0000000000000497
 20
78.9999999999999005
 30
-0.0000000000000175
 11
-45.0000000000000568
 21
78.9999999999999005
 31
-0.0000000000000175
210
0.0
220
1.0
230
-0.0000000000000002
  0
LINE
  5
1BA21
  8
0
  6
CONTINUOUS
 62
     3
 10
-45.0000000000000568
 20
78.9999999999999005
 30
-0.0000000000000175
 11
-40.0000000000000497
 21
78.9999999999999005
 31
-0.0000000000000175
210
0.0
220
1.0
230
-0.0000000000000002
  0
LINE
  5
1BA22
  8
0
  6
CONTINUOUS
 62
     3
 10
-49.0000000000000497
 20
77.9999999999999005
 30
-0.0000000000000173
 11
-45.0000000000000568
 21
77.9999999999999005
 31
-0.0000000000000173
210
0.0
220
1.0
230
-0.0000000000000002
  0
LINE
  5
1BA23
  8
0
  6
CONTINUOUS
 62
     3
 10
-45.0000000000000568
 20
77.9999999999999005
 30
-0.0000000000000173
 11
-41.0000000000000426
 21
77.9999999999999005
 31
-0.0000000000000173
210
0.0
220
1.0
230
-0.0000000000000002
  0
LINE
  5
1BA24
  8
0
  6
CONTINUOUS
 62
     3
 10
-50.0000000000000497
 20
76.9999999999999005
 30
-0.0000000000000171
 11
-45.0000000000000568
 21
76.9999999999999005
 31
-0.0000000000000171
210
0.0
220
1.0
230
-0.0000000000000002
  0
LINE
  5
1BA25
  8
0
  6
CONTINUOUS
 62
     3
 10
-45.0000000000000568
 20
76.9999999999999005
 30
-0.0000000000000171
 11
-40.0000000000000497
 21
76.9999999999999005
 31
-0.0000000000000171
210
0.0
220
1.0
230
-0.0000000000000002
  0
LINE
  5
1BA26
  8
0
  6
CONTINUOUS
 62
     3
 10
-49.0000000000000497
 20
75.9999999999999005
 30
-0.0000000000000169
 11
-45.0000000000000568
 21
75.9999999999999005
 31
-0.0000000000000169
210
0.0
220
1.0
230
-0.0000000000000002
  0
LINE
  5
1BA27
  8
0
  6
CONTINUOUS
 62
     3
 10
-45.0000000000000568
 20
75.9999999999999005
 30
-0.0000000000000169
 11
-41.0000000000000426
 21
75.9999999999999005
 31
-0.0000000000000169
210
0.0
220
1.0
230
-0.0000000000000002
  0
LINE
  5
1BA28
  8
0
  6
CONTINUOUS
 62
     3
 10
-50.0000000000000497
 20
74.9999999999999005
 30
-0.0000000000000167
 11
-45.0000000000000568
 21
74.9999999999999005
 31
-0.0000000000000167
210
0.0
220
1.0
230
-0.0000000000000002
  0
LINE
  5
1BA29
  8
0
  6
CONTINUOUS
 62
     3
 10
-45.0000000000000568
 20
74.9999999999999005
 30
-0.0000000000000167
 11
-40.0000000000000497
 21
74.9999999999999005
 31
-0.0000000000000167
210
0.0
220
1.0
230
-0.0000000000000002
  0
LINE
  5
1BA2A
  8
0
  6
CONTINUOUS
 62
     3
 10
-49.0000000000000497
 20
73.9999999999999005
 30
-0.0000000000000164
 11
-45.0000000000000568
 21
73.9999999999999005
 31
-0.0000000000000164
210
0.0
220
1.0
230
-0.0000000000000002
  0
LINE
  5
1BA2B
  8
0
  6
CONTINUOUS
 62
     3
 10
-45.0000000000000568
 20
73.9999999999999005
 30
-0.0000000000000164
 11
-41.0000000000000426
 21
73.9999999999999005
 31
-0.0000000000000164
210
0.0
220
1.0
230
-0.0000000000000002
  0
LINE
  5
1BA2C
  8
0
  6
CONTINUOUS
 62
     3
 10
-50.0000000000000497
 20
72.9999999999999005
 30
-0.0000000000000162
 11
-45.0000000000000568
 21
72.9999999999999005
 31
-0.0000000000000162
210
0.0
220
1.0
230
-0.0000000000000002
  0
LINE
  5
1BA2D
  8
0
  6
CONTINUOUS
 62
     3
 10
-45.0000000000000568
 20
72.9999999999999005
 30
-0.0000000000000162
 11
-40.0000000000000497
 21
72.9999999999999005
 31
-0.0000000000000162
210
0.0
220
1.0
230
-0.0000000000000002
  0
LINE
  5
1BA2E
  8
0
  6
CONTINUOUS
 62
     3
 10
-49.0000000000000497
 20
71.9999999999999005
 30
-0.000000000000016
 11
-45.0000000000000568
 21
71.9999999999999005
 31
-0.000000000000016
210
0.0
220
1.0
230
-0.0000000000000002
  0
LINE
  5
1BA2F
  8
0
  6
CONTINUOUS
 62
     3
 10
-45.0000000000000568
 20
71.9999999999999005
 30
-0.000000000000016
 11
-41.0000000000000426
 21
71.9999999999999005
 31
-0.000000000000016
210
0.0
220
1.0
230
-0.0000000000000002
  0
LINE
  5
1BA30
  8
0
  6
CONTINUOUS
 62
     3
 10
-49.0000000000000497
 20
95.9999999999999005
 30
-0.0000000000000213
 11
-45.0000000000000568
 21
95.9999999999999005
 31
-0.0000000000000213
210
0.0
220
1.0
230
-0.0000000000000002
  0
LINE
  5
1BA31
  8
0
  6
CONTINUOUS
 62
     3
 10
-45.0000000000000568
 20
95.9999999999999005
 30
-0.0000000000000213
 11
-41.0000000000000426
 21
95.9999999999999005
 31
-0.0000000000000213
210
0.0
220
1.0
230
-0.0000000000000002
  0
LINE
  5
1BA32
  8
0
  6
CONTINUOUS
 62
     3
 10
-50.0000000000000497
 20
94.9999999999999147
 30
-0.0000000000000211
 11
-45.0000000000000568
 21
94.9999999999999147
 31
-0.0000000000000211
210
0.0
220
1.0
230
-0.0000000000000002
  0
LINE
  5
1BA33
  8
0
  6
CONTINUOUS
 62
     3
 10
-45.0000000000000568
 20
94.9999999999999147
 30
-0.0000000000000211
 11
-40.0000000000000497
 21
94.9999999999999147
 31
-0.0000000000000211
210
0.0
220
1.0
230
-0.0000000000000002
  0
LINE
  5
1BA34
  8
0
  6
CONTINUOUS
 62
     3
 10
-49.0000000000000497
 20
93.9999999999998863
 30
-0.0000000000000209
 11
-45.0000000000000568
 21
93.9999999999998863
 31
-0.0000000000000209
210
0.0
220
1.0
230
-0.0000000000000002
  0
LINE
  5
1BA35
  8
0
  6
CONTINUOUS
 62
     3
 10
-45.0000000000000568
 20
93.9999999999998863
 30
-0.0000000000000209
 11
-41.0000000000000426
 21
93.9999999999998863
 31
-0.0000000000000209
210
0.0
220
1.0
230
-0.0000000000000002
  0
LINE
  5
1BA36
  8
0
  6
CONTINUOUS
 62
     3
 10
-50.0000000000000497
 20
92.9999999999999005
 30
-0.0000000000000207
 11
-45.0000000000000568
 21
92.9999999999999005
 31
-0.0000000000000207
210
0.0
220
1.0
230
-0.0000000000000002
  0
LINE
  5
1BA37
  8
0
  6
CONTINUOUS
 62
     3
 10
-45.0000000000000568
 20
92.9999999999999005
 30
-0.0000000000000207
 11
-40.0000000000000497
 21
92.9999999999999005
 31
-0.0000000000000207
210
0.0
220
1.0
230
-0.0000000000000002
  0
LINE
  5
1BA38
  8
0
  6
CONTINUOUS
 62
     3
 10
-41.0000000000000497
 20
91.9999999999999005
 30
-0.0000000000000204
 11
-40.0000000000000497
 21
90.9999999999999005
 31
-0.0000000000000202
210
0.0
220
1.0
230
-0.0000000000000002
  0
LINE
  5
1BA39
  8
0
  6
CONTINUOUS
 62
     3
 10
-49.0000000000000426
 20
91.9999999999999005
 30
-0.0000000000000204
 11
-50.0000000000000497
 21
90.9999999999999005
 31
-0.0000000000000202
210
0.0
220
1.0
230
-0.0000000000000002
  0
LINE
  5
1BA3A
  8
0
  6
CONTINUOUS
 62
     3
 10
-49.0000000000000426
 20
89.9999999999999147
 30
-0.00000000000002
 11
-50.0000000000000497
 21
90.9999999999999005
 31
-0.0000000000000202
210
0.0
220
1.0
230
-0.0000000000000002
  0
LINE
  5
1BA3B
  8
0
  6
CONTINUOUS
 62
     3
 10
-41.0000000000000497
 20
89.9999999999999147
 30
-0.00000000000002
 11
-40.0000000000000497
 21
90.9999999999999005
 31
-0.0000000000000202
210
0.0
220
1.0
230
-0.0000000000000002
  0
LINE
  5
1BA3C
  8
0
  6
CONTINUOUS
 62
     3
 10
-41.0000000000000497
 20
89.9999999999999147
 30
-0.00000000000002
 11
-40.0000000000000497
 21
88.9999999999998863
 31
-0.0000000000000198
210
0.0
220
1.0
230
-0.0000000000000002
  0
LINE
  5
1BA3D
  8
0
  6
CONTINUOUS
 62
     3
 10
-49.0000000000000426
 20
89.9999999999999147
 30
-0.00000000000002
 11
-50.0000000000000497
 21
88.9999999999998863
 31
-0.0000000000000198
210
0.0
220
1.0
230
-0.0000000000000002
  0
LINE
  5
1BA3E
  8
0
  6
CONTINUOUS
 62
     3
 10
-49.0000000000000426
 20
87.9999999999999005
 30
-0.0000000000000195
 11
-50.0000000000000497
 21
88.9999999999998863
 31
-0.0000000000000198
210
0.0
220
1.0
230
-0.0000000000000002
  0
LINE
  5
1BA3F
  8
0
  6
CONTINUOUS
 62
     3
 10
-41.0000000000000497
 20
87.9999999999999005
 30
-0.0000000000000195
 11
-40.0000000000000497
 21
88.9999999999998863
 31
-0.0000000000000198
210
0.0
220
1.0
230
-0.0000000000000002
  0
LINE
  5
1BA40
  8
0
  6
CONTINUOUS
 62
     3
 10
-41.0000000000000497
 20
87.9999999999999005
 30
-0.0000000000000195
 11
-40.0000000000000497
 21
86.9999999999999005
 31
-0.0000000000000193
210
0.0
220
1.0
230
-0.0000000000000002
  0
LINE
  5
1BA41
  8
0
  6
CONTINUOUS
 62
     3
 10
-49.0000000000000426
 20
87.9999999999999005
 30
-0.0000000000000195
 11
-50.0000000000000497
 21
86.9999999999999005
 31
-0.0000000000000193
210
0.0
220
1.0
230
-0.0000000000000002
  0
LINE
  5
1BA42
  8
0
  6
CONTINUOUS
 62
     3
 10
-49.0000000000000426
 20
85.9999999999999005
 30
-0.0000000000000191
 11
-50.0000000000000497
 21
86.9999999999999005
 31
-0.0000000000000193
210
0.0
220
1.0
230
-0.0000000000000002
  0
LINE
  5
1BA43
  8
0
  6
CONTINUOUS
 62
     3
 10
-41.0000000000000497
 20
85.9999999999999005
 30
-0.0000000000000191
 11
-40.0000000000000497
 21
86.9999999999999005
 31
-0.0000000000000193
210
0.0
220
1.0
230
-0.0000000000000002
  0
LINE
  5
1BA44
  8
0
  6
CONTINUOUS
 62
     3
 10
-41.0000000000000497
 20
85.9999999999999005
 30
-0.0000000000000191
 11
-40.0000000000000497
 21
84.9999999999999147
 31
-0.0000000000000189
210
0.0
220
1.0
230
-0.0000000000000002
  0
LINE
  5
1BA45
  8
0
  6
CONTINUOUS
 62
     3
 10
-49.0000000000000426
 20
85.9999999999999005
 30
-0.0000000000000191
 11
-50.0000000000000497
 21
84.9999999999999147
 31
-0.0000000000000189
210
0.0
220
1.0
230
-0.0000000000000002
  0
LINE
  5
1BA46
  8
0
  6
CONTINUOUS
 62
     3
 10
-49.0000000000000426
 20
83.9999999999998863
 30
-0.0000000000000187
 11
-50.0000000000000497
 21
84.9999999999999147
 31
-0.0000000000000189
210
0.0
220
1.0
230
-0.0000000000000002
  0
LINE
  5
1BA47
  8
0
  6
CONTINUOUS
 62
     3
 10
-41.0000000000000497
 20
83.9999999999998863
 30
-0.0000000000000187
 11
-40.0000000000000497
 21
84.9999999999999147
 31
-0.0000000000000189
210
0.0
220
1.0
230
-0.0000000000000002
  0
LINE
  5
1BA48
  8
0
  6
CONTINUOUS
 62
     3
 10
-41.0000000000000497
 20
83.9999999999998863
 30
-0.0000000000000187
 11
-40.0000000000000497
 21
82.9999999999999005
 31
-0.0000000000000184
210
0.0
220
1.0
230
-0.0000000000000002
  0
LINE
  5
1BA49
  8
0
  6
CONTINUOUS
 62
     3
 10
-49.0000000000000426
 20
83.9999999999998863
 30
-0.0000000000000187
 11
-50.0000000000000497
 21
82.9999999999999005
 31
-0.0000000000000184
210
0.0
220
1.0
230
-0.0000000000000002
  0
LINE
  5
1BA4A
  8
0
  6
CONTINUOUS
 62
     3
 10
-49.0000000000000426
 20
81.9999999999999005
 30
-0.0000000000000182
 11
-50.0000000000000497
 21
82.9999999999999005
 31
-0.0000000000000184
210
0.0
220
1.0
230
-0.0000000000000002
  0
LINE
  5
1BA4B
  8
0
  6
CONTINUOUS
 62
     3
 10
-41.0000000000000497
 20
81.9999999999999005
 30
-0.0000000000000182
 11
-40.0000000000000497
 21
82.9999999999999005
 31
-0.0000000000000184
210
0.0
220
1.0
230
-0.0000000000000002
  0
LINE
  5
1BA4C
  8
0
  6
CONTINUOUS
 62
     3
 10
-41.0000000000000497
 20
81.9999999999999005
 30
-0.0000000000000182
 11
-40.0000000000000497
 21
80.9999999999999005
 31
-0.000000000000018
210
0.0
220
1.0
230
-0.0000000000000002
  0
LINE
  5
1BA4D
  8
0
  6
CONTINUOUS
 62
     3
 10
-49.0000000000000426
 20
81.9999999999999005
 30
-0.0000000000000182
 11
-50.0000000000000497
 21
80.9999999999999005
 31
-0.000000000000018
210
0.0
220
1.0
230
-0.0000000000000002
  0
LINE
  5
1BA4E
  8
0
  6
CONTINUOUS
 62
     3
 10
-49.0000000000000426
 20
79.9999999999999005
 30
-0.0000000000000178
 11
-50.0000000000000497
 21
80.9999999999999005
 31
-0.000000000000018
210
0.0
220
1.0
230
-0.0000000000000002
  0
LINE
  5
1BA4F
  8
0
  6
CONTINUOUS
 62
     3
 10
-41.0000000000000497
 20
79.9999999999999005
 30
-0.0000000000000178
 11
-40.0000000000000497
 21
80.9999999999999005
 31
-0.000000000000018
210
0.0
220
1.0
230
-0.0000000000000002
  0
LINE
  5
1BA50
  8
0
  6
CONTINUOUS
 62
     3
 10
-41.0000000000000497
 20
79.9999999999999005
 30
-0.0000000000000178
 11
-40.0000000000000497
 21
78.9999999999999005
 31
-0.0000000000000175
210
0.0
220
1.0
230
-0.0000000000000002
  0
LINE
  5
1BA51
  8
0
  6
CONTINUOUS
 62
     3
 10
-49.0000000000000426
 20
79.9999999999999005
 30
-0.0000000000000178
 11
-50.0000000000000497
 21
78.9999999999999005
 31
-0.0000000000000175
210
0.0
220
1.0
230
-0.0000000000000002
  0
LINE
  5
1BA52
  8
0
  6
CONTINUOUS
 62
     3
 10
-49.0000000000000426
 20
77.9999999999999005
 30
-0.0000000000000173
 11
-50.0000000000000497
 21
78.9999999999999005
 31
-0.0000000000000175
210
0.0
220
1.0
230
-0.0000000000000002
  0
LINE
  5
1BA53
  8
0
  6
CONTINUOUS
 62
     3
 10
-41.0000000000000497
 20
77.9999999999999005
 30
-0.0000000000000173
 11
-40.0000000000000497
 21
78.9999999999999005
 31
-0.0000000000000175
210
0.0
220
1.0
230
-0.0000000000000002
  0
LINE
  5
1BA54
  8
0
  6
CONTINUOUS
 62
     3
 10
-41.0000000000000497
 20
77.9999999999999005
 30
-0.0000000000000173
 11
-40.0000000000000497
 21
76.9999999999999005
 31
-0.0000000000000171
210
0.0
220
1.0
230
-0.0000000000000002
  0
LINE
  5
1BA55
  8
0
  6
CONTINUOUS
 62
     3
 10
-49.0000000000000426
 20
77.9999999999999005
 30
-0.0000000000000173
 11
-50.0000000000000497
 21
76.9999999999999005
 31
-0.0000000000000171
210
0.0
220
1.0
230
-0.0000000000000002
  0
LINE
  5
1BA56
  8
0
  6
CONTINUOUS
 62
     3
 10
-49.0000000000000426
 20
75.9999999999999005
 30
-0.0000000000000169
 11
-50.0000000000000497
 21
76.9999999999999005
 31
-0.0000000000000171
210
0.0
220
1.0
230
-0.0000000000000002
  0
LINE
  5
1BA57
  8
0
  6
CONTINUOUS
 62
     3
 10
-41.0000000000000497
 20
75.9999999999999005
 30
-0.0000000000000169
 11
-40.0000000000000497
 21
76.9999999999999005
 31
-0.0000000000000171
210
0.0
220
1.0
230
-0.0000000000000002
  0
LINE
  5
1BA58
  8
0
  6
CONTINUOUS
 62
     3
 10
-41.0000000000000497
 20
75.9999999999999005
 30
-0.0000000000000169
 11
-40.0000000000000497
 21
74.9999999999999005
 31
-0.0000000000000167
210
0.0
220
1.0
230
-0.0000000000000002
  0
LINE
  5
1BA59
  8
0
  6
CONTINUOUS
 62
     3
 10
-49.0000000000000426
 20
75.9999999999999005
 30
-0.0000000000000169
 11
-50.0000000000000497
 21
74.9999999999999005
 31
-0.0000000000000167
210
0.0
220
1.0
230
-0.0000000000000002
  0
LINE
  5
1BA5A
  8
0
  6
CONTINUOUS
 62
     3
 10
-49.0000000000000426
 20
73.9999999999999005
 30
-0.0000000000000164
 11
-50.0000000000000497
 21
74.9999999999999005
 31
-0.0000000000000167
210
0.0
220
1.0
230
-0.0000000000000002
  0
LINE
  5
1BA5B
  8
0
  6
CONTINUOUS
 62
     3
 10
-41.0000000000000497
 20
73.9999999999999005
 30
-0.0000000000000164
 11
-40.0000000000000497
 21
74.9999999999999005
 31
-0.0000000000000167
210
0.0
220
1.0
230
-0.0000000000000002
  0
LINE
  5
1BA5C
  8
0
  6
CONTINUOUS
 62
     3
 10
-41.0000000000000497
 20
73.9999999999999005
 30
-0.0000000000000164
 11
-40.0000000000000497
 21
72.9999999999999005
 31
-0.0000000000000162
210
0.0
220
1.0
230
-0.0000000000000002
  0
LINE
  5
1BA5D
  8
0
  6
CONTINUOUS
 62
     3
 10
-49.0000000000000426
 20
73.9999999999999005
 30
-0.0000000000000164
 11
-50.0000000000000497
 21
72.9999999999999005
 31
-0.0000000000000162
210
0.0
220
1.0
230
-0.0000000000000002
  0
LINE
  5
1BA5E
  8
0
  6
CONTINUOUS
 62
     3
 10
-49.0000000000000426
 20
71.9999999999999005
 30
-0.000000000000016
 11
-50.0000000000000497
 21
72.9999999999999005
 31
-0.0000000000000162
210
0.0
220
1.0
230
-0.0000000000000002
  0
LINE
  5
1BA5F
  8
0
  6
CONTINUOUS
 62
     3
 10
-41.0000000000000497
 20
71.9999999999999005
 30
-0.000000000000016
 11
-40.0000000000000497
 21
72.9999999999999005
 31
-0.0000000000000162
210
0.0
220
1.0
230
-0.0000000000000002
  0
LINE
  5
1BA60
  8
0
  6
CONTINUOUS
 62
     3
 10
-41.0000000000000497
 20
71.9999999999999005
 30
-0.000000000000016
 11
-40.0000000000000497
 21
70.9999999999999005
 31
-0.0000000000000158
210
0.0
220
1.0
230
-0.0000000000000002
  0
LINE
  5
1BA61
  8
0
  6
CONTINUOUS
 62
     3
 10
-49.0000000000000426
 20
71.9999999999999005
 30
-0.000000000000016
 11
-50.0000000000000497
 21
70.9999999999999005
 31
-0.0000000000000158
210
0.0
220
1.0
230
-0.0000000000000002
  0
LINE
  5
1BA62
  8
0
  6
CONTINUOUS
 62
     3
 10
-41.0000000000000497
 20
95.9999999999999005
 30
-0.0000000000000213
 11
-40.0000000000000497
 21
94.9999999999999147
 31
-0.0000000000000211
210
0.0
220
1.0
230
-0.0000000000000002
  0
LINE
  5
1BA63
  8
0
  6
CONTINUOUS
 62
     3
 10
-49.0000000000000426
 20
95.9999999999999005
 30
-0.0000000000000213
 11
-50.0000000000000497
 21
94.9999999999999147
 31
-0.0000000000000211
210
0.0
220
1.0
230
-0.0000000000000002
  0
LINE
  5
1BA64
  8
0
  6
CONTINUOUS
 62
     3
 10
-49.0000000000000426
 20
93.9999999999998863
 30
-0.0000000000000209
 11
-50.0000000000000497
 21
94.9999999999999147
 31
-0.0000000000000211
210
0.0
220
1.0
230
-0.0000000000000002
  0
LINE
  5
1BA65
  8
0
  6
CONTINUOUS
 62
     3
 10
-41.0000000000000497
 20
93.9999999999998863
 30
-0.0000000000000209
 11
-40.0000000000000497
 21
94.9999999999999147
 31
-0.0000000000000211
210
0.0
220
1.0
230
-0.0000000000000002
  0
LINE
  5
1BA66
  8
0
  6
CONTINUOUS
 62
     3
 10
-41.0000000000000497
 20
93.9999999999998863
 30
-0.0000000000000209
 11
-40.0000000000000497
 21
92.9999999999999005
 31
-0.0000000000000207
210
0.0
220
1.0
230
-0.0000000000000002
  0
LINE
  5
1BA67
  8
0
  6
CONTINUOUS
 62
     3
 10
-49.0000000000000426
 20
93.9999999999998863
 30
-0.0000000000000209
 11
-50.0000000000000497
 21
92.9999999999999005
 31
-0.0000000000000207
210
0.0
220
1.0
230
-0.0000000000000002
  0
LINE
  5
1BA68
  8
0
  6
CONTINUOUS
 62
     3
 10
-49.0000000000000426
 20
91.9999999999999005
 30
-0.0000000000000204
 11
-50.0000000000000497
 21
92.9999999999999005
 31
-0.0000000000000207
210
0.0
220
1.0
230
-0.0000000000000002
  0
LINE
  5
1BA69
  8
0
  6
CONTINUOUS
 62
     3
 10
-41.0000000000000497
 20
91.9999999999999005
 30
-0.0000000000000204
 11
-40.0000000000000497
 21
92.9999999999999005
 31
-0.0000000000000207
210
0.0
220
1.0
230
-0.0000000000000002
  0
LINE
  5
1BA6A
  8
0
  6
CONTINUOUS
 62
     3
 10
40.9999999999999574
 20
91.9999999999999005
 30
-0.0000000000000204
 11
48.4641016151377002
 21
91.9999999999999005
 31
-0.0000000000000204
210
0.0
220
1.0
230
-0.0000000000000002
  0
LINE
  5
1BA6B
  8
0
  6
CONTINUOUS
 62
     3
 10
48.4641016151377002
 20
91.9999999999999005
 30
-0.0000000000000204
 11
48.9999999999999503
 21
91.9999999999999005
 31
-0.0000000000000204
210
0.0
220
1.0
230
-0.0000000000000002
  0
LINE
  5
1BA6C
  8
0
  6
CONTINUOUS
 62
     3
 10
39.9999999999999503
 20
90.9999999999999005
 30
-0.0000000000000202
 11
49.330127018922127
 21
90.9999999999999005
 31
-0.0000000000000202
210
0.0
220
1.0
230
-0.0000000000000002
  0
LINE
  5
1BA6D
  8
0
  6
CONTINUOUS
 62
     3
 10
49.3301270189221412
 20
90.9999999999999005
 30
-0.0000000000000202
 11
49.9999999999999503
 21
90.9999999999999005
 31
-0.0000000000000202
210
0.0
220
1.0
230
-0.0000000000000002
  0
LINE
  5
1BA6E
  8
0
  6
CONTINUOUS
 62
     3
 10
40.9999999999999574
 20
89.9999999999999147
 30
-0.00000000000002
 11
48.4641016151377002
 21
89.9999999999999147
 31
-0.00000000000002
210
0.0
220
1.0
230
-0.0000000000000002
  0
LINE
  5
1BA6F
  8
0
  6
CONTINUOUS
 62
     3
 10
48.4641016151377002
 20
89.9999999999999147
 30
-0.00000000000002
 11
48.9999999999999503
 21
89.9999999999999147
 31
-0.00000000000002
210
0.0
220
1.0
230
-0.0000000000000002
  0
LINE
  5
1BA70
  8
0
  6
CONTINUOUS
 62
     3
 10
39.9999999999999503
 20
88.9999999999998863
 30
-0.0000000000000198
 11
49.330127018922127
 21
88.9999999999998863
 31
-0.0000000000000198
210
0.0
220
1.0
230
-0.0000000000000002
  0
LINE
  5
1BA71
  8
0
  6
CONTINUOUS
 62
     3
 10
49.3301270189221412
 20
88.9999999999998863
 30
-0.0000000000000198
 11
49.9999999999999503
 21
88.9999999999998863
 31
-0.0000000000000198
210
0.0
220
1.0
230
-0.0000000000000002
  0
LINE
  5
1BA72
  8
0
  6
CONTINUOUS
 62
     3
 10
40.9999999999999574
 20
87.9999999999999005
 30
-0.0000000000000195
 11
48.4641016151377002
 21
87.9999999999999005
 31
-0.0000000000000195
210
0.0
220
1.0
230
-0.0000000000000002
  0
LINE
  5
1BA73
  8
0
  6
CONTINUOUS
 62
     3
 10
48.4641016151377002
 20
87.9999999999999005
 30
-0.0000000000000195
 11
48.9999999999999503
 21
87.9999999999999005
 31
-0.0000000000000195
210
0.0
220
1.0
230
-0.0000000000000002
  0
LINE
  5
1BA74
  8
0
  6
CONTINUOUS
 62
     3
 10
39.9999999999999503
 20
86.9999999999999005
 30
-0.0000000000000193
 11
49.330127018922127
 21
86.9999999999999005
 31
-0.0000000000000193
210
0.0
220
1.0
230
-0.0000000000000002
  0
LINE
  5
1BA75
  8
0
  6
CONTINUOUS
 62
     3
 10
49.3301270189221412
 20
86.9999999999999005
 30
-0.0000000000000193
 11
49.9999999999999503
 21
86.9999999999999005
 31
-0.0000000000000193
210
0.0
220
1.0
230
-0.0000000000000002
  0
LINE
  5
1BA76
  8
0
  6
CONTINUOUS
 62
     3
 10
40.9999999999999574
 20
85.9999999999999005
 30
-0.0000000000000191
 11
48.4641016151377002
 21
85.9999999999999005
 31
-0.0000000000000191
210
0.0
220
1.0
230
-0.0000000000000002
  0
LINE
  5
1BA77
  8
0
  6
CONTINUOUS
 62
     3
 10
48.4641016151377002
 20
85.9999999999999005
 30
-0.0000000000000191
 11
48.9999999999999503
 21
85.9999999999999005
 31
-0.0000000000000191
210
0.0
220
1.0
230
-0.0000000000000002
  0
LINE
  5
1BA78
  8
0
  6
CONTINUOUS
 62
     3
 10
39.9999999999999503
 20
84.9999999999999147
 30
-0.0000000000000189
 11
49.330127018922127
 21
84.9999999999999147
 31
-0.0000000000000189
210
0.0
220
1.0
230
-0.0000000000000002
  0
LINE
  5
1BA79
  8
0
  6
CONTINUOUS
 62
     3
 10
49.3301270189221412
 20
84.9999999999999147
 30
-0.0000000000000189
 11
49.9999999999999503
 21
84.9999999999999147
 31
-0.0000000000000189
210
0.0
220
1.0
230
-0.0000000000000002
  0
LINE
  5
1BA7A
  8
0
  6
CONTINUOUS
 62
     3
 10
40.9999999999999574
 20
83.9999999999998863
 30
-0.0000000000000187
 11
48.4641016151377002
 21
83.9999999999998863
 31
-0.0000000000000187
210
0.0
220
1.0
230
-0.0000000000000002
  0
LINE
  5
1BA7B
  8
0
  6
CONTINUOUS
 62
     3
 10
48.4641016151377002
 20
83.9999999999998863
 30
-0.0000000000000187
 11
48.9999999999999503
 21
83.9999999999998863
 31
-0.0000000000000187
210
0.0
220
1.0
230
-0.0000000000000002
  0
LINE
  5
1BA7C
  8
0
  6
CONTINUOUS
 62
     3
 10
39.9999999999999503
 20
82.9999999999999005
 30
-0.0000000000000184
 11
49.330127018922127
 21
82.9999999999999005
 31
-0.0000000000000184
210
0.0
220
1.0
230
-0.0000000000000002
  0
LINE
  5
1BA7D
  8
0
  6
CONTINUOUS
 62
     3
 10
49.3301270189221412
 20
82.9999999999999005
 30
-0.0000000000000184
 11
49.9999999999999503
 21
82.9999999999999005
 31
-0.0000000000000184
210
0.0
220
1.0
230
-0.0000000000000002
  0
LINE
  5
1BA7E
  8
0
  6
CONTINUOUS
 62
     3
 10
40.9999999999999574
 20
81.9999999999999005
 30
-0.0000000000000182
 11
48.4641016151377002
 21
81.9999999999999005
 31
-0.0000000000000182
210
0.0
220
1.0
230
-0.0000000000000002
  0
LINE
  5
1BA7F
  8
0
  6
CONTINUOUS
 62
     3
 10
48.4641016151377002
 20
81.9999999999999005
 30
-0.0000000000000182
 11
48.9999999999999503
 21
81.9999999999999005
 31
-0.0000000000000182
210
0.0
220
1.0
230
-0.0000000000000002
  0
LINE
  5
1BA80
  8
0
  6
CONTINUOUS
 62
     3
 10
39.9999999999999503
 20
80.9999999999999005
 30
-0.000000000000018
 11
49.330127018922127
 21
80.9999999999999005
 31
-0.000000000000018
210
0.0
220
1.0
230
-0.0000000000000002
  0
LINE
  5
1BA81
  8
0
  6
CONTINUOUS
 62
     3
 10
49.3301270189221412
 20
80.9999999999999005
 30
-0.000000000000018
 11
49.9999999999999503
 21
80.9999999999999005
 31
-0.000000000000018
210
0.0
220
1.0
230
-0.0000000000000002
  0
LINE
  5
1BA82
  8
0
  6
CONTINUOUS
 62
     3
 10
40.9999999999999574
 20
79.9999999999999005
 30
-0.0000000000000178
 11
48.4641016151377002
 21
79.9999999999999005
 31
-0.0000000000000178
210
0.0
220
1.0
230
-0.0000000000000002
  0
LINE
  5
1BA83
  8
0
  6
CONTINUOUS
 62
     3
 10
48.4641016151377002
 20
79.9999999999999005
 30
-0.0000000000000178
 11
48.9999999999999503
 21
79.9999999999999005
 31
-0.0000000000000178
210
0.0
220
1.0
230
-0.0000000000000002
  0
LINE
  5
1BA84
  8
0
  6
CONTINUOUS
 62
     3
 10
39.9999999999999503
 20
78.9999999999999005
 30
-0.0000000000000175
 11
49.330127018922127
 21
78.9999999999999005
 31
-0.0000000000000175
210
0.0
220
1.0
230
-0.0000000000000002
  0
LINE
  5
1BA85
  8
0
  6
CONTINUOUS
 62
     3
 10
49.3301270189221412
 20
78.9999999999999005
 30
-0.0000000000000175
 11
49.9999999999999503
 21
78.9999999999999005
 31
-0.0000000000000175
210
0.0
220
1.0
230
-0.0000000000000002
  0
LINE
  5
1BA86
  8
0
  6
CONTINUOUS
 62
     3
 10
40.9999999999999574
 20
77.9999999999999005
 30
-0.0000000000000173
 11
48.4641016151377002
 21
77.9999999999999005
 31
-0.0000000000000173
210
0.0
220
1.0
230
-0.0000000000000002
  0
LINE
  5
1BA87
  8
0
  6
CONTINUOUS
 62
     3
 10
48.4641016151377002
 20
77.9999999999999005
 30
-0.0000000000000173
 11
48.9999999999999503
 21
77.9999999999999005
 31
-0.0000000000000173
210
0.0
220
1.0
230
-0.0000000000000002
  0
LINE
  5
1BA88
  8
0
  6
CONTINUOUS
 62
     3
 10
39.9999999999999503
 20
76.9999999999999005
 30
-0.0000000000000171
 11
49.330127018922127
 21
76.9999999999999005
 31
-0.0000000000000171
210
0.0
220
1.0
230
-0.0000000000000002
  0
LINE
  5
1BA89
  8
0
  6
CONTINUOUS
 62
     3
 10
49.3301270189221412
 20
76.9999999999999005
 30
-0.0000000000000171
 11
49.9999999999999503
 21
76.9999999999999005
 31
-0.0000000000000171
210
0.0
220
1.0
230
-0.0000000000000002
  0
LINE
  5
1BA8A
  8
0
  6
CONTINUOUS
 62
     3
 10
40.9999999999999574
 20
75.9999999999999005
 30
-0.0000000000000169
 11
48.4641016151377002
 21
75.9999999999999005
 31
-0.0000000000000169
210
0.0
220
1.0
230
-0.0000000000000002
  0
LINE
  5
1BA8B
  8
0
  6
CONTINUOUS
 62
     3
 10
48.4641016151377002
 20
75.9999999999999005
 30
-0.0000000000000169
 11
48.9999999999999503
 21
75.9999999999999005
 31
-0.0000000000000169
210
0.0
220
1.0
230
-0.0000000000000002
  0
LINE
  5
1BA8C
  8
0
  6
CONTINUOUS
 62
     3
 10
39.9999999999999503
 20
74.9999999999999005
 30
-0.0000000000000167
 11
49.330127018922127
 21
74.9999999999999005
 31
-0.0000000000000167
210
0.0
220
1.0
230
-0.0000000000000002
  0
LINE
  5
1BA8D
  8
0
  6
CONTINUOUS
 62
     3
 10
49.3301270189221412
 20
74.9999999999999005
 30
-0.0000000000000167
 11
49.9999999999999503
 21
74.9999999999999005
 31
-0.0000000000000167
210
0.0
220
1.0
230
-0.0000000000000002
  0
LINE
  5
1BA8E
  8
0
  6
CONTINUOUS
 62
     3
 10
40.9999999999999574
 20
73.9999999999999005
 30
-0.0000000000000164
 11
48.4641016151377002
 21
73.9999999999999005
 31
-0.0000000000000164
210
0.0
220
1.0
230
-0.0000000000000002
  0
LINE
  5
1BA8F
  8
0
  6
CONTINUOUS
 62
     3
 10
48.4641016151377002
 20
73.9999999999999005
 30
-0.0000000000000164
 11
48.9999999999999503
 21
73.9999999999999005
 31
-0.0000000000000164
210
0.0
220
1.0
230
-0.0000000000000002
  0
LINE
  5
1BA90
  8
0
  6
CONTINUOUS
 62
     3
 10
39.9999999999999503
 20
72.9999999999999005
 30
-0.0000000000000162
 11
49.330127018922127
 21
72.9999999999999005
 31
-0.0000000000000162
210
0.0
220
1.0
230
-0.0000000000000002
  0
LINE
  5
1BA91
  8
0
  6
CONTINUOUS
 62
     3
 10
49.3301270189221412
 20
72.9999999999999005
 30
-0.0000000000000162
 11
49.9999999999999503
 21
72.9999999999999005
 31
-0.0000000000000162
210
0.0
220
1.0
230
-0.0000000000000002
  0
LINE
  5
1BA92
  8
0
  6
CONTINUOUS
 62
     3
 10
40.9999999999999574
 20
71.9999999999999005
 30
-0.000000000000016
 11
48.4641016151377002
 21
71.9999999999999005
 31
-0.000000000000016
210
0.0
220
1.0
230
-0.0000000000000002
  0
LINE
  5
1BA93
  8
0
  6
CONTINUOUS
 62
     3
 10
48.4641016151377002
 20
71.9999999999999005
 30
-0.000000000000016
 11
48.9999999999999503
 21
71.9999999999999005
 31
-0.000000000000016
210
0.0
220
1.0
230
-0.0000000000000002
  0
LINE
  5
1BA94
  8
0
  6
CONTINUOUS
 62
     3
 10
40.9999999999999574
 20
95.9999999999999005
 30
-0.0000000000000213
 11
48.4641016151377002
 21
95.9999999999999005
 31
-0.0000000000000213
210
0.0
220
1.0
230
-0.0000000000000002
  0
LINE
  5
1BA95
  8
0
  6
CONTINUOUS
 62
     3
 10
48.4641016151377002
 20
95.9999999999999005
 30
-0.0000000000000213
 11
48.9999999999999503
 21
95.9999999999999005
 31
-0.0000000000000213
210
0.0
220
1.0
230
-0.0000000000000002
  0
LINE
  5
1BA96
  8
0
  6
CONTINUOUS
 62
     3
 10
39.9999999999999503
 20
94.9999999999999147
 30
-0.0000000000000211
 11
49.330127018922127
 21
94.9999999999999147
 31
-0.0000000000000211
210
0.0
220
1.0
230
-0.0000000000000002
  0
LINE
  5
1BA97
  8
0
  6
CONTINUOUS
 62
     3
 10
49.3301270189221412
 20
94.9999999999999147
 30
-0.0000000000000211
 11
49.9999999999999503
 21
94.9999999999999147
 31
-0.0000000000000211
210
0.0
220
1.0
230
-0.0000000000000002
  0
LINE
  5
1BA98
  8
0
  6
CONTINUOUS
 62
     3
 10
40.9999999999999574
 20
93.9999999999998863
 30
-0.0000000000000209
 11
48.4641016151377002
 21
93.9999999999998863
 31
-0.0000000000000209
210
0.0
220
1.0
230
-0.0000000000000002
  0
LINE
  5
1BA99
  8
0
  6
CONTINUOUS
 62
     3
 10
48.4641016151377002
 20
93.9999999999998863
 30
-0.0000000000000209
 11
48.9999999999999503
 21
93.9999999999998863
 31
-0.0000000000000209
210
0.0
220
1.0
230
-0.0000000000000002
  0
LINE
  5
1BA9A
  8
0
  6
CONTINUOUS
 62
     3
 10
39.9999999999999503
 20
92.9999999999999005
 30
-0.0000000000000207
 11
49.330127018922127
 21
92.9999999999999005
 31
-0.0000000000000207
210
0.0
220
1.0
230
-0.0000000000000002
  0
LINE
  5
1BA9B
  8
0
  6
CONTINUOUS
 62
     3
 10
49.3301270189221412
 20
92.9999999999999005
 30
-0.0000000000000207
 11
49.9999999999999503
 21
92.9999999999999005
 31
-0.0000000000000207
210
0.0
220
1.0
230
-0.0000000000000002
  0
LINE
  5
1BA9C
  8
0
  6
CONTINUOUS
 62
     3
 10
48.9999999999999503
 20
91.9999999999999005
 30
-0.0000000000000204
 11
49.9999999999999503
 21
90.9999999999999005
 31
-0.0000000000000202
210
0.0
220
1.0
230
-0.0000000000000002
  0
LINE
  5
1BA9D
  8
0
  6
CONTINUOUS
 62
     3
 10
40.9999999999999574
 20
91.9999999999999005
 30
-0.0000000000000204
 11
39.9999999999999503
 21
90.9999999999999005
 31
-0.0000000000000202
210
0.0
220
1.0
230
-0.0000000000000002
  0
LINE
  5
1BA9E
  8
0
  6
CONTINUOUS
 62
     3
 10
40.9999999999999574
 20
89.9999999999999147
 30
-0.00000000000002
 11
39.9999999999999503
 21
90.9999999999999005
 31
-0.0000000000000202
210
0.0
220
1.0
230
-0.0000000000000002
  0
LINE
  5
1BA9F
  8
0
  6
CONTINUOUS
 62
     3
 10
48.9999999999999503
 20
89.9999999999999147
 30
-0.00000000000002
 11
49.9999999999999503
 21
90.9999999999999005
 31
-0.0000000000000202
210
0.0
220
1.0
230
-0.0000000000000002
  0
LINE
  5
1BAA0
  8
0
  6
CONTINUOUS
 62
     3
 10
48.9999999999999503
 20
89.9999999999999147
 30
-0.00000000000002
 11
49.9999999999999503
 21
88.9999999999998863
 31
-0.0000000000000198
210
0.0
220
1.0
230
-0.0000000000000002
  0
LINE
  5
1BAA1
  8
0
  6
CONTINUOUS
 62
     3
 10
40.9999999999999574
 20
89.9999999999999147
 30
-0.00000000000002
 11
39.9999999999999503
 21
88.9999999999998863
 31
-0.0000000000000198
210
0.0
220
1.0
230
-0.0000000000000002
  0
LINE
  5
1BAA2
  8
0
  6
CONTINUOUS
 62
     3
 10
40.9999999999999574
 20
87.9999999999999005
 30
-0.0000000000000195
 11
39.9999999999999503
 21
88.9999999999998863
 31
-0.0000000000000198
210
0.0
220
1.0
230
-0.0000000000000002
  0
LINE
  5
1BAA3
  8
0
  6
CONTINUOUS
 62
     3
 10
48.9999999999999503
 20
87.9999999999999005
 30
-0.0000000000000195
 11
49.9999999999999503
 21
88.9999999999998863
 31
-0.0000000000000198
210
0.0
220
1.0
230
-0.0000000000000002
  0
LINE
  5
1BAA4
  8
0
  6
CONTINUOUS
 62
     3
 10
48.9999999999999503
 20
87.9999999999999005
 30
-0.0000000000000195
 11
49.9999999999999503
 21
86.9999999999999005
 31
-0.0000000000000193
210
0.0
220
1.0
230
-0.0000000000000002
  0
LINE
  5
1BAA5
  8
0
  6
CONTINUOUS
 62
     3
 10
40.9999999999999574
 20
87.9999999999999005
 30
-0.0000000000000195
 11
39.9999999999999503
 21
86.9999999999999005
 31
-0.0000000000000193
210
0.0
220
1.0
230
-0.0000000000000002
  0
LINE
  5
1BAA6
  8
0
  6
CONTINUOUS
 62
     3
 10
40.9999999999999574
 20
85.9999999999999005
 30
-0.0000000000000191
 11
39.9999999999999503
 21
86.9999999999999005
 31
-0.0000000000000193
210
0.0
220
1.0
230
-0.0000000000000002
  0
LINE
  5
1BAA7
  8
0
  6
CONTINUOUS
 62
     3
 10
48.9999999999999503
 20
85.9999999999999005
 30
-0.0000000000000191
 11
49.9999999999999503
 21
86.9999999999999005
 31
-0.0000000000000193
210
0.0
220
1.0
230
-0.0000000000000002
  0
LINE
  5
1BAA8
  8
0
  6
CONTINUOUS
 62
     3
 10
48.9999999999999503
 20
85.9999999999999005
 30
-0.0000000000000191
 11
49.9999999999999503
 21
84.9999999999999147
 31
-0.0000000000000189
210
0.0
220
1.0
230
-0.0000000000000002
  0
LINE
  5
1BAA9
  8
0
  6
CONTINUOUS
 62
     3
 10
40.9999999999999574
 20
85.9999999999999005
 30
-0.0000000000000191
 11
39.9999999999999503
 21
84.9999999999999147
 31
-0.0000000000000189
210
0.0
220
1.0
230
-0.0000000000000002
  0
LINE
  5
1BAAA
  8
0
  6
CONTINUOUS
 62
     3
 10
40.9999999999999574
 20
83.9999999999998863
 30
-0.0000000000000187
 11
39.9999999999999503
 21
84.9999999999999147
 31
-0.0000000000000189
210
0.0
220
1.0
230
-0.0000000000000002
  0
LINE
  5
1BAAB
  8
0
  6
CONTINUOUS
 62
     3
 10
48.9999999999999503
 20
83.9999999999998863
 30
-0.0000000000000187
 11
49.9999999999999503
 21
84.9999999999999147
 31
-0.0000000000000189
210
0.0
220
1.0
230
-0.0000000000000002
  0
LINE
  5
1BAAC
  8
0
  6
CONTINUOUS
 62
     3
 10
48.9999999999999503
 20
83.9999999999998863
 30
-0.0000000000000187
 11
49.9999999999999503
 21
82.9999999999999005
 31
-0.0000000000000184
210
0.0
220
1.0
230
-0.0000000000000002
  0
LINE
  5
1BAAD
  8
0
  6
CONTINUOUS
 62
     3
 10
40.9999999999999574
 20
83.9999999999998863
 30
-0.0000000000000187
 11
39.9999999999999503
 21
82.9999999999999005
 31
-0.0000000000000184
210
0.0
220
1.0
230
-0.0000000000000002
  0
LINE
  5
1BAAE
  8
0
  6
CONTINUOUS
 62
     3
 10
40.9999999999999574
 20
81.9999999999999005
 30
-0.0000000000000182
 11
39.9999999999999503
 21
82.9999999999999005
 31
-0.0000000000000184
210
0.0
220
1.0
230
-0.0000000000000002
  0
LINE
  5
1BAAF
  8
0
  6
CONTINUOUS
 62
     3
 10
48.9999999999999503
 20
81.9999999999999005
 30
-0.0000000000000182
 11
49.9999999999999503
 21
82.9999999999999005
 31
-0.0000000000000184
210
0.0
220
1.0
230
-0.0000000000000002
  0
LINE
  5
1BAB0
  8
0
  6
CONTINUOUS
 62
     3
 10
48.9999999999999503
 20
81.9999999999999005
 30
-0.0000000000000182
 11
49.9999999999999503
 21
80.9999999999999005
 31
-0.000000000000018
210
0.0
220
1.0
230
-0.0000000000000002
  0
LINE
  5
1BAB1
  8
0
  6
CONTINUOUS
 62
     3
 10
40.9999999999999574
 20
81.9999999999999005
 30
-0.0000000000000182
 11
39.9999999999999503
 21
80.9999999999999005
 31
-0.000000000000018
210
0.0
220
1.0
230
-0.0000000000000002
  0
LINE
  5
1BAB2
  8
0
  6
CONTINUOUS
 62
     3
 10
40.9999999999999574
 20
79.9999999999999005
 30
-0.0000000000000178
 11
39.9999999999999503
 21
80.9999999999999005
 31
-0.000000000000018
210
0.0
220
1.0
230
-0.0000000000000002
  0
LINE
  5
1BAB3
  8
0
  6
CONTINUOUS
 62
     3
 10
48.9999999999999503
 20
79.9999999999999005
 30
-0.0000000000000178
 11
49.9999999999999503
 21
80.9999999999999005
 31
-0.000000000000018
210
0.0
220
1.0
230
-0.0000000000000002
  0
LINE
  5
1BAB4
  8
0
  6
CONTINUOUS
 62
     3
 10
48.9999999999999503
 20
79.9999999999999005
 30
-0.0000000000000178
 11
49.9999999999999503
 21
78.9999999999999005
 31
-0.0000000000000175
210
0.0
220
1.0
230
-0.0000000000000002
  0
LINE
  5
1BAB5
  8
0
  6
CONTINUOUS
 62
     3
 10
40.9999999999999574
 20
79.9999999999999005
 30
-0.0000000000000178
 11
39.9999999999999503
 21
78.9999999999999005
 31
-0.0000000000000175
210
0.0
220
1.0
230
-0.0000000000000002
  0
LINE
  5
1BAB6
  8
0
  6
CONTINUOUS
 62
     3
 10
40.9999999999999574
 20
77.9999999999999005
 30
-0.0000000000000173
 11
39.9999999999999503
 21
78.9999999999999005
 31
-0.0000000000000175
210
0.0
220
1.0
230
-0.0000000000000002
  0
LINE
  5
1BAB7
  8
0
  6
CONTINUOUS
 62
     3
 10
48.9999999999999503
 20
77.9999999999999005
 30
-0.0000000000000173
 11
49.9999999999999503
 21
78.9999999999999005
 31
-0.0000000000000175
210
0.0
220
1.0
230
-0.0000000000000002
  0
LINE
  5
1BAB8
  8
0
  6
CONTINUOUS
 62
     3
 10
48.9999999999999503
 20
77.9999999999999005
 30
-0.0000000000000173
 11
49.9999999999999503
 21
76.9999999999999005
 31
-0.0000000000000171
210
0.0
220
1.0
230
-0.0000000000000002
  0
LINE
  5
1BAB9
  8
0
  6
CONTINUOUS
 62
     3
 10
40.9999999999999574
 20
77.9999999999999005
 30
-0.0000000000000173
 11
39.9999999999999503
 21
76.9999999999999005
 31
-0.0000000000000171
210
0.0
220
1.0
230
-0.0000000000000002
  0
LINE
  5
1BABA
  8
0
  6
CONTINUOUS
 62
     3
 10
40.9999999999999574
 20
75.9999999999999005
 30
-0.0000000000000169
 11
39.9999999999999503
 21
76.9999999999999005
 31
-0.0000000000000171
210
0.0
220
1.0
230
-0.0000000000000002
  0
LINE
  5
1BABB
  8
0
  6
CONTINUOUS
 62
     3
 10
48.9999999999999503
 20
75.9999999999999005
 30
-0.0000000000000169
 11
49.9999999999999503
 21
76.9999999999999005
 31
-0.0000000000000171
210
0.0
220
1.0
230
-0.0000000000000002
  0
LINE
  5
1BABC
  8
0
  6
CONTINUOUS
 62
     3
 10
48.9999999999999503
 20
75.9999999999999005
 30
-0.0000000000000169
 11
49.9999999999999503
 21
74.9999999999999005
 31
-0.0000000000000167
210
0.0
220
1.0
230
-0.0000000000000002
  0
LINE
  5
1BABD
  8
0
  6
CONTINUOUS
 62
     3
 10
40.9999999999999574
 20
75.9999999999999005
 30
-0.0000000000000169
 11
39.9999999999999503
 21
74.9999999999999005
 31
-0.0000000000000167
210
0.0
220
1.0
230
-0.0000000000000002
  0
LINE
  5
1BABE
  8
0
  6
CONTINUOUS
 62
     3
 10
40.9999999999999574
 20
73.9999999999999005
 30
-0.0000000000000164
 11
39.9999999999999503
 21
74.9999999999999005
 31
-0.0000000000000167
210
0.0
220
1.0
230
-0.0000000000000002
  0
LINE
  5
1BABF
  8
0
  6
CONTINUOUS
 62
     3
 10
48.9999999999999503
 20
73.9999999999999005
 30
-0.0000000000000164
 11
49.9999999999999503
 21
74.9999999999999005
 31
-0.0000000000000167
210
0.0
220
1.0
230
-0.0000000000000002
  0
LINE
  5
1BAC0
  8
0
  6
CONTINUOUS
 62
     3
 10
48.9999999999999503
 20
73.9999999999999005
 30
-0.0000000000000164
 11
49.9999999999999503
 21
72.9999999999999005
 31
-0.0000000000000162
210
0.0
220
1.0
230
-0.0000000000000002
  0
LINE
  5
1BAC1
  8
0
  6
CONTINUOUS
 62
     3
 10
40.9999999999999574
 20
73.9999999999999005
 30
-0.0000000000000164
 11
39.9999999999999503
 21
72.9999999999999005
 31
-0.0000000000000162
210
0.0
220
1.0
230
-0.0000000000000002
  0
LINE
  5
1BAC2
  8
0
  6
CONTINUOUS
 62
     3
 10
40.9999999999999574
 20
71.9999999999999005
 30
-0.000000000000016
 11
39.9999999999999503
 21
72.9999999999999005
 31
-0.0000000000000162
210
0.0
220
1.0
230
-0.0000000000000002
  0
LINE
  5
1BAC3
  8
0
  6
CONTINUOUS
 62
     3
 10
48.9999999999999503
 20
71.9999999999999005
 30
-0.000000000000016
 11
49.9999999999999503
 21
72.9999999999999005
 31
-0.0000000000000162
210
0.0
220
1.0
230
-0.0000000000000002
  0
LINE
  5
1BAC4
  8
0
  6
CONTINUOUS
 62
     3
 10
48.9999999999999503
 20
71.9999999999999005
 30
-0.000000000000016
 11
49.9999999999999503
 21
70.9999999999999005
 31
-0.0000000000000158
210
0.0
220
1.0
230
-0.0000000000000002
  0
LINE
  5
1BAC5
  8
0
  6
CONTINUOUS
 62
     3
 10
40.9999999999999574
 20
71.9999999999999005
 30
-0.000000000000016
 11
39.9999999999999503
 21
70.9999999999999005
 31
-0.0000000000000158
210
0.0
220
1.0
230
-0.0000000000000002
  0
LINE
  5
1BAC6
  8
0
  6
CONTINUOUS
 62
     3
 10
48.9999999999999503
 20
95.9999999999999005
 30
-0.0000000000000213
 11
49.9999999999999503
 21
94.9999999999999147
 31
-0.0000000000000211
210
0.0
220
1.0
230
-0.0000000000000002
  0
LINE
  5
1BAC7
  8
0
  6
CONTINUOUS
 62
     3
 10
40.9999999999999574
 20
95.9999999999999005
 30
-0.0000000000000213
 11
39.9999999999999503
 21
94.9999999999999147
 31
-0.0000000000000211
210
0.0
220
1.0
230
-0.0000000000000002
  0
LINE
  5
1BAC8
  8
0
  6
CONTINUOUS
 62
     3
 10
40.9999999999999574
 20
93.9999999999998863
 30
-0.0000000000000209
 11
39.9999999999999503
 21
94.9999999999999147
 31
-0.0000000000000211
210
0.0
220
1.0
230
-0.0000000000000002
  0
LINE
  5
1BAC9
  8
0
  6
CONTINUOUS
 62
     3
 10
48.9999999999999503
 20
93.9999999999998863
 30
-0.0000000000000209
 11
49.9999999999999503
 21
94.9999999999999147
 31
-0.0000000000000211
210
0.0
220
1.0
230
-0.0000000000000002
  0
LINE
  5
1BACA
  8
0
  6
CONTINUOUS
 62
     3
 10
48.9999999999999503
 20
93.9999999999998863
 30
-0.0000000000000209
 11
49.9999999999999503
 21
92.9999999999999005
 31
-0.0000000000000207
210
0.0
220
1.0
230
-0.0000000000000002
  0
LINE
  5
1BACB
  8
0
  6
CONTINUOUS
 62
     3
 10
40.9999999999999574
 20
93.9999999999998863
 30
-0.0000000000000209
 11
39.9999999999999503
 21
92.9999999999999005
 31
-0.0000000000000207
210
0.0
220
1.0
230
-0.0000000000000002
  0
LINE
  5
1BACC
  8
0
  6
CONTINUOUS
 62
     3
 10
40.9999999999999574
 20
91.9999999999999005
 30
-0.0000000000000204
 11
39.9999999999999503
 21
92.9999999999999005
 31
-0.0000000000000207
210
0.0
220
1.0
230
-0.0000000000000002
  0
LINE
  5
1BACD
  8
0
  6
CONTINUOUS
 62
     3
 10
48.9999999999999503
 20
91.9999999999999005
 30
-0.0000000000000204
 11
49.9999999999999503
 21
92.9999999999999005
 31
-0.0000000000000207
210
0.0
220
1.0
230
-0.0000000000000002
  0
LINE
  5
1BACE
  8
0
  6
CONTINUOUS
 62
     3
 10
-122.4999999999999005
 20
68.9999999999999005
 30
-0.0000000000000153
 11
122.5000000000000995
 21
68.9999999999999005
 31
-0.0000000000000153
210
0.0
220
1.0
230
-0.0000000000000002
  0
LINE
  5
1BACF
  8
0
  6
CONTINUOUS
 62
     3
 10
-60.9999999999999005
 20
57.9999999999999005
 30
-0.0000000000000129
 11
61.0000000000001208
 21
57.9999999999999005
 31
-0.0000000000000129
210
0.0
220
1.0
230
-0.0000000000000002
  0
LINE
  5
1BAD0
  8
0
  6
CONTINUOUS
 62
     3
 10
-122.4999999999999005
 20
70.9999999999999005
 30
-0.0000000000000158
 11
122.5000000000000995
 21
70.9999999999999005
 31
-0.0000000000000158
210
0.0
220
1.0
230
-0.0000000000000002
  0
ARC
  5
1BAD1
  8
0
  6
CONTINUOUS
 62
     3
 10
70.2932374494818077
 20
66.9999999999999005
 30
0.0
 40
2.0000000000000142
210
0.0
220
-0.0000000000000002
230
-1.0
 50
90.0000000000003979
 51
142.9750113263253013
  0
ARC
  5
1BAD2
  8
0
  6
CONTINUOUS
 62
     3
 10
-70.2932374494820351
 20
66.9999999999998437
 30
0.0
 40
2.0000000000000528
210
0.0
220
-0.0000000000000002
230
-1.0
 50
37.024988673675999
 51
89.9999999999995879
  0
LINE
  5
1BAD3
  8
0
  6
CONTINUOUS
 62
     3
 10
-60.9999999999998934
 20
57.9999999999999005
 30
-0.0000000000000129
 11
-68.696491526028268
 21
68.2043265570161168
 31
-0.0000000000000151
210
0.0
220
1.0
230
-0.0000000000000002
  0
LINE
  5
1BAD4
  8
0
  6
CONTINUOUS
 62
     3
 10
61.0000000000001208
 20
57.9999999999999005
 30
-0.0000000000000129
 11
68.6964915260284954
 21
68.2043265570161168
 31
-0.0000000000000151
210
0.0
220
1.0
230
-0.0000000000000002
  0
LINE
  5
1BAD5
  8
0
  6
CONTINUOUS
 62
     3
 10
122.5000000000000995
 20
70.9999999999999005
 30
-0.0000000000000158
 11
122.5000000000000995
 21
68.9999999999999005
 31
-0.0000000000000153
210
0.0
220
1.0
230
-0.0000000000000002
  0
LINE
  5
1BAD6
  8
0
  6
CONTINUOUS
 62
     3
 10
-122.4999999999999005
 20
70.9999999999999005
 30
-0.0000000000000158
 11
-122.4999999999999005
 21
68.9999999999999005
 31
-0.0000000000000153
210
0.0
220
1.0
230
-0.0000000000000002
  0
LINE
  5
1BAD7
  8
0
  6
VERDECKT
 62
     1
 10
-49.3074442146850203
 20
0.149255578531502
 30
0.0
 11
49.3074442146850203
 21
0.149255578531502
 31
0.0
210
0.0
220
1.0
230
-0.0000000000000002
  0
LINE
  5
1BAD8
  8
0
  6
VERDECKT
 62
     1
 10
-53.5000000000000071
 20
84.0227011916711746
 30
-0.0000000000000187
 11
53.5000000000000071
 21
84.0227011916711746
 31
-0.0000000000000187
210
0.0
220
1.0
230
-0.0000000000000002
  0
ARC
  5
1BAD9
  8
0
  6
VERDECKT
 62
     1
 10
48.9999999999963691
 20
7.1246890528022258
 30
0.0
 40
1.000000000003616
210
0.0
220
-0.0000000000000002
230
-1.0
 50
354.2894068625121236
 51
359.9999999999910187
  0
ARC
  5
1BADA
  8
0
  6
VERDECKT
 62
     1
 10
-48.9999999999963691
 20
7.1246890528022258
 30
0.0
 40
1.000000000003616
210
0.0
220
-0.0000000000000002
230
-1.0
 50
180.000000000008896
 51
185.7105931374877912
  0
LINE
  5
1BADB
  8
0
  6
VERDECKT
 62
     1
 10
-49.3074442146850203
 20
0.149255578531502
 30
0.0
 11
-49.9950371902099775
 21
7.0251853337810717
 31
-0.0000000000000016
210
0.0
220
1.0
230
-0.0000000000000002
  0
LINE
  5
1BADC
  8
0
  6
VERDECKT
 62
     1
 10
49.3074442146850203
 20
0.149255578531502
 30
0.0
 11
49.9950371902099775
 21
7.0251853337810717
 31
-0.0000000000000016
210
0.0
220
1.0
230
-0.0000000000000002
  0
LINE
  5
1BADD
  8
0
  6
VERDECKT
 62
     1
 10
49.9999999999999929
 20
42.3353876788549428
 30
-0.0000000000000094
 11
49.9999999999999929
 21
7.1246890528020703
 31
-0.0000000000000016
210
0.0
220
1.0
230
-0.0000000000000002
  0
LINE
  5
1BADE
  8
0
  6
VERDECKT
 62
     1
 10
-49.9999999999999929
 20
42.3353876788549428
 30
-0.0000000000000094
 11
-49.9999999999999929
 21
7.1246890528020703
 31
-0.0000000000000016
210
0.0
220
1.0
230
-0.0000000000000002
  0
LINE
  5
1BADF
  8
0
  6
VERDECKT
 62
     1
 10
49.3074442146850203
 20
0.1492555785315006
 30
0.0
 11
50.7999999999999829
 21
0.0000000000000027
 31
0.0
210
0.0
220
1.0
230
-0.0000000000000002
  0
LINE
  5
1BAE0
  8
0
  6
VERDECKT
 62
     1
 10
-49.3074442146850203
 20
0.1492555785315006
 30
0.0
 11
-50.7999999999999829
 21
0.0000000000000027
 31
0.0
210
0.0
220
1.0
230
-0.0000000000000002
  0
ARC
  5
1BAE1
  8
0
  6
VERDECKT
 62
     1
 10
57.9999999999999574
 20
42.335387678854957
 30
0.0
 40
7.9999999999999831
210
0.0
220
-0.0000000000000002
230
-1.0
 50
144.9999999999998863
 51
180.0000000000001137
  0
ARC
  5
1BAE2
  8
0
  6
VERDECKT
 62
     1
 10
-57.9999999999999574
 20
42.335387678854957
 30
0.0
 40
7.9999999999999849
210
0.0
220
-0.0000000000000002
230
-1.0
 50
0.0
 51
35.0000000000001918
  0
LINE
  5
1BAE3
  8
0
  6
VERDECKT
 62
     1
 10
-51.4467836456880718
 20
46.9239991696633325
 30
-0.0000000000000104
 11
-53.7447367972018384
 21
50.2058163825844801
 31
-0.0000000000000111
210
0.0
220
1.0
230
-0.0000000000000002
  0
LINE
  5
1BAE4
  8
0
  6
VERDECKT
 62
     1
 10
51.4467836456880718
 20
46.9239991696633325
 30
-0.0000000000000104
 11
53.7447367972018384
 21
50.2058163825844801
 31
-0.0000000000000111
210
0.0
220
1.0
230
-0.0000000000000002
  0
ARC
  5
1BAE5
  8
0
  6
VERDECKT
 62
     1
 10
38.9999999999998295
 20
60.5301922369033818
 30
0.0
 40
18.0000000000001386
210
0.0
220
-0.0000000000000002
230
-1.0
 50
325.0000000000001137
 51
359.9999999999997726
  0
ARC
  5
1BAE6
  8
0
  6
VERDECKT
 62
     1
 10
-38.9999999999998934
 20
60.5301922369033392
 30
0.0
 40
18.0000000000000711
210
0.0
220
-0.0000000000000002
230
-1.0
 50
180.0
 51
214.999999999999801
  0
LINE
  5
1BAE7
  8
0
  6
VERDECKT
 62
     1
 10
56.9999999999999716
 20
74.5754793778256015
 30
-0.0000000000000166
 11
56.9999999999999716
 21
60.5301922369033107
 31
-0.0000000000000134
210
0.0
220
1.0
230
-0.0000000000000002
  0
LINE
  5
1BAE8
  8
0
  6
VERDECKT
 62
     1
 10
-56.9999999999999716
 20
74.5754793778256015
 30
-0.0000000000000166
 11
-56.9999999999999716
 21
60.5301922369033107
 31
-0.0000000000000134
210
0.0
220
1.0
230
-0.0000000000000002
  0
ARC
  5
1BAE9
  8
0
  6
VERDECKT
 62
     1
 10
42.5
 20
74.5754793778256158
 30
0.0
 40
14.4999999999999591
210
0.0
220
-0.0000000000000002
230
-1.0
 50
0.0
 51
40.6572486379978173
  0
ARC
  5
1BAEA
  8
0
  6
VERDECKT
 62
     1
 10
-42.4999999999999076
 20
74.5754793778255873
 30
0.0
 40
14.5000000000000604
210
0.0
220
-0.0000000000000002
230
-1.0
 50
139.3427513620023888
 51
179.9999999999998863
  0
LINE
  5
1BAEB
  8
0
  6
VERDECKT
 62
     1
 10
-53.5000000000000071
 20
84.0227011916711746
 30
-0.0000000000000187
 11
-54.6379310344827829
 21
85.0000000000000568
 31
-0.0000000000000189
210
0.0
220
1.0
230
-0.0000000000000002
  0
LINE
  5
1BAEC
  8
0
  6
VERDECKT
 62
     1
 10
53.5000000000000071
 20
84.0227011916711746
 30
-0.0000000000000187
 11
54.6379310344827829
 21
85.0000000000000568
 31
-0.0000000000000189
210
0.0
220
1.0
230
-0.0000000000000002
  0
LINE
  5
1BAED
  8
0
  6
VERDECKT
 62
     1
 10
58.5
 20
70.9999999999999005
 30
-0.0000000000000158
 11
58.5
 21
60.5301922369033178
 31
-0.0000000000000134
210
0.0
220
1.0
230
-0.0000000000000002
  0
LINE
  5
1BAEE
  8
0
  6
VERDECKT
 62
     1
 10
-58.5
 20
70.9999999999999005
 30
-0.0000000000000158
 11
-58.5
 21
60.5301922369033178
 31
-0.0000000000000134
210
0.0
220
1.0
230
-0.0000000000000002
  0
ARC
  5
1BAEF
  8
0
  6
VERDECKT
 62
     1
 10
39.0000000000023306
 20
60.5301922369031189
 30
0.0
 40
19.4999999999976517
210
0.0
220
-0.0000000000000002
230
-1.0
 50
352.5446547404446278
 51
0.0000000000005852
  0
ARC
  5
1BAF0
  8
0
  6
VERDECKT
 62
     1
 10
-39.0000000000006679
 20
60.5301922369032823
 30
0.0
 40
19.4999999999993214
210
0.0
220
-0.0000000000000002
230
-1.0
 50
179.9999999999998863
 51
187.4553452595552017
  0
LINE
  5
1BAF1
  8
0
  6
VERDECKT
 62
     1
 10
-59.4032540765463466
 20
59.2043265570161168
 30
-0.0000000000000131
 11
59.4032540765465811
 21
59.2043265570161168
 31
-0.0000000000000131
210
0.0
220
1.0
230
-0.0000000000000002
  0
LINE
  5
1BAF2
  8
0
  6
VERDECKT
 62
     1
 10
59.4032540765465811
 20
59.2043265570161168
 30
-0.0000000000000131
 11
61.0000000000001208
 21
57.9999999999999005
 31
-0.0000000000000129
210
0.0
220
1.0
230
-0.0000000000000002
  0
LINE
  5
1BAF3
  8
0
  6
VERDECKT
 62
     1
 10
-59.4032540765463466
 20
59.2043265570161168
 30
-0.0000000000000131
 11
-60.9999999999998934
 21
57.9999999999999005
 31
-0.0000000000000129
210
0.0
220
1.0
230
-0.0000000000000002
  0
LINE
  5
1BAF4
  8
0
  6
VERDECKT
 62
     1
 10
-59.4032540765463466
 20
59.2043265570161168
 30
-0.0000000000000131
 11
-67.0997456025747425
 21
69.4086531140323331
 31
-0.0000000000000154
210
0.0
220
1.0
230
-0.0000000000000002
  0
LINE
  5
1BAF5
  8
0
  6
VERDECKT
 62
     1
 10
59.4032540765465811
 20
59.2043265570161168
 30
-0.0000000000000131
 11
67.0997456025749699
 21
69.4086531140323331
 31
-0.0000000000000154
210
0.0
220
1.0
230
-0.0000000000000002
  0
ARC
  5
1BAF6
  8
0
  6
VERDECKT
 62
     1
 10
70.2932374494817935
 20
66.9999999999999147
 30
0.0
 40
4.0
210
0.0
220
-0.0000000000000002
230
-1.0
 50
90.0
 51
142.9750113263251023
  0
ARC
  5
1BAF7
  8
0
  6
VERDECKT
 62
     1
 10
-70.2932374494819783
 20
66.9999999999999716
 30
0.0
 40
3.9999999999999272
210
0.0
220
-0.0000000000000002
230
-1.0
 50
37.0249886736746276
 51
90.0000000000006253
  0
ENDBLK
  5
1BAF9
  8
0
  0
ENDSEC
  0
SECTION
  2
ENTITIES
  0
TEXT
  5
416B
  8
VOLL
 10
441.2467849443549994
 20
195.2108867802037935
 30
0.0
 40
1.8
  1

  7
GREEKS
  0
INSERT
  5
46F1
  8
ADSK_ASSOC_ENTITY_BACKUPS
  2
*S0
 10
0.0
 20
0.0
 30
0.0
  0
INSERT
  5
1B940
  8
STEMPEL
  2
A$C4FD49606
 10
0.0
 20
-222.5
 30
0.0
  0
INSERT
  5
1BAFA
  8
STEMPEL
  2
A$C81B3C890
 10
0.0
 20
0.0
 30
0.0
  0
VIEWPORT
  5
46D0
 67
     1
  8
0
 10
145.4668235470674915
 20
205.7064238376007097
 30
0.0
 40
790.2674510967764263
 41
422.1483375959078899
 68
     1
 69
     1
1001
ACAD
1000
MVIEW
1002
{
1070
    16
1010
0.0
1020
0.0
1030
0.0
1010
0.0
1020
0.0
1030
1.0
1040
0.0
1040
422.1483375959078899
1040
145.4668235470674915
1040
205.7064238376007097
1040
50.0
1040
0.0
1040
0.0
1070
     0
1070
  1500
1070
     1
1070
     1
1070
     0
1070
     0
1070
     0
1070
     0
1040
0.0
1040
0.0
1040
0.0
1040
10.0
1040
10.0
1040
10.0
1040
10.0
1070
     0
1002
{
1002
}
1002
}
  0
ENDSEC
  0
EOF
