  0
SECTION
  2
HEADER
  9
$ACADVER
  1
AC1009
  9
$INSBASE
 10
0.0
 20
0.0
 30
0.0
  9
$EXTMIN
 10
-72.0984254827890254
 20
-194.039425667987814
 30
-0.0015258207003583
  9
$EXTMAX
 10
72.0490882378539936
 20
73.0272234829108129
 30
0.0000000349246037
  9
$LIMMIN
 10
0.0
 20
0.0
  9
$LIMMAX
 10
1681.9999999999990905
 20
1188.0
  9
$ORTHOMODE
 70
     1
  9
$REGENMODE
 70
     1
  9
$FILLMODE
 70
     1
  9
$QTEXTMODE
 70
     0
  9
$MIRRTEXT
 70
     1
  9
$DRAGMODE
 70
     2
  9
$LTSCALE
 40
20.0
  9
$OSMODE
 70
   511
  9
$ATTMODE
 70
     1
  9
$TEXTSIZE
 40
3.5
  9
$TRACEWID
 40
1.0
  9
$TEXTSTYLE
  7
STANDARD
  9
$CLAYER
  8
STEMPEL
  9
$CELTYPE
  6
BYLAYER
  9
$CECOLOR
 62
   256
  9
$DIMSCALE
 40
1.0
  9
$DIMASZ
 40
3.5
  9
$DIMEXO
 40
1.0
  9
$DIMDLI
 40
0.38
  9
$DIMRND
 40
0.0
  9
$DIMDLE
 40
0.0
  9
$DIMEXE
 40
1.0
  9
$DIMTP
 40
0.0
  9
$DIMTM
 40
0.000000001
  9
$DIMTXT
 40
3.5
  9
$DIMCEN
 40
0.09
  9
$DIMTSZ
 40
0.0
  9
$DIMTOL
 70
     0
  9
$DIMLIM
 70
     0
  9
$DIMTIH
 70
     0
  9
$DIMTOH
 70
     0
  9
$DIMSE1
 70
     0
  9
$DIMSE2
 70
     0
  9
$DIMTAD
 70
     1
  9
$DIMZIN
 70
     8
  9
$DIMBLK
  1

  9
$DIMASO
 70
     1
  9
$DIMSHO
 70
     0
  9
$DIMPOST
  1

  9
$DIMAPOST
  1

  9
$DIMALT
 70
     0
  9
$DIMALTD
 70
     2
  9
$DIMALTF
 40
25.3999999999999986
  9
$DIMLFAC
 40
2.0
  9
$DIMTOFL
 70
     1
  9
$DIMTVP
 40
0.0
  9
$DIMTIX
 70
     0
  9
$DIMSOXD
 70
     0
  9
$DIMSAH
 70
     0
  9
$DIMBLK1
  1

  9
$DIMBLK2
  1

  9
$DIMSTYLE
  2
LORO
  9
$DIMCLRD
 70
     0
  9
$DIMCLRE
 70
     0
  9
$DIMCLRT
 70
     1
  9
$DIMTFAC
 40
0.5
  9
$DIMGAP
 40
1.5
  9
$LUNITS
 70
     2
  9
$LUPREC
 70
     2
  9
$SKETCHINC
 40
1.0
  9
$FILLETRAD
 40
16.0
  9
$AUNITS
 70
     0
  9
$AUPREC
 70
     0
  9
$MENU
  1
ACAD
  9
$ELEVATION
 40
0.0
  9
$PELEVATION
 40
0.0
  9
$THICKNESS
 40
0.0
  9
$LIMCHECK
 70
     0
  9
$BLIPMODE
 70
     0
  9
$CHAMFERA
 40
2.0
  9
$CHAMFERB
 40
2.0
  9
$SKPOLY
 70
     0
  9
$TDCREATE
 40
2455397.867048610933125
  9
$TDUPDATE
 40
2459640.4140046290121973
  9
$TDINDWG
 40
3.9901043518999999
  9
$TDUSRTIMER
 40
3.9901043518999999
  9
$USRTIMER
 70
     1
  9
$ANGBASE
 50
0.0
  9
$ANGDIR
 70
     0
  9
$PDMODE
 70
     0
  9
$PDSIZE
 40
0.0
  9
$PLINEWID
 40
0.0
  9
$COORDS
 70
     1
  9
$SPLFRAME
 70
     0
  9
$SPLINETYPE
 70
     6
  9
$SPLINESEGS
 70
     8
  9
$ATTDIA
 70
     1
  9
$ATTREQ
 70
     1
  9
$HANDLING
 70
     1
  9
$HANDSEED
  5
1819B
  9
$SURFTAB1
 70
     6
  9
$SURFTAB2
 70
     6
  9
$SURFTYPE
 70
     6
  9
$SURFU
 70
     6
  9
$SURFV
 70
     6
  9
$UCSNAME
  2

  9
$UCSORG
 10
0.0
 20
0.0
 30
0.0
  9
$UCSXDIR
 10
1.0
 20
0.0
 30
0.0
  9
$UCSYDIR
 10
0.0
 20
1.0
 30
0.0
  9
$PUCSNAME
  2

  9
$PUCSORG
 10
0.0
 20
0.0
 30
0.0
  9
$PUCSXDIR
 10
1.0
 20
0.0
 30
0.0
  9
$PUCSYDIR
 10
0.0
 20
1.0
 30
0.0
  9
$USERI1
 70
     0
  9
$USERI2
 70
     0
  9
$USERI3
 70
     0
  9
$USERI4
 70
     0
  9
$USERI5
 70
     0
  9
$USERR1
 40
0.0
  9
$USERR2
 40
0.0
  9
$USERR3
 40
0.0
  9
$USERR4
 40
0.0
  9
$USERR5
 40
0.0
  9
$WORLDVIEW
 70
     1
  9
$SHADEDGE
 70
     3
  9
$SHADEDIF
 70
    70
  9
$TILEMODE
 70
     1
  9
$MAXACTVP
 70
    16
  9
$PLIMCHECK
 70
     0
  9
$PEXTMIN
 10
1.0000000000000000E+20
 20
1.0000000000000000E+20
 30
1.0000000000000000E+20
  9
$PEXTMAX
 10
-1.0000000000000000E+20
 20
-1.0000000000000000E+20
 30
-1.0000000000000000E+20
  9
$PLIMMIN
 10
-5.6197987743291833
 20
-3.0431495045546622
  9
$PLIMMAX
 10
204.3802012256707883
 20
293.9568504954452806
  9
$UNITMODE
 70
     0
  9
$VISRETAIN
 70
     0
  9
$PLINEGEN
 70
     0
  9
$PSLTSCALE
 70
     0
  0
ENDSEC
  0
SECTION
  2
TABLES
  0
TABLE
  2
VPORT
 70
     1
  0
VPORT
  2
*ACTIVE
 70
     0
 10
0.0
 20
0.0
 11
1.0
 21
1.0
 12
-0.0246686224675159
 22
-61.0086111633393102
 13
0.0
 23
0.0
 14
1.0
 24
1.0
 15
10.0
 25
10.0
 16
-0.0000000000001169
 26
0.0
 36
526.3325878880121991
 17
0.0
 27
0.5025100708007813
 37
-0.0000000000000081
 40
268.4327189675273075
 41
1.8720136518771331
 42
50.0
 43
0.0
 44
0.0
 50
0.0
 51
0.0
 71
     0
 72
  1500
 73
     1
 74
     0
 75
     0
 76
     0
 77
     0
 78
     0
  0
ENDTAB
  0
TABLE
  2
LTYPE
 70
     5
  0
LTYPE
  2
CONTINUOUS
 70
     0
  3
Solid line
 72
    65
 73
     0
 40
0.0
  0
LTYPE
  2
STRICHPUNKT
 70
     0
  3
__ . __ . __ . __ . __ . __ . __ . __ . __ . __
 72
    65
 73
     4
 40
1.0
 49
0.5
 49
-0.25
 49
0.0
 49
-0.25
  0
LTYPE
  2
VERDECKT
 70
     0
  3
Verdeckt __ __ __ __ __ __ __ __ __ __ __ __ __
 72
    65
 73
     2
 40
0.375
 49
0.25
 49
-0.125
  0
ENDTAB
  0
TABLE
  2
LAYER
 70
    16
  0
LAYER
  2
0
 70
     0
 62
     7
  6
CONTINUOUS
  0
LAYER
  2
VOLL
 70
     0
 62
     1
  6
CONTINUOUS
  0
LAYER
  2
STEMPEL
 70
     0
 62
     3
  6
CONTINUOUS
  0
LAYER
  2
DEFPOINTS
 70
     0
 62
     7
  6
CONTINUOUS
  0
LAYER
  2
ADSK_ASSOC_ENTITY_BACKUPS
 70
     1
 62
    -7
  6
CONTINUOUS
  0
ENDTAB
  0
TABLE
  2
STYLE
 70
     4
  0
STYLE
  2
STANDARD
 70
     0
 40
0.0
 41
0.8
 50
0.0
 71
     0
 42
3.5
  3
simplex.shx
  4

  0
STYLE
  2
GREEKS
 70
     0
 40
0.0
 41
0.8
 50
0.0
 71
     0
 42
2.5
  3
SIMPLEX.shx
  4

  0
ENDTAB
  0
TABLE
  2
VIEW
 70
     1
  0
ENDTAB
  0
TABLE
  2
UCS
 70
     0
  0
ENDTAB
  0
TABLE
  2
APPID
 70
    31
  0
APPID
  2
ACAD
 70
     0
  0
APPID
  2
ACAD_EXEMPT_FROM_CAD_STANDARDS
 70
     0
  0
APPID
  2
ACAD_NAV_VCDISPLAY
 70
     0
  0
APPID
  2
GRADIENTCOLOR1ACI
 70
     0
  0
APPID
  2
GRADIENTCOLOR2ACI
 70
     0
  0
APPID
  2
ACAUTHENVIRON
 70
     0
  0
APPID
  2
ACDBDYNAMICBLOCKTRUENAME
 70
     0
  0
APPID
  2
ACDBDYNAMICBLOCKGUID
 70
     0
  0
APPID
  2
ACAD_PSEXT
 70
     0
  0
APPID
  2
ACAD_MLEADERVER
 70
     0
  0
APPID
  2
ACAECLAYERSTANDARD
 70
     0
  0
APPID
  2
ACCMTRANSPARENCY
 70
     0
  0
APPID
  2
ACAD_STEPID
 70
     0
  0
APPID
  2
ACSYNERGY
 70
     0
  0
APPID
  2
SYNERGY_BODY_TBR_ID
 70
     0
  0
APPID
  2
ACAD_VIEW_EDGE_ID
 70
     0
  0
APPID
  2
ACAD_DSTYLE_DIMJAG
 70
     0
  0
APPID
  2
ACAD_DSTYLE_DIMBREAK
 70
     0
  0
APPID
  2
ACAD_DSTYLE_DIMTALN
 70
     0
  0
APPID
  2
ACADANNOMONITORALERTICONDI
 70
     0
  0
APPID
  2
ACAD_DIMASSOC_CALC_DIMLFAC
 70
     0
  0
APPID
  2
ACAD_DIMASSOC_DIMLFAC
 70
     0
  0
APPID
  2
ACAD_DIMASSOC_OVERRIDDEN_D
 70
     0
  0
APPID
  2
ACAD_DSTYLE_DIMRADIAL_EXTENSION
 70
     0
  0
APPID
  2
ACADANNOPO
 70
     0
  0
APPID
  2
ACSYNERGYSKETCH
 70
     0
  0
APPID
  2
ACAD_MODELDOC_XFORM
 70
     0
  0
APPID
  2
SYNERGY_EXCLUDED_FROM_SNAPSHOT
 70
     0
  0
APPID
  2
PLOTTRANSPARENCY
 70
     0
  0
APPID
  2
ACAD_TC
 70
     0
  0
APPID
  2
AcDbAttr
 70
     0
  0
ENDTAB
  0
TABLE
  2
DIMSTYLE
 70
     2
  0
DIMSTYLE
  2
STANDARD
 70
     0
  3

  4

  5

  6

  7

 40
1.0
 41
0.18
 42
0.0625
 43
0.38
 44
0.18
 45
0.0
 46
0.0
 47
0.0
 48
0.0
140
0.18
141
0.09
142
0.0
143
25.3999999999999986
144
1.0
145
0.0
146
1.0
147
0.09
 71
     0
 72
     0
 73
     1
 74
     1
 75
     0
 76
     0
 77
     0
 78
     0
170
     0
171
     2
172
     0
173
     0
174
     0
175
     0
176
     0
177
     0
178
     0
  0
DIMSTYLE
  2
LORO
 70
     0
  3

  4

  5

  6

  7

 40
1.0
 41
3.5
 42
1.0
 43
0.38
 44
1.0
 45
0.0
 46
0.0
 47
0.0
 48
0.000000001
140
3.5
141
0.09
142
0.0
143
25.3999999999999986
144
2.0
145
0.0
146
0.5
147
1.5
 71
     0
 72
     0
 73
     0
 74
     0
 75
     0
 76
     0
 77
     1
 78
     8
170
     0
171
     2
172
     1
173
     0
174
     0
175
     0
176
     0
177
     0
178
     1
  0
ENDTAB
  0
ENDSEC
  0
SECTION
  2
BLOCKS
  0
BLOCK
  8
0
  2
$MODEL_SPACE
 70
     0
 10
0.0
 20
0.0
 30
0.0
  3
$MODEL_SPACE
  1

  0
ENDBLK
  5
38
  8
0
  0
BLOCK
 67
     1
  8
0
  2
$PAPER_SPACE
 70
     0
 10
0.0
 20
0.0
 30
0.0
  3
$PAPER_SPACE
  1

  0
ENDBLK
  5
36
 67
     1
  8
0
  0
BLOCK
  8
0
  2
*S0
 70
     1
 10
0.0
 20
0.0
 30
0.0
  3
*S0
  1

  0
ENDBLK
  5
46EF
  8
0
  0
BLOCK
  8
0
  2
A$C7F5AB1DD
 70
     0
 10
0.0
 20
0.0
 30
0.0
  3
A$C7F5AB1DD
  1

  0
CIRCLE
  5
180F3
  8
0
  6
CONTINUOUS
 62
     3
 10
0.0000000000001199
 20
0.0000000000000021
 30
0.0
 40
64.5
  0
CIRCLE
  5
180F4
  8
0
  6
CONTINUOUS
 62
     3
 10
0.0000000000001255
 20
0.0000000000000043
 30
0.0
 40
69.9999999999999858
  0
CIRCLE
  5
180F5
  8
0
  6
CONTINUOUS
 62
     3
 10
0.0000000000001255
 20
0.0000000000000043
 30
0.0
 40
72.0000000000485016
  0
CIRCLE
  5
180F6
  8
0
  6
CONTINUOUS
 62
     3
 10
0.0000000000001137
 20
0.0
 30
0.0
 40
63.7099256195317594
  0
CIRCLE
  5
180F7
  8
0
  6
VERDECKT
 62
     1
 10
0.0000000000001199
 20
0.0000000000000021
 30
0.0
 40
66.5
  0
CIRCLE
  5
180F8
  8
0
  6
VERDECKT
 62
     1
 10
0.0000000000001137
 20
0.0
 30
0.0
 40
65.7000000000000028
  0
ENDBLK
  5
180FA
  8
0
  0
BLOCK
  8
0
  2
A$C2B30411F
 70
     0
 10
0.0
 20
0.0
 30
0.0
  3
A$C2B30411F
  1

  0
LINE
  5
180FE
  8
0
  6
CONTINUOUS
 62
     3
 10
-72.0000000000483737
 20
72.99999999999973
 30
-0.0000000000000162
 11
72.0000000000486153
 21
72.99999999999973
 31
-0.0000000000000162
210
0.0
220
1.0
230
-0.0000000000000002
  0
LINE
  5
180FF
  8
0
  6
CONTINUOUS
 62
     3
 10
-65.6999999999998749
 20
-0.0000000000002884
 30
0.0
 11
65.7000000000001023
 21
-0.00000000000028
 31
0.0
210
0.0
220
1.0
230
-0.0000000000000002
  0
ARC
  5
18100
  8
0
  6
CONTINUOUS
 62
     3
 10
41.9999999999994671
 20
62.9999999999998082
 30
0.0
 40
30.0000000000004086
210
0.0
220
-0.0000000000000002
230
-1.0
 50
338.6325470100906045
 51
359.9999999999997726
  0
ARC
  5
18101
  8
0
  6
CONTINUOUS
 62
     3
 10
-42.0000000000001634
 20
62.9999999999997087
 30
0.0
 40
29.9999999999999503
210
0.0
220
-0.0000000000000002
230
-1.0
 50
179.9999999999998863
 51
201.3674529899095091
  0
LINE
  5
18102
  8
0
  6
CONTINUOUS
 62
     3
 10
-68.4246378256497536
 20
48.2017394338644465
 30
-0.0000000000000107
 11
-69.9378880439464439
 21
52.0695648922875165
 31
-0.0000000000000116
210
0.0
220
1.0
230
-0.0000000000000002
  0
LINE
  5
18103
  8
0
  6
CONTINUOUS
 62
     3
 10
68.424637825649981
 20
48.2017394338644607
 30
-0.0000000000000107
 11
69.937888043946657
 21
52.0695648922875307
 31
-0.0000000000000116
210
0.0
220
1.0
230
-0.0000000000000002
  0
ARC
  5
18104
  8
0
  6
CONTINUOUS
 62
     3
 10
94.5000000000003979
 20
37.9999999999996021
 30
0.0
 40
28.0000000000005116
210
0.0
220
-0.0000000000000002
230
-1.0
 50
158.6325470100906045
 51
179.9999999999996874
  0
ARC
  5
18105
  8
0
  6
CONTINUOUS
 62
     3
 10
-94.5000000000001563
 20
37.9999999999997229
 30
0.0
 40
28.0000000000000284
210
0.0
220
-0.0000000000000002
230
-1.0
 50
0.0
 51
21.3674529899094985
  0
LINE
  5
18106
  8
0
  6
CONTINUOUS
 62
     3
 10
72.0000000000486153
 20
72.99999999999973
 30
-0.0000000000000162
 11
72.0000000000486153
 21
62.99999999999973
 31
-0.000000000000014
210
0.0
220
1.0
230
-0.0000000000000002
  0
LINE
  5
18107
  8
0
  6
CONTINUOUS
 62
     3
 10
-72.0000000000483737
 20
72.99999999999973
 30
-0.0000000000000162
 11
-72.0000000000483737
 21
62.99999999999973
 31
-0.000000000000014
210
0.0
220
1.0
230
-0.0000000000000002
  0
ARC
  5
18108
  8
0
  6
CONTINUOUS
 62
     3
 10
65.5000000000048033
 20
8.0498756211203144
 30
0.0
 40
0.999999999995083
210
0.0
220
-0.0000000000000002
230
-1.0
 50
354.2894068624837018
 51
0.0000000000115009
  0
ARC
  5
18109
  8
0
  6
CONTINUOUS
 62
     3
 10
-65.5000000000050591
 20
8.0498756211203197
 30
0.0
 40
0.9999999999950546
210
0.0
220
-0.0000000000000002
230
-1.0
 50
179.9999999999884039
 51
185.7105931375162129
  0
LINE
  5
1810A
  8
0
  6
CONTINUOUS
 62
     3
 10
66.5000000000001137
 20
37.9999999999997229
 30
-0.0000000000000084
 11
66.5000000000001137
 21
8.0498756211205222
 31
-0.0000000000000018
210
0.0
220
1.0
230
-0.0000000000000002
  0
LINE
  5
1810B
  8
0
  6
CONTINUOUS
 62
     3
 10
-66.4999999999998863
 20
37.9999999999997087
 30
-0.0000000000000084
 11
-66.4999999999998863
 21
8.0498756211205151
 31
-0.0000000000000018
210
0.0
220
1.0
230
-0.0000000000000002
  0
LINE
  5
1810C
  8
0
  6
CONTINUOUS
 62
     3
 10
-65.6999999999998892
 20
-0.0000000000002891
 30
0.0
 11
-66.4950371902098709
 21
7.9503719020995147
 31
-0.0000000000000018
210
0.0
220
1.0
230
-0.0000000000000002
  0
LINE
  5
1810D
  8
0
  6
CONTINUOUS
 62
     3
 10
65.7000000000001165
 20
-0.0000000000002847
 30
0.0
 11
66.4950371902100983
 21
7.9503719020995236
 31
-0.0000000000000018
210
0.0
220
1.0
230
-0.0000000000000002
  0
LINE
  5
1810E
  8
0
  6
VERDECKT
 62
     1
 10
-63.7099256195316528
 20
0.1990074380465372
 30
0.0
 11
63.7099256195318731
 21
0.1990074380465453
 31
0.0
210
0.0
220
1.0
230
-0.0000000000000002
  0
ARC
  5
1810F
  8
0
  6
VERDECKT
 62
     1
 10
94.5000000000001563
 20
37.9999999999997371
 30
0.0
 40
30.0000000000002593
210
0.0
220
-0.0000000000000002
230
-1.0
 50
158.6325470100906045
 51
180.0
  0
ARC
  5
18110
  8
0
  6
VERDECKT
 62
     1
 10
-94.4999999999994458
 20
37.9999999999999218
 30
0.0
 40
29.9999999999993108
210
0.0
220
-0.0000000000000002
230
-1.0
 50
0.0
 51
21.3674529899101309
  0
LINE
  5
18111
  8
0
  6
VERDECKT
 62
     1
 10
-66.5621119560533288
 20
48.9304351077119719
 30
-0.0000000000000109
 11
-68.075362174350019
 21
52.7982605661350206
 31
-0.0000000000000117
210
0.0
220
1.0
230
-0.0000000000000002
  0
LINE
  5
18112
  8
0
  6
VERDECKT
 62
     1
 10
66.5621119560535561
 20
48.9304351077119932
 30
-0.0000000000000109
 11
68.0753621743502322
 21
52.7982605661350206
 31
-0.0000000000000117
210
0.0
220
1.0
230
-0.0000000000000002
  0
ARC
  5
18113
  8
0
  6
VERDECKT
 62
     1
 10
42.0000000000001776
 20
62.9999999999997016
 30
0.0
 40
27.9999999999997016
210
0.0
220
-0.0000000000000002
230
-1.0
 50
338.6325470100903203
 51
0.0000000000000763
  0
ARC
  5
18114
  8
0
  6
VERDECKT
 62
     1
 10
-42.0000000000000426
 20
62.9999999999997513
 30
0.0
 40
28.0000000000000604
210
0.0
220
-0.0000000000000002
230
-1.0
 50
180.0
 51
201.3674529899093955
  0
LINE
  5
18115
  8
0
  6
VERDECKT
 62
     1
 10
70.0000000000001137
 20
72.9999999999997442
 30
-0.0000000000000162
 11
70.0000000000001137
 21
62.9999999999997371
 31
-0.000000000000014
210
0.0
220
1.0
230
-0.0000000000000002
  0
LINE
  5
18116
  8
0
  6
VERDECKT
 62
     1
 10
-69.9999999999998863
 20
72.99999999999973
 30
-0.0000000000000162
 11
-69.9999999999998863
 21
62.9999999999997371
 31
-0.000000000000014
210
0.0
220
1.0
230
-0.0000000000000002
  0
ARC
  5
18117
  8
0
  6
VERDECKT
 62
     1
 10
63.4999999999805524
 20
8.1496268636070202
 30
0.0
 40
0.9999999999950759
210
0.0
220
-0.0000000000000002
230
-1.0
 50
354.2894068624837018
 51
0.0000000000115136
  0
ARC
  5
18118
  8
0
  6
VERDECKT
 62
     1
 10
-63.4999999999808225
 20
8.1496268636070308
 30
0.0
 40
0.9999999999950404
210
0.0
220
-0.0000000000000002
230
-1.0
 50
179.9999999999886029
 51
185.7105931375164118
  0
LINE
  5
18119
  8
0
  6
VERDECKT
 62
     1
 10
-63.7099256195316528
 20
0.1990074380465359
 30
0.0
 11
-64.495037190185613
 21
8.0501231445862231
 31
-0.0000000000000018
210
0.0
220
1.0
230
-0.0000000000000002
  0
LINE
  5
1811A
  8
0
  6
VERDECKT
 62
     1
 10
63.7099256195318802
 20
0.1990074380465395
 30
0.0
 11
64.4950371901858404
 21
8.0501231445862338
 31
-0.0000000000000018
210
0.0
220
1.0
230
-0.0000000000000002
  0
LINE
  5
1811B
  8
0
  6
VERDECKT
 62
     1
 10
64.4999999999758558
 20
37.9999999999997371
 30
-0.0000000000000084
 11
64.4999999999758558
 21
8.1496268636072298
 31
-0.0000000000000018
210
0.0
220
1.0
230
-0.0000000000000002
  0
LINE
  5
1811C
  8
0
  6
VERDECKT
 62
     1
 10
-64.4999999999756284
 20
37.99999999999973
 30
-0.0000000000000084
 11
-64.4999999999756284
 21
8.1496268636072227
 31
-0.0000000000000018
210
0.0
220
1.0
230
-0.0000000000000002
  0
LINE
  5
1811D
  8
0
  6
VERDECKT
 62
     1
 10
63.7099256195318731
 20
0.199007438046541
 30
0.0
 11
65.7000000000001165
 21
-0.0000000000002832
 31
0.0
210
0.0
220
1.0
230
-0.0000000000000002
  0
LINE
  5
1811E
  8
0
  6
VERDECKT
 62
     1
 10
-63.7099256195316528
 20
0.199007438046533
 30
0.0
 11
-65.6999999999998892
 21
-0.0000000000002915
 31
0.0
210
0.0
220
1.0
230
-0.0000000000000002
  0
ENDBLK
  5
18120
  8
0
  0
ENDSEC
  0
SECTION
  2
ENTITIES
  0
TEXT
  5
416B
  8
VOLL
 10
441.2467849443549994
 20
195.2108867802037935
 30
0.0
 40
1.8
  1

  7
GREEKS
  0
INSERT
  5
46F1
  8
ADSK_ASSOC_ENTITY_BACKUPS
  2
*S0
 10
0.0
 20
0.0
 30
0.0
  0
INSERT
  5
180FB
  8
STEMPEL
  2
A$C7F5AB1DD
 10
0.0000000000000046
 20
-122.0000000000488001
 30
0.0
  0
INSERT
  5
18121
  8
STEMPEL
  2
A$C2B30411F
 10
0.0
 20
0.0
 30
0.0
  0
VIEWPORT
  5
46D0
 67
     1
  8
0
 10
99.3802012256707883
 20
145.456850495445309
 30
0.0
 40
558.8319832755776133
 41
298.5191815856778135
 68
     1
 69
     1
1001
ACAD
1000
MVIEW
1002
{
1070
    16
1010
0.0
1020
0.0
1030
0.0
1010
0.0
1020
0.0
1030
1.0
1040
0.0
1040
298.5191815856778135
1040
99.3802012256707883
1040
145.456850495445309
1040
50.0
1040
0.0
1040
0.0
1070
     0
1070
  1500
1070
     1
1070
     1
1070
     0
1070
     0
1070
     0
1070
     0
1040
0.0
1040
0.0
1040
0.0
1040
10.0
1040
10.0
1040
10.0
1040
10.0
1070
     0
1002
{
1002
}
1002
}
  0
ENDSEC
  0
EOF
