  0
SECTION
  2
HEADER
  9
$ACADVER
  1
AC1009
  9
$INSBASE
 10
0.0
 20
0.0
 30
0.0
  9
$EXTMIN
 10
-61.3082044137968225
 20
-171.0315676563554916
 30
-0.0022276132396257
  9
$EXTMAX
 10
60.5196125945876702
 20
70.0537506899026994
 30
0.003341759791482
  9
$LIMMIN
 10
0.0
 20
0.0
  9
$LIMMAX
 10
1681.9999999999990905
 20
1188.0
  9
$ORTHOMODE
 70
     1
  9
$REGENMODE
 70
     1
  9
$FILLMODE
 70
     1
  9
$QTEXTMODE
 70
     0
  9
$MIRRTEXT
 70
     1
  9
$DRAGMODE
 70
     2
  9
$LTSCALE
 40
20.0
  9
$OSMODE
 70
   511
  9
$ATTMODE
 70
     1
  9
$TEXTSIZE
 40
3.5
  9
$TRACEWID
 40
1.0
  9
$TEXTSTYLE
  7
STANDARD
  9
$CLAYER
  8
STEMPEL
  9
$CELTYPE
  6
BYLAYER
  9
$CECOLOR
 62
   256
  9
$DIMSCALE
 40
1.0
  9
$DIMASZ
 40
3.5
  9
$DIMEXO
 40
1.0
  9
$DIMDLI
 40
0.38
  9
$DIMRND
 40
0.0
  9
$DIMDLE
 40
0.0
  9
$DIMEXE
 40
1.0
  9
$DIMTP
 40
0.0
  9
$DIMTM
 40
0.000000001
  9
$DIMTXT
 40
3.5
  9
$DIMCEN
 40
0.09
  9
$DIMTSZ
 40
0.0
  9
$DIMTOL
 70
     0
  9
$DIMLIM
 70
     0
  9
$DIMTIH
 70
     0
  9
$DIMTOH
 70
     0
  9
$DIMSE1
 70
     0
  9
$DIMSE2
 70
     0
  9
$DIMTAD
 70
     1
  9
$DIMZIN
 70
     8
  9
$DIMBLK
  1

  9
$DIMASO
 70
     1
  9
$DIMSHO
 70
     0
  9
$DIMPOST
  1

  9
$DIMAPOST
  1

  9
$DIMALT
 70
     0
  9
$DIMALTD
 70
     2
  9
$DIMALTF
 40
25.3999999999999986
  9
$DIMLFAC
 40
2.0
  9
$DIMTOFL
 70
     1
  9
$DIMTVP
 40
0.0
  9
$DIMTIX
 70
     0
  9
$DIMSOXD
 70
     0
  9
$DIMSAH
 70
     0
  9
$DIMBLK1
  1

  9
$DIMBLK2
  1

  9
$DIMSTYLE
  2
LORO
  9
$DIMCLRD
 70
     0
  9
$DIMCLRE
 70
     0
  9
$DIMCLRT
 70
     1
  9
$DIMTFAC
 40
0.5
  9
$DIMGAP
 40
1.5
  9
$LUNITS
 70
     2
  9
$LUPREC
 70
     2
  9
$SKETCHINC
 40
1.0
  9
$FILLETRAD
 40
16.0
  9
$AUNITS
 70
     0
  9
$AUPREC
 70
     0
  9
$MENU
  1
ACAD
  9
$ELEVATION
 40
0.0
  9
$PELEVATION
 40
0.0
  9
$THICKNESS
 40
0.0
  9
$LIMCHECK
 70
     0
  9
$BLIPMODE
 70
     0
  9
$CHAMFERA
 40
2.0
  9
$CHAMFERB
 40
2.0
  9
$SKPOLY
 70
     0
  9
$TDCREATE
 40
2455397.867048610933125
  9
$TDUPDATE
 40
2459710.6319560180418193
  9
$TDINDWG
 40
4.1344446295999999
  9
$TDUSRTIMER
 40
4.1344446295999999
  9
$USRTIMER
 70
     1
  9
$ANGBASE
 50
0.0
  9
$ANGDIR
 70
     0
  9
$PDMODE
 70
     0
  9
$PDSIZE
 40
0.0
  9
$PLINEWID
 40
0.0
  9
$COORDS
 70
     1
  9
$SPLFRAME
 70
     0
  9
$SPLINETYPE
 70
     6
  9
$SPLINESEGS
 70
     8
  9
$ATTDIA
 70
     1
  9
$ATTREQ
 70
     1
  9
$HANDLING
 70
     1
  9
$HANDSEED
  5
185D6
  9
$SURFTAB1
 70
     6
  9
$SURFTAB2
 70
     6
  9
$SURFTYPE
 70
     6
  9
$SURFU
 70
     6
  9
$SURFV
 70
     6
  9
$UCSNAME
  2

  9
$UCSORG
 10
0.0
 20
0.0
 30
0.0
  9
$UCSXDIR
 10
1.0
 20
0.0
 30
0.0
  9
$UCSYDIR
 10
0.0
 20
1.0
 30
0.0
  9
$PUCSNAME
  2

  9
$PUCSORG
 10
0.0
 20
0.0
 30
0.0
  9
$PUCSXDIR
 10
1.0
 20
0.0
 30
0.0
  9
$PUCSYDIR
 10
0.0
 20
1.0
 30
0.0
  9
$USERI1
 70
     0
  9
$USERI2
 70
     0
  9
$USERI3
 70
     0
  9
$USERI4
 70
     0
  9
$USERI5
 70
     0
  9
$USERR1
 40
0.0
  9
$USERR2
 40
0.0
  9
$USERR3
 40
0.0
  9
$USERR4
 40
0.0
  9
$USERR5
 40
0.0
  9
$WORLDVIEW
 70
     1
  9
$SHADEDGE
 70
     3
  9
$SHADEDIF
 70
    70
  9
$TILEMODE
 70
     1
  9
$MAXACTVP
 70
    16
  9
$PLIMCHECK
 70
     0
  9
$PEXTMIN
 10
1.0000000000000000E+20
 20
1.0000000000000000E+20
 30
1.0000000000000000E+20
  9
$PEXTMAX
 10
-1.0000000000000000E+20
 20
-1.0000000000000000E+20
 30
-1.0000000000000000E+20
  9
$PLIMMIN
 10
-5.6197987743291833
 20
-3.0431495045546622
  9
$PLIMMAX
 10
204.3802012256707883
 20
293.9568504954452806
  9
$UNITMODE
 70
     0
  9
$VISRETAIN
 70
     0
  9
$PLINEGEN
 70
     0
  9
$PSLTSCALE
 70
     0
  0
ENDSEC
  0
SECTION
  2
TABLES
  0
TABLE
  2
VPORT
 70
     1
  0
VPORT
  2
*ACTIVE
 70
     0
 10
0.0
 20
0.0
 11
1.0
 21
1.0
 12
-0.3942959096045513
 22
-55.2410180108142796
 13
0.0
 23
0.0
 14
1.0
 24
1.0
 15
10.0
 25
10.0
 16
-0.0000000000001018
 26
0.0
 36
458.3607671735879876
 17
0.0
 27
4.7521095275878897
 37
-0.0000000000000078
 40
242.3184913301265055
 41
1.8720136518771331
 42
50.0
 43
0.0
 44
0.0
 50
0.0
 51
0.0
 71
     0
 72
  1500
 73
     1
 74
     0
 75
     0
 76
     0
 77
     0
 78
     0
  0
ENDTAB
  0
TABLE
  2
LTYPE
 70
     3
  0
LTYPE
  2
CONTINUOUS
 70
     0
  3
Solid line
 72
    65
 73
     0
 40
0.0
  0
LTYPE
  2
STRICHPUNKT
 70
     0
  3
__ . __ . __ . __ . __ . __ . __ . __ . __ . __
 72
    65
 73
     4
 40
1.0
 49
0.5
 49
-0.25
 49
0.0
 49
-0.25
  0
LTYPE
  2
VERDECKT
 70
     0
  3
Verdeckt __ __ __ __ __ __ __ __ __ __ __ __ __
 72
    65
 73
     2
 40
0.375
 49
0.25
 49
-0.125
  0
ENDTAB
  0
TABLE
  2
LAYER
 70
     6
  0
LAYER
  2
0
 70
     0
 62
     7
  6
CONTINUOUS
  0
LAYER
  2
VOLL
 70
     0
 62
     1
  6
CONTINUOUS
  0
LAYER
  2
STEMPEL
 70
     0
 62
     3
  6
CONTINUOUS
  0
LAYER
  2
DEFPOINTS
 70
     0
 62
     7
  6
CONTINUOUS
  0
LAYER
  2
ADSK_ASSOC_ENTITY_BACKUPS
 70
     1
 62
    -7
  6
CONTINUOUS
  0
ENDTAB
  0
TABLE
  2
STYLE
 70
     3
  0
STYLE
  2
STANDARD
 70
     0
 40
0.0
 41
0.8
 50
0.0
 71
     0
 42
3.5
  3
simplex.shx
  4

  0
STYLE
  2
GREEKS
 70
     0
 40
0.0
 41
0.8
 50
0.0
 71
     0
 42
2.5
  3
SIMPLEX.shx
  4

  0
ENDTAB
  0
TABLE
  2
VIEW
 70
     0
  0
ENDTAB
  0
TABLE
  2
UCS
 70
     0
  0
ENDTAB
  0
TABLE
  2
APPID
 70
    30
  0
APPID
  2
ACAD
 70
     0
  0
APPID
  2
ACAD_EXEMPT_FROM_CAD_STANDARDS
 70
     0
  0
APPID
  2
ACAD_NAV_VCDISPLAY
 70
     0
  0
APPID
  2
GRADIENTCOLOR1ACI
 70
     0
  0
APPID
  2
GRADIENTCOLOR2ACI
 70
     0
  0
APPID
  2
ACAUTHENVIRON
 70
     0
  0
APPID
  2
ACDBDYNAMICBLOCKTRUENAME
 70
     0
  0
APPID
  2
ACDBDYNAMICBLOCKGUID
 70
     0
  0
APPID
  2
ACAD_PSEXT
 70
     0
  0
APPID
  2
ACAD_MLEADERVER
 70
     0
  0
APPID
  2
ACAECLAYERSTANDARD
 70
     0
  0
APPID
  2
ACCMTRANSPARENCY
 70
     0
  0
APPID
  2
ACAD_STEPID
 70
     0
  0
APPID
  2
ACSYNERGY
 70
     0
  0
APPID
  2
SYNERGY_BODY_TBR_ID
 70
     0
  0
APPID
  2
ACAD_VIEW_EDGE_ID
 70
     0
  0
APPID
  2
ACAD_DSTYLE_DIMJAG
 70
     0
  0
APPID
  2
ACAD_DSTYLE_DIMBREAK
 70
     0
  0
APPID
  2
ACAD_DSTYLE_DIMTALN
 70
     0
  0
APPID
  2
ACADANNOMONITORALERTICONDI
 70
     0
  0
APPID
  2
ACAD_DIMASSOC_CALC_DIMLFAC
 70
     0
  0
APPID
  2
ACAD_DIMASSOC_DIMLFAC
 70
     0
  0
APPID
  2
ACAD_DIMASSOC_OVERRIDDEN_D
 70
     0
  0
APPID
  2
ACAD_DSTYLE_DIMRADIAL_EXTENSION
 70
     0
  0
APPID
  2
ACADANNOPO
 70
     0
  0
APPID
  2
ACSYNERGYSKETCH
 70
     0
  0
APPID
  2
ACAD_MODELDOC_XFORM
 70
     0
  0
APPID
  2
SYNERGY_EXCLUDED_FROM_SNAPSHOT
 70
     0
  0
APPID
  2
PLOTTRANSPARENCY
 70
     0
  0
APPID
  2
ACAD_TC
 70
     0
  0
ENDTAB
  0
TABLE
  2
DIMSTYLE
 70
     2
  0
DIMSTYLE
  2
STANDARD
 70
     0
  3

  4

  5

  6

  7

 40
1.0
 41
0.18
 42
0.0625
 43
0.38
 44
0.18
 45
0.0
 46
0.0
 47
0.0
 48
0.0
140
0.18
141
0.09
142
0.0
143
25.3999999999999986
144
1.0
145
0.0
146
1.0
147
0.09
 71
     0
 72
     0
 73
     1
 74
     1
 75
     0
 76
     0
 77
     0
 78
     0
170
     0
171
     2
172
     0
173
     0
174
     0
175
     0
176
     0
177
     0
178
     0
  0
DIMSTYLE
  2
LORO
 70
     0
  3

  4

  5

  6

  7

 40
1.0
 41
3.5
 42
1.0
 43
0.38
 44
1.0
 45
0.0
 46
0.0
 47
0.0
 48
0.000000001
140
3.5
141
0.09
142
0.0
143
25.3999999999999986
144
2.0
145
0.0
146
0.5
147
1.5
 71
     0
 72
     0
 73
     0
 74
     0
 75
     0
 76
     0
 77
     1
 78
     8
170
     0
171
     2
172
     1
173
     0
174
     0
175
     0
176
     0
177
     0
178
     1
  0
ENDTAB
  0
ENDSEC
  0
SECTION
  2
BLOCKS
  0
BLOCK
  8
0
  2
$MODEL_SPACE
 70
     0
 10
0.0
 20
0.0
 30
0.0
  3
$MODEL_SPACE
  1

  0
ENDBLK
  5
38
  8
0
  0
BLOCK
 67
     1
  8
0
  2
$PAPER_SPACE
 70
     0
 10
0.0
 20
0.0
 30
0.0
  3
$PAPER_SPACE
  1

  0
ENDBLK
  5
36
 67
     1
  8
0
  0
BLOCK
  8
0
  2
*S0
 70
     1
 10
0.0
 20
0.0
 30
0.0
  3
*S0
  1

  0
ENDBLK
  5
46EF
  8
0
  0
BLOCK
  8
0
  2
A$CC2380FF5
 70
     0
 10
0.0
 20
0.0
 30
0.0
  3
A$CC2380FF5
  1

  0
LINE
  5
18554
  8
0
  6
CONTINUOUS
 62
     3
 10
-50.6999999999998607
 20
-0.0000000000000138
 30
0.0
 11
50.7000000000001023
 21
-0.0000000000000074
 31
0.0
210
0.0
220
1.0
230
-0.0000000000000002
  0
LINE
  5
18555
  8
0
  6
CONTINUOUS
 62
     3
 10
-60.4999999999999076
 20
70.0
 30
-0.0000000000000155
 11
60.5000000000001066
 21
70.0
 31
-0.0000000000000155
210
0.0
220
1.0
230
-0.0000000000000002
  0
ARC
  5
18556
  8
0
  6
CONTINUOUS
 62
     3
 10
50.4999999999962697
 20
8.0498756211210143
 30
0.0
 40
1.0000000000036089
210
0.0
220
-0.0000000000000002
230
-1.0
 50
354.2894068625121804
 51
359.9999999999910756
  0
ARC
  5
18557
  8
0
  6
CONTINUOUS
 62
     3
 10
-50.4999999999965468
 20
8.0498756211210196
 30
0.0
 40
1.000000000003566
210
0.0
220
-0.0000000000000002
230
-1.0
 50
180.000000000008697
 51
185.7105931374879049
  0
LINE
  5
18558
  8
0
  6
CONTINUOUS
 62
     3
 10
51.5000000000001066
 20
40.0
 30
-0.0000000000000089
 11
51.5000000000001066
 21
8.0498756211208669
 31
-0.0000000000000018
210
0.0
220
1.0
230
-0.0000000000000002
  0
LINE
  5
18559
  8
0
  6
CONTINUOUS
 62
     3
 10
-51.4999999999998792
 20
40.0
 30
-0.0000000000000089
 11
-51.4999999999998792
 21
8.0498756211208597
 31
-0.0000000000000018
210
0.0
220
1.0
230
-0.0000000000000002
  0
LINE
  5
1855A
  8
0
  6
CONTINUOUS
 62
     3
 10
-50.6999999999998892
 20
-0.0000000000000138
 30
0.0
 11
-51.4950371902098709
 21
7.9503719020998611
 31
-0.0000000000000018
210
0.0
220
1.0
230
-0.0000000000000002
  0
LINE
  5
1855B
  8
0
  6
CONTINUOUS
 62
     3
 10
50.7000000000001094
 20
-0.0000000000000102
 30
0.0
 11
51.4950371902100983
 21
7.9503719020998691
 31
-0.0000000000000018
210
0.0
220
1.0
230
-0.0000000000000002
  0
ARC
  5
1855C
  8
0
  6
CONTINUOUS
 62
     3
 10
53.9999999999999005
 20
60.0
 30
0.0
 40
6.499999999999992
210
0.0
220
-0.0000000000000002
230
-1.0
 50
329.9796896468806722
 51
359.9999999999998863
  0
ARC
  5
1855D
  8
0
  6
CONTINUOUS
 62
     3
 10
-53.9999999999999929
 20
60.0000000000000284
 30
0.0
 40
6.5000000000001128
210
0.0
220
-0.0000000000000002
230
-1.0
 50
180.000000000000199
 51
210.0203103531187878
  0
LINE
  5
1855E
  8
0
  6
CONTINUOUS
 62
     3
 10
-52.8415189189037804
 20
45.0030695945889505
 30
-0.00000000000001
 11
-59.6280127027123825
 21
56.74800476351718
 31
-0.0000000000000126
210
0.0
220
1.0
230
-0.0000000000000002
  0
LINE
  5
1855F
  8
0
  6
CONTINUOUS
 62
     3
 10
52.8415189189039936
 20
45.0030695945889505
 30
-0.00000000000001
 11
59.6280127027126028
 21
56.7480047635171871
 31
-0.0000000000000126
210
0.0
220
1.0
230
-0.0000000000000002
  0
ARC
  5
18560
  8
0
  6
CONTINUOUS
 62
     3
 10
61.4999999999998508
 20
40.0
 30
0.0
 40
9.9999999999999645
210
0.0
220
-0.0000000000000002
230
-1.0
 50
149.9796896468805869
 51
179.9999999999998863
  0
ARC
  5
18561
  8
0
  6
CONTINUOUS
 62
     3
 10
-61.5000000000002771
 20
39.9999999999999574
 30
0.0
 40
10.0000000000001705
210
0.0
220
-0.0000000000000002
230
-1.0
 50
0.0000000000002036
 51
30.0203103531188908
  0
LINE
  5
18562
  8
0
  6
CONTINUOUS
 62
     3
 10
60.5000000000001066
 20
70.0
 30
-0.0000000000000155
 11
60.5000000000001066
 21
60.0
 31
-0.0000000000000133
210
0.0
220
1.0
230
-0.0000000000000002
  0
LINE
  5
18563
  8
0
  6
CONTINUOUS
 62
     3
 10
-60.4999999999999005
 20
70.0
 30
-0.0000000000000155
 11
-60.4999999999999005
 21
60.0
 31
-0.0000000000000133
210
0.0
220
1.0
230
-0.0000000000000002
  0
LINE
  5
18564
  8
0
  6
VERDECKT
 62
     1
 10
-49.2074442146849194
 20
0.1492555785314883
 30
0.0
 11
49.2074442146851325
 21
0.1492555785314945
 31
0.0
210
0.0
220
1.0
230
-0.0000000000000002
  0
ARC
  5
18565
  8
0
  6
VERDECKT
 62
     1
 10
48.9999999999962128
 20
8.1246890528024043
 30
0.0
 40
1.0000000000036731
210
0.0
220
-0.0000000000000002
230
-1.0
 50
354.2894068625122941
 51
359.9999999999909051
  0
ARC
  5
18566
  8
0
  6
VERDECKT
 62
     1
 10
-48.9999999999964402
 20
8.1246890528024114
 30
0.0
 40
1.0000000000036731
210
0.0
220
-0.0000000000000002
230
-1.0
 50
180.0000000000090097
 51
185.7105931374877059
  0
LINE
  5
18567
  8
0
  6
VERDECKT
 62
     1
 10
-49.2074442146849123
 20
0.1492555785314887
 30
0.0
 11
-49.995037190209878
 21
8.0251853337812467
 31
-0.0000000000000018
210
0.0
220
1.0
230
-0.0000000000000002
  0
LINE
  5
18568
  8
0
  6
VERDECKT
 62
     1
 10
49.2074442146851183
 20
0.1492555785314882
 30
0.0
 11
49.9950371902100983
 21
8.0251853337812538
 31
-0.0000000000000018
210
0.0
220
1.0
230
-0.0000000000000002
  0
LINE
  5
18569
  8
0
  6
VERDECKT
 62
     1
 10
50.0000000000001066
 20
40.0000000000000071
 30
-0.0000000000000089
 11
50.0000000000001066
 21
8.1246890528022551
 31
-0.0000000000000018
210
0.0
220
1.0
230
-0.0000000000000002
  0
LINE
  5
1856A
  8
0
  6
VERDECKT
 62
     1
 10
-49.9999999999998934
 20
40.0000000000000071
 30
-0.0000000000000089
 11
-49.9999999999998934
 21
8.1246890528022462
 31
-0.0000000000000018
210
0.0
220
1.0
230
-0.0000000000000002
  0
LINE
  5
1856B
  8
0
  6
VERDECKT
 62
     1
 10
49.2074442146851325
 20
0.1492555785314932
 30
0.0
 11
50.7000000000001094
 21
-0.0000000000000054
 31
0.0
210
0.0
220
1.0
230
-0.0000000000000002
  0
LINE
  5
1856C
  8
0
  6
VERDECKT
 62
     1
 10
-49.2074442146849123
 20
0.149255578531487
 30
0.0
 11
-50.6999999999998892
 21
-0.0000000000000118
 31
0.0
210
0.0
220
1.0
230
-0.0000000000000002
  0
ARC
  5
1856D
  8
0
  6
VERDECKT
 62
     1
 10
61.4999999999999716
 20
40.0
 30
0.0
 40
11.5000000000000799
210
0.0
220
-0.0000000000000002
230
-1.0
 50
149.9796896468808995
 51
179.999999999999801
  0
ARC
  5
1856E
  8
0
  6
VERDECKT
 62
     1
 10
-61.5000000000001492
 20
40.0000000000000071
 30
0.0
 40
11.5000000000000302
210
0.0
220
-0.0000000000000002
230
-1.0
 50
360.0
 51
30.0203103531190401
  0
LINE
  5
1856F
  8
0
  6
VERDECKT
 62
     1
 10
-51.5427467567393407
 20
45.7535300337772881
 30
-0.0000000000000102
 11
-58.329240540547957
 21
57.4984652027055319
 31
-0.0000000000000128
210
0.0
220
1.0
230
-0.0000000000000002
  0
LINE
  5
18570
  8
0
  6
VERDECKT
 62
     1
 10
51.542746756739561
 20
45.7535300337772881
 30
-0.0000000000000102
 11
58.3292405405481915
 21
57.4984652027055319
 31
-0.0000000000000128
210
0.0
220
1.0
230
-0.0000000000000002
  0
ARC
  5
18571
  8
0
  6
VERDECKT
 62
     1
 10
53.9999999999999289
 20
60.0
 30
0.0
 40
4.9999999999999662
210
0.0
220
-0.0000000000000002
230
-1.0
 50
329.9796896468806722
 51
0.0000000000004071
  0
ARC
  5
18572
  8
0
  6
VERDECKT
 62
     1
 10
-54.0000000000002203
 20
60.0
 30
0.0
 40
4.9999999999998854
210
0.0
220
-0.0000000000000002
230
-1.0
 50
179.9999999999994884
 51
210.0203103531194984
  0
LINE
  5
18573
  8
0
  6
VERDECKT
 62
     1
 10
59.0000000000001066
 20
70.0000000000000142
 30
-0.0000000000000155
 11
59.0000000000001066
 21
60.0000000000000284
 31
-0.0000000000000133
210
0.0
220
1.0
230
-0.0000000000000002
  0
LINE
  5
18574
  8
0
  6
VERDECKT
 62
     1
 10
-58.9999999999998934
 20
70.0000000000000142
 30
-0.0000000000000155
 11
-58.9999999999998934
 21
60.0000000000000284
 31
-0.0000000000000133
210
0.0
220
1.0
230
-0.0000000000000002
  0
ENDBLK
  5
18576
  8
0
  0
BLOCK
  8
0
  2
A$C3D2B96B9
 70
     0
 10
0.0
 20
0.0
 30
0.0
  3
A$C3D2B96B9
  1

  0
CIRCLE
  5
1857A
  8
0
  6
CONTINUOUS
 62
     3
 10
0.0000000000001137
 20
0.0
 30
0.0
 40
49.2074442146850117
  0
CIRCLE
  5
1857B
  8
0
  6
CONTINUOUS
 62
     3
 10
0.00000000000012
 20
0.0000000000000024
 30
0.0
 40
50.0
  0
CIRCLE
  5
1857C
  8
0
  6
CONTINUOUS
 62
     3
 10
0.0000000000001248
 20
0.0000000000000043
 30
0.0
 40
59.0
  0
CIRCLE
  5
1857D
  8
0
  6
CONTINUOUS
 62
     3
 10
0.0000000000001248
 20
0.0000000000000043
 30
0.0
 40
60.5
  0
CIRCLE
  5
1857E
  8
0
  6
VERDECKT
 62
     1
 10
0.00000000000012
 20
0.0000000000000024
 30
0.0
 40
51.4999999999999929
  0
CIRCLE
  5
1857F
  8
0
  6
VERDECKT
 62
     1
 10
0.0000000000001137
 20
0.0
 30
0.0
 40
50.7000000000000028
  0
ENDBLK
  5
18581
  8
0
  0
ENDSEC
  0
SECTION
  2
ENTITIES
  0
TEXT
  5
416B
  8
VOLL
 10
441.2467849443549994
 20
195.2108867802037935
 30
0.0
 40
1.8
  1

  7
GREEKS
  0
INSERT
  5
46F1
  8
ADSK_ASSOC_ENTITY_BACKUPS
  2
*S0
 10
0.0
 20
0.0
 30
0.0
  0
INSERT
  5
18577
  8
STEMPEL
  2
A$CC2380FF5
 10
0.0
 20
0.0
 30
0.0
  0
INSERT
  5
18582
  8
STEMPEL
  2
A$C3D2B96B9
 10
0.0000000000000038
 20
-110.5
 30
0.0
  0
VIEWPORT
  5
46D0
 67
     1
  8
0
 10
99.3802012256707883
 20
145.456850495445309
 30
0.0
 40
558.8319832755776133
 41
298.5191815856778135
 68
     1
 69
     1
1001
ACAD
1000
MVIEW
1002
{
1070
    16
1010
0.0
1020
0.0
1030
0.0
1010
0.0
1020
0.0
1030
1.0
1040
0.0
1040
298.5191815856778135
1040
99.3802012256707883
1040
145.456850495445309
1040
50.0
1040
0.0
1040
0.0
1070
     0
1070
  1500
1070
     1
1070
     1
1070
     0
1070
     0
1070
     0
1070
     0
1040
0.0
1040
0.0
1040
0.0
1040
10.0
1040
10.0
1040
10.0
1040
10.0
1070
     0
1002
{
1002
}
1002
}
  0
ENDSEC
  0
EOF
