  0
SECTION
  2
HEADER
  9
$ACADVER
  1
AC1009
  9
$INSBASE
 10
0.0
 20
0.0
 30
0.0
  9
$EXTMIN
 10
-50.2000001978738126
 20
-150.2000004759269984
 30
-0.0000000325963185
  9
$EXTMAX
 10
50.1999999685476723
 20
69.9999997474308202
 30
-0.0000000325963185
  9
$LIMMIN
 10
0.0
 20
0.0
  9
$LIMMAX
 10
419.9999999999998863
 20
594.0
  9
$ORTHOMODE
 70
     1
  9
$REGENMODE
 70
     1
  9
$FILLMODE
 70
     1
  9
$QTEXTMODE
 70
     0
  9
$MIRRTEXT
 70
     1
  9
$DRAGMODE
 70
     2
  9
$LTSCALE
 40
10.0
  9
$OSMODE
 70
   511
  9
$ATTMODE
 70
     1
  9
$TEXTSIZE
 40
3.5
  9
$TRACEWID
 40
1.0
  9
$TEXTSTYLE
  7
STANDARD
  9
$CLAYER
  8
STEMPEL
  9
$CELTYPE
  6
BYLAYER
  9
$CECOLOR
 62
   256
  9
$DIMSCALE
 40
1.0
  9
$DIMASZ
 40
3.5
  9
$DIMEXO
 40
1.0
  9
$DIMDLI
 40
0.38
  9
$DIMRND
 40
0.0
  9
$DIMDLE
 40
0.0
  9
$DIMEXE
 40
1.0
  9
$DIMTP
 40
0.0
  9
$DIMTM
 40
0.000000001
  9
$DIMTXT
 40
3.5
  9
$DIMCEN
 40
0.09
  9
$DIMTSZ
 40
0.0
  9
$DIMTOL
 70
     0
  9
$DIMLIM
 70
     0
  9
$DIMTIH
 70
     0
  9
$DIMTOH
 70
     0
  9
$DIMSE1
 70
     0
  9
$DIMSE2
 70
     0
  9
$DIMTAD
 70
     1
  9
$DIMZIN
 70
     8
  9
$DIMBLK
  1

  9
$DIMASO
 70
     1
  9
$DIMSHO
 70
     0
  9
$DIMPOST
  1

  9
$DIMAPOST
  1

  9
$DIMALT
 70
     0
  9
$DIMALTD
 70
     2
  9
$DIMALTF
 40
25.3999999999999986
  9
$DIMLFAC
 40
2.0
  9
$DIMTOFL
 70
     1
  9
$DIMTVP
 40
0.0
  9
$DIMTIX
 70
     0
  9
$DIMSOXD
 70
     0
  9
$DIMSAH
 70
     0
  9
$DIMBLK1
  1

  9
$DIMBLK2
  1

  9
$DIMSTYLE
  2
LORO
  9
$DIMCLRD
 70
     0
  9
$DIMCLRE
 70
     0
  9
$DIMCLRT
 70
     1
  9
$DIMTFAC
 40
0.5
  9
$DIMGAP
 40
1.5
  9
$LUNITS
 70
     2
  9
$LUPREC
 70
     2
  9
$SKETCHINC
 40
1.0
  9
$FILLETRAD
 40
2.0
  9
$AUNITS
 70
     0
  9
$AUPREC
 70
     2
  9
$MENU
  1
ACAD
  9
$ELEVATION
 40
0.0
  9
$PELEVATION
 40
0.0
  9
$THICKNESS
 40
0.0
  9
$LIMCHECK
 70
     0
  9
$BLIPMODE
 70
     0
  9
$CHAMFERA
 40
0.0
  9
$CHAMFERB
 40
0.0
  9
$SKPOLY
 70
     0
  9
$TDCREATE
 40
2455397.867048610933125
  9
$TDUPDATE
 40
2460591.5713425930589437
  9
$TDINDWG
 40
0.7853758449
  9
$TDUSRTIMER
 40
0.7853758449
  9
$USRTIMER
 70
     1
  9
$ANGBASE
 50
0.0
  9
$ANGDIR
 70
     0
  9
$PDMODE
 70
     0
  9
$PDSIZE
 40
0.0
  9
$PLINEWID
 40
0.0
  9
$COORDS
 70
     1
  9
$SPLFRAME
 70
     0
  9
$SPLINETYPE
 70
     6
  9
$SPLINESEGS
 70
     8
  9
$ATTDIA
 70
     1
  9
$ATTREQ
 70
     1
  9
$HANDLING
 70
     1
  9
$HANDSEED
  5
48DE
  9
$SURFTAB1
 70
     6
  9
$SURFTAB2
 70
     6
  9
$SURFTYPE
 70
     6
  9
$SURFU
 70
     6
  9
$SURFV
 70
     6
  9
$UCSNAME
  2

  9
$UCSORG
 10
0.0
 20
0.0
 30
0.0
  9
$UCSXDIR
 10
1.0
 20
0.0
 30
0.0
  9
$UCSYDIR
 10
0.0
 20
1.0
 30
0.0
  9
$PUCSNAME
  2

  9
$PUCSORG
 10
0.0
 20
0.0
 30
0.0
  9
$PUCSXDIR
 10
1.0
 20
0.0
 30
0.0
  9
$PUCSYDIR
 10
0.0
 20
1.0
 30
0.0
  9
$USERI1
 70
     0
  9
$USERI2
 70
     0
  9
$USERI3
 70
     0
  9
$USERI4
 70
     0
  9
$USERI5
 70
     0
  9
$USERR1
 40
0.0
  9
$USERR2
 40
0.0
  9
$USERR3
 40
0.0
  9
$USERR4
 40
0.0
  9
$USERR5
 40
0.0
  9
$WORLDVIEW
 70
     1
  9
$SHADEDGE
 70
     3
  9
$SHADEDIF
 70
    70
  9
$TILEMODE
 70
     1
  9
$MAXACTVP
 70
    16
  9
$PLIMCHECK
 70
     0
  9
$PEXTMIN
 10
1.0000000000000000E+20
 20
1.0000000000000000E+20
 30
1.0000000000000000E+20
  9
$PEXTMAX
 10
-1.0000000000000000E+20
 20
-1.0000000000000000E+20
 30
-1.0000000000000000E+20
  9
$PLIMMIN
 10
-0.2050258115029919
 20
-0.2543374908216265
  9
$PLIMMAX
 10
209.7949741884970081
 20
296.7456625091783735
  9
$UNITMODE
 70
     0
  9
$VISRETAIN
 70
     0
  9
$PLINEGEN
 70
     0
  9
$PSLTSCALE
 70
     0
  0
ENDSEC
  0
SECTION
  2
TABLES
  0
TABLE
  2
VPORT
 70
     1
  0
VPORT
  2
*ACTIVE
 70
     0
 10
0.0
 20
0.0
 11
1.0
 21
1.0
 12
-0.000000114663095
 22
-50.0017509288232915
 13
0.0
 23
0.0
 14
1.0
 24
1.0
 15
10.0
 25
10.0
 16
-0.00000000000009
 26
0.0
 36
405.4352508601724026
 17
0.0
 27
9.9017505645751953
 37
-0.0000000000000078
 40
221.3350517709008898
 41
1.8847807394668961
 42
50.0
 43
0.0
 44
0.0
 50
0.0
 51
0.0
 71
     0
 72
  1500
 73
     1
 74
     0
 75
     0
 76
     0
 77
     0
 78
     0
  0
ENDTAB
  0
TABLE
  2
LTYPE
 70
     3
  0
LTYPE
  2
CONTINUOUS
 70
     0
  3
Solid line
 72
    65
 73
     0
 40
0.0
  0
LTYPE
  2
STRICHPUNKT
 70
     0
  3
__ . __ . __ . __ . __ . __ . __ . __ . __ . __
 72
    65
 73
     4
 40
1.0
 49
0.5
 49
-0.25
 49
0.0
 49
-0.25
  0
LTYPE
  2
VERDECKT
 70
     0
  3
Verdeckt __ __ __ __ __ __ __ __ __ __ __ __ __
 72
    65
 73
     2
 40
0.375
 49
0.25
 49
-0.125
  0
ENDTAB
  0
TABLE
  2
LAYER
 70
     6
  0
LAYER
  2
0
 70
     0
 62
     7
  6
CONTINUOUS
  0
LAYER
  2
VOLL
 70
     0
 62
     1
  6
CONTINUOUS
  0
LAYER
  2
STEMPEL
 70
     0
 62
     3
  6
CONTINUOUS
  0
LAYER
  2
ADSK_ASSOC_ENTITY_BACKUPS
 70
     1
 62
    -7
  6
CONTINUOUS
  0
ENDTAB
  0
TABLE
  2
STYLE
 70
     3
  0
STYLE
  2
STANDARD
 70
     0
 40
0.0
 41
0.8
 50
0.0
 71
     0
 42
3.5
  3
simplex.shx
  4

  0
STYLE
  2
GREEKS
 70
     0
 40
0.0
 41
0.8
 50
0.0
 71
     0
 42
2.5
  3
SIMPLEX.shx
  4

  0
ENDTAB
  0
TABLE
  2
VIEW
 70
     0
  0
ENDTAB
  0
TABLE
  2
UCS
 70
     0
  0
ENDTAB
  0
TABLE
  2
APPID
 70
    22
  0
APPID
  2
ACAD
 70
     0
  0
APPID
  2
ACAECLAYERSTANDARD
 70
     0
  0
APPID
  2
ACCMTRANSPARENCY
 70
     0
  0
APPID
  2
ACAD_NAV_VCDISPLAY
 70
     0
  0
APPID
  2
ACAD_PSEXT
 70
     0
  0
APPID
  2
ACAD_EXEMPT_FROM_CAD_STANDARDS
 70
     0
  0
APPID
  2
ACSYNERGY
 70
     0
  0
APPID
  2
SYNERGY_BODY_TBR_ID
 70
     0
  0
APPID
  2
ACAD_VIEW_EDGE_ID
 70
     0
  0
APPID
  2
ACSYNERGYSKETCH
 70
     0
  0
APPID
  2
ACAD_MODELDOC_XFORM
 70
     0
  0
APPID
  2
ACAD_MLEADERVER
 70
     0
  0
APPID
  2
ACADANNOMONITORALERTICONDI
 70
     0
  0
APPID
  2
ACAD_DSTYLE_DIMJAG
 70
     0
  0
APPID
  2
ACAD_DSTYLE_DIMTALN
 70
     0
  0
APPID
  2
ACAD_DSTYLE_DIMBREAK
 70
     0
  0
APPID
  2
ACAD_STEPID
 70
     0
  0
APPID
  2
ACAD_TC
 70
     0
  0
APPID
  2
ACDBDYNAMICBLOCKGUID
 70
     0
  0
APPID
  2
ACADANNOPO
 70
     0
  0
APPID
  2
PLOTTRANSPARENCY
 70
     0
  0
APPID
  2
ACADANNOTATIVE
 70
     0
  0
ENDTAB
  0
TABLE
  2
DIMSTYLE
 70
     1
  0
DIMSTYLE
  2
LORO
 70
     0
  3

  4

  5

  6

  7

 40
1.0
 41
3.5
 42
1.0
 43
0.38
 44
1.0
 45
0.0
 46
0.0
 47
0.0
 48
0.000000001
140
3.5
141
0.09
142
0.0
143
25.3999999999999986
144
2.0
145
0.0
146
0.5
147
1.5
 71
     0
 72
     0
 73
     0
 74
     0
 75
     0
 76
     0
 77
     1
 78
     8
170
     0
171
     2
172
     1
173
     0
174
     0
175
     0
176
     0
177
     0
178
     1
  0
ENDTAB
  0
ENDSEC
  0
SECTION
  2
BLOCKS
  0
BLOCK
  8
0
  2
$MODEL_SPACE
 70
     0
 10
0.0
 20
0.0
 30
0.0
  3
$MODEL_SPACE
  1

  0
ENDBLK
  5
38
  8
0
  0
BLOCK
 67
     1
  8
0
  2
$PAPER_SPACE
 70
     0
 10
0.0
 20
0.0
 30
0.0
  3
$PAPER_SPACE
  1

  0
ENDBLK
  5
36
 67
     1
  8
0
  0
BLOCK
  8
0
  2
*S0
 70
     1
 10
0.0
 20
0.0
 30
0.0
  3
*S0
  1

  0
ENDBLK
  5
ACE
  8
0
  0
BLOCK
  8
0
  2
A$C79D40922
 70
     0
 10
0.0
 20
0.0
 30
0.0
  3
A$C79D40922
  1

  0
LINE
  5
4844
  8
0
  6
CONTINUOUS
 62
     3
 10
35.5
 20
0.0000000000000012
 30
0.0
 11
-35.5
 21
0.000000000000014
 31
0.0
210
0.0
220
1.0
230
-0.0000000000000002
  0
LINE
  5
4845
  8
0
  6
CONTINUOUS
 62
     3
 10
36.5
 20
8.0000000000000036
 30
-0.0000000000000018
 11
-36.5
 21
8.0000000000000178
 31
-0.0000000000000018
210
0.0
220
1.0
230
-0.0000000000000002
  0
LINE
  5
4846
  8
0
  6
CONTINUOUS
 62
     3
 10
40.75
 20
36.1194316653312768
 30
-0.000000000000008
 11
-40.7499999999999787
 21
36.1194316653312768
 31
-0.000000000000008
210
0.0
220
1.0
230
-0.0000000000000002
  0
LINE
  5
4847
  8
0
  6
CONTINUOUS
 62
     3
 10
-35.5000000000000071
 20
0.0000000000000133
 30
0.0
 11
-36.5000000000000071
 21
8.0000000000000142
 31
-0.0000000000000018
210
0.0
220
1.0
230
-0.0000000000000002
  0
LINE
  5
4848
  8
0
  6
CONTINUOUS
 62
     3
 10
35.5000000000000071
 20
0.0
 30
0.0
 11
36.5000000000000071
 21
8.0000000000000018
 31
-0.0000000000000018
210
0.0
220
1.0
230
-0.0000000000000002
  0
LINE
  5
4849
  8
0
  6
CONTINUOUS
 62
     3
 10
-36.5
 20
8.0000000000000142
 30
-0.0000000000000018
 11
-36.5
 21
30.0000000000000213
 31
-0.0000000000000067
210
0.0
220
1.0
230
-0.0000000000000002
  0
LINE
  5
484A
  8
0
  6
CONTINUOUS
 62
     3
 10
36.5
 20
8.0000000000000036
 30
-0.0000000000000018
 11
36.5
 21
30.0000000000000107
 31
-0.0000000000000067
210
0.0
220
1.0
230
-0.0000000000000002
  0
ARC
  5
484B
  8
0
  6
CONTINUOUS
 62
     3
 10
-41.5000000000000071
 20
30.0000000000000107
 30
0.0
 40
5.0000000000000142
210
0.0
220
-0.0000000000000002
230
-1.0
 50
0.0
 51
47.2065004727360886
  0
ARC
  5
484C
  8
0
  6
CONTINUOUS
 62
     3
 10
41.4999999999999574
 20
30.0000000000000284
 30
0.0
 40
4.9999999999999769
210
0.0
220
-0.0000000000000002
230
-1.0
 50
132.7934995272636058
 51
180.0
  0
LINE
  5
484D
  8
0
  6
CONTINUOUS
 62
     3
 10
-38.1032097258887319
 20
33.669034727786503
 30
-0.0000000000000075
 11
-40.7499999999999787
 21
36.1194316653312768
 31
-0.000000000000008
210
0.0
220
1.0
230
-0.0000000000000002
  0
LINE
  5
484E
  8
0
  6
CONTINUOUS
 62
     3
 10
38.103209725888739
 20
33.6690347277864817
 30
-0.0000000000000075
 11
40.75
 21
36.1194316653312626
 31
-0.000000000000008
210
0.0
220
1.0
230
-0.0000000000000002
  0
LINE
  5
484F
  8
0
  6
CONTINUOUS
 62
     3
 10
40.3976700511860827
 20
36.5000000000000071
 30
-0.0000000000000081
 11
40.7500000000000071
 21
36.1194316653312626
 31
-0.000000000000008
210
0.0
220
1.0
230
-0.0000000000000002
  0
LINE
  5
4850
  8
0
  6
CONTINUOUS
 62
     3
 10
-40.3976700511860898
 20
36.4999999999999929
 30
-0.0000000000000081
 11
-40.7499999999999929
 21
36.119431665331291
 31
-0.000000000000008
210
0.0
220
1.0
230
-0.0000000000000002
  0
LINE
  5
4851
  8
0
  6
CONTINUOUS
 62
     3
 10
50.2000000000000171
 20
69.9999999999999858
 30
-0.0000000000000155
 11
-50.2000000000000171
 21
69.9999999999999858
 31
-0.0000000000000155
210
0.0
220
1.0
230
-0.0000000000000002
  0
LINE
  5
4852
  8
0
  6
CONTINUOUS
 62
     3
 10
40.4663561740293432
 20
36.5000000000000213
 30
-0.0000000000000081
 11
-40.4663561740293289
 21
36.4999999999999929
 31
-0.0000000000000081
210
0.0
220
1.0
230
-0.0000000000000002
  0
ARC
  5
4853
  8
0
  6
CONTINUOUS
 62
     3
 10
-40.199999999999882
 20
62.0000000000000284
 30
0.0
 40
10.0000000000001492
210
0.0
220
-0.0000000000000002
230
-1.0
 50
180.0000000000001137
 51
209.1143386591436126
  0
ARC
  5
4854
  8
0
  6
CONTINUOUS
 62
     3
 10
40.1999999999999531
 20
62.0
 30
0.0
 40
10.0000000000000906
210
0.0
220
-0.0000000000000002
230
-1.0
 50
330.8856613408563021
 51
359.9999999999997726
  0
LINE
  5
4855
  8
0
  6
CONTINUOUS
 62
     3
 10
-50.2000000000000313
 20
61.9999999999999787
 30
-0.0000000000000138
 11
-50.2000000000000313
 21
69.9999999999999858
 31
-0.0000000000000155
210
0.0
220
1.0
230
-0.0000000000000002
  0
LINE
  5
4856
  8
0
  6
CONTINUOUS
 62
     3
 10
50.2000000000000313
 20
62.0
 30
-0.0000000000000138
 11
50.2000000000000313
 21
70.0
 31
-0.0000000000000155
210
0.0
220
1.0
230
-0.0000000000000002
  0
ARC
  5
4857
  8
0
  6
CONTINUOUS
 62
     3
 10
-16.3074518232964714
 20
54.2861558683187013
 30
0.0
 40
29.9999999999997691
210
0.0
220
-0.0000000000000002
230
-1.0
 50
191.2917700051418137
 51
216.3610702188769039
  0
ARC
  5
4858
  8
0
  6
CONTINUOUS
 62
     3
 10
16.3074518232960983
 20
54.2861558683188505
 30
0.0
 40
30.0000000000001599
210
0.0
220
-0.0000000000000002
230
-1.0
 50
323.6389297811231813
 51
348.7082299948580157
  0
ARC
  5
4859
  8
0
  6
CONTINUOUS
 62
     3
 10
-75.1460194773271297
 20
42.5378386942690128
 30
0.0
 40
30.0000000000002203
210
0.0
220
-0.0000000000000002
230
-1.0
 50
11.29177000514259
 51
29.1143386591438791
  0
ARC
  5
485A
  8
0
  6
CONTINUOUS
 62
     3
 10
75.1460194773268881
 20
42.537838694269098
 30
0.0
 40
29.9999999999999609
210
0.0
220
-0.0000000000000002
230
-1.0
 50
150.8856613408561032
 51
168.7082299948575042
  0
LINE
  5
485B
  8
0
  6
VERDECKT
 62
     1
 10
39.9347703342132974
 20
37.0000000000000284
 30
-0.0000000000000082
 11
-39.9347703342132974
 21
37.0000000000000284
 31
-0.0000000000000082
210
0.0
220
1.0
230
-0.0000000000000002
  0
LINE
  5
485C
  8
0
  6
VERDECKT
 62
     1
 10
35.2999999999999972
 20
8.0747092979582646
 30
-0.0000000000000018
 11
-35.2999999999999972
 21
8.0747092979582789
 31
-0.0000000000000018
210
0.0
220
1.0
230
-0.0000000000000002
  0
LINE
  5
485D
  8
0
  6
VERDECKT
 62
     1
 10
34.3092665479436008
 20
0.1488416815070522
 30
0.0
 11
-34.3092665479436008
 21
0.1488416815070646
 31
0.0
210
0.0
220
1.0
230
-0.0000000000000002
  0
LINE
  5
485E
  8
0
  6
VERDECKT
 62
     1
 10
39.9347703342132974
 20
37.0000000000000071
 30
-0.0000000000000082
 11
40.3976700511860827
 21
36.5000000000000071
 31
-0.0000000000000081
210
0.0
220
1.0
230
-0.0000000000000002
  0
LINE
  5
485F
  8
0
  6
VERDECKT
 62
     1
 10
-39.9347703342132903
 20
37.0000000000000284
 30
-0.0000000000000082
 11
-40.3976700511860898
 21
36.4999999999999929
 31
-0.0000000000000081
210
0.0
220
1.0
230
-0.0000000000000002
  0
LINE
  5
4860
  8
0
  6
VERDECKT
 62
     1
 10
-37.2879800601020222
 20
34.5496030624552475
 30
-0.0000000000000077
 11
-39.9347703342132903
 21
37.0000000000000284
 31
-0.0000000000000082
210
0.0
220
1.0
230
-0.0000000000000002
  0
LINE
  5
4861
  8
0
  6
VERDECKT
 62
     1
 10
37.2879800601020293
 20
34.5496030624552333
 30
-0.0000000000000077
 11
39.9347703342132974
 21
37.0000000000000071
 31
-0.0000000000000082
210
0.0
220
1.0
230
-0.0000000000000002
  0
ARC
  5
4862
  8
0
  6
VERDECKT
 62
     1
 10
-41.4999999999999716
 20
30.0000000000000213
 30
0.0
 40
6.1999999999999673
210
0.0
220
-0.0000000000000002
230
-1.0
 50
359.9999999999998863
 51
47.2065004727361668
  0
ARC
  5
4863
  8
0
  6
VERDECKT
 62
     1
 10
41.5000000000000071
 20
30.0000000000000213
 30
0.0
 40
6.2000000000000162
210
0.0
220
-0.0000000000000002
230
-1.0
 50
132.7934995272638048
 51
179.9999999999998863
  0
LINE
  5
4864
  8
0
  6
VERDECKT
 62
     1
 10
-35.3000000000000114
 20
8.0747092979582806
 30
-0.0000000000000018
 11
-35.3000000000000114
 21
30.0000000000000213
 31
-0.0000000000000067
210
0.0
220
1.0
230
-0.0000000000000002
  0
LINE
  5
4865
  8
0
  6
VERDECKT
 62
     1
 10
35.3000000000000114
 20
8.0747092979582664
 30
-0.0000000000000018
 11
35.3000000000000114
 21
30.0000000000000107
 31
-0.0000000000000067
210
0.0
220
1.0
230
-0.0000000000000002
  0
LINE
  5
4866
  8
0
  6
VERDECKT
 62
     1
 10
-34.3092665479436008
 20
0.1488416815070646
 30
0.0
 11
-35.3000000000000114
 21
8.0747092979582789
 31
-0.0000000000000018
210
0.0
220
1.0
230
-0.0000000000000002
  0
LINE
  5
4867
  8
0
  6
VERDECKT
 62
     1
 10
34.3092665479436008
 20
0.1488416815070521
 30
0.0
 11
35.3000000000000114
 21
8.0747092979582664
 31
-0.0000000000000018
210
0.0
220
1.0
230
-0.0000000000000002
  0
LINE
  5
4868
  8
0
  6
VERDECKT
 62
     1
 10
34.3092665479436008
 20
0.1488416815070524
 30
0.0
 11
35.5
 21
0.0000000000000018
 31
0.0
210
0.0
220
1.0
230
-0.0000000000000002
  0
LINE
  5
4869
  8
0
  6
VERDECKT
 62
     1
 10
-34.3092665479436008
 20
0.1488416815070648
 30
0.0
 11
-35.5
 21
0.0000000000000146
 31
0.0
210
0.0
220
1.0
230
-0.0000000000000002
  0
LINE
  5
486A
  8
0
  6
VERDECKT
 62
     1
 10
39.5000000000000071
 20
37.2114462347327617
 30
-0.0000000000000083
 11
-39.5
 21
37.2114462347327617
 31
-0.0000000000000083
210
0.0
220
1.0
230
-0.0000000000000002
  0
LINE
  5
486B
  8
0
  6
VERDECKT
 62
     1
 10
-49.0000000000000213
 20
61.9999999999999787
 30
-0.0000000000000138
 11
-49.0000000000000213
 21
69.9999999999999858
 31
-0.0000000000000155
210
0.0
220
1.0
230
-0.0000000000000002
  0
LINE
  5
486C
  8
0
  6
VERDECKT
 62
     1
 10
49.0000000000000213
 20
62.0
 30
-0.0000000000000138
 11
49.0000000000000213
 21
70.0
 31
-0.0000000000000155
210
0.0
220
1.0
230
-0.0000000000000002
  0
ARC
  5
486D
  8
0
  6
VERDECKT
 62
     1
 10
-40.1999999999999602
 20
62.0000000000000071
 30
0.0
 40
8.8000000000000611
210
0.0
220
-0.0000000000000002
230
-1.0
 50
180.0
 51
209.1143386591436979
  0
ARC
  5
486E
  8
0
  6
VERDECKT
 62
     1
 10
40.2000000000002231
 20
61.9999999999999289
 30
0.0
 40
8.7999999999998035
210
0.0
220
-0.0000000000000002
230
-1.0
 50
330.8856613408559042
 51
0.0000000000003308
  0
ARC
  5
486F
  8
0
  6
VERDECKT
 62
     1
 10
-75.146019477326746
 20
42.5378386942691691
 30
0.0
 40
31.199999999999811
210
0.0
220
-0.0000000000000002
230
-1.0
 50
11.2917700051424408
 51
29.1143386591439608
  0
ARC
  5
4870
  8
0
  6
VERDECKT
 62
     1
 10
75.1460194773265187
 20
42.537838694269233
 30
0.0
 40
31.1999999999995801
210
0.0
220
-0.0000000000000002
230
-1.0
 50
150.8856613408559042
 51
168.7082299948575894
  0
ARC
  5
4871
  8
0
  6
VERDECKT
 62
     1
 10
-16.3074518232962191
 20
54.2861558683187795
 30
0.0
 40
28.8000000000000114
210
0.0
220
-0.0000000000000002
230
-1.0
 50
191.2917700051418137
 51
216.361070218876705
  0
ARC
  5
4872
  8
0
  6
VERDECKT
 62
     1
 10
16.3074518232960308
 20
54.286155868318879
 30
0.0
 40
28.800000000000221
210
0.0
220
-0.0000000000000002
230
-1.0
 50
323.638929781123295
 51
348.7082299948580157
  0
LINE
  5
4873
  8
0
  6
VERDECKT
 62
     1
 10
39.5000000000000071
 20
37.2114462347327688
 30
-0.0000000000000083
 11
40.4663561740293289
 21
36.5000000000000071
 31
-0.0000000000000081
210
0.0
220
1.0
230
-0.0000000000000002
  0
LINE
  5
4874
  8
0
  6
VERDECKT
 62
     1
 10
-39.4999999999999929
 20
37.2114462347327475
 30
-0.0000000000000083
 11
-40.4663561740293289
 21
36.4999999999999929
 31
-0.0000000000000081
210
0.0
220
1.0
230
-0.0000000000000002
  0
ENDBLK
  5
4876
  8
0
  0
BLOCK
  8
0
  2
A$C36EDB86E
 70
     0
 10
0.0
 20
0.0
 30
0.0
  3
A$C36EDB86E
  1

  0
CIRCLE
  5
487A
  8
0
  6
CONTINUOUS
 62
     3
 10
0.0000000000000121
 20
0.0
 30
0.0
 40
35.3000000000000114
  0
CIRCLE
  5
487B
  8
0
  6
CONTINUOUS
 62
     3
 10
0.0000000000000001
 20
0.0
 30
0.0
 40
34.3092665479436008
  0
CIRCLE
  5
487C
  8
0
  6
CONTINUOUS
 62
     3
 10
0.0000000000000155
 20
0.0
 30
0.0
 40
50.2000000000000313
  0
CIRCLE
  5
487D
  8
0
  6
CONTINUOUS
 62
     3
 10
0.0000000000000155
 20
0.0
 30
0.0
 40
49.0000000000000213
  0
CIRCLE
  5
487E
  8
0
  6
CONTINUOUS
 62
     3
 10
0.0000000000000119
 20
0.0
 30
0.0
 40
39.5000000000000071
  0
CIRCLE
  5
487F
  8
0
  6
VERDECKT
 62
     1
 10
0.0
 20
0.0
 30
0.0
 40
35.5
  0
CIRCLE
  5
4880
  8
0
  6
VERDECKT
 62
     1
 10
0.0000000000000121
 20
0.0
 30
0.0
 40
36.5
  0
CIRCLE
  5
4881
  8
0
  6
VERDECKT
 62
     1
 10
0.0000000000000145
 20
0.0
 30
0.0
 40
40.7499999999999929
  0
CIRCLE
  5
4882
  8
0
  6
VERDECKT
 62
     1
 10
0.0000000000000149
 20
0.0
 30
0.0
 40
39.9347703342132974
  0
CIRCLE
  5
4883
  8
0
  6
VERDECKT
 62
     1
 10
0.0000000000000118
 20
0.0
 30
0.0
 40
40.4663561740293289
  0
ENDBLK
  5
4885
  8
0
  0
ENDSEC
  0
SECTION
  2
ENTITIES
  0
TEXT
  5
3D7
  8
VOLL
 10
78.076754716981128
 20
31.025947764705851
 30
0.0
 40
1.8
  1

  7
GREEKS
  0
INSERT
  5
AD0
  8
ADSK_ASSOC_ENTITY_BACKUPS
  2
*S0
 10
0.0
 20
0.0
 30
0.0
  0
INSERT
  5
4877
  8
STEMPEL
  2
A$C79D40922
 10
0.0
 20
0.0
 30
0.0
  0
INSERT
  5
4886
  8
STEMPEL
  2
A$C36EDB86E
 10
0.0
 20
-100.0
 30
0.0
  0
VIEWPORT
  5
AAD
 67
     1
  8
0
 10
104.7949741884969939
 20
148.2456625091782882
 30
0.0
 40
562.6653429186870881
 41
298.5309278350515001
 68
     1
 69
     1
1001
ACAD
1000
MVIEW
1002
{
1070
    16
1010
0.0
1020
0.0
1030
0.0
1010
0.0
1020
0.0
1030
1.0
1040
0.0
1040
298.5309278350515001
1040
104.7949741884969939
1040
148.2456625091782882
1040
50.0
1040
0.0
1040
0.0
1070
     0
1070
  1500
1070
     1
1070
     1
1070
     0
1070
     0
1070
     0
1070
     0
1040
0.0
1040
0.0
1040
0.0
1040
10.0
1040
10.0
1040
10.0
1040
10.0
1070
     0
1002
{
1002
}
1002
}
  0
TEXT
  5
CB0
 67
     1
  8
VOLL
 10
625.5592565604117681
 20
227.4217200880700887
 30
0.0
 40
3.6000000000000001
  1

  7
GREEKS
  0
TEXT
  5
13FD
 67
     1
  8
VOLL
 10
1136.2020779486761057
 20
544.3446897115051115
 30
0.0
 40
1.8
  1

  7
GREEKS
  0
TEXT
  5
13FE
 67
     1
  8
VOLL
 10
1257.6048466178569925
 20
751.6650977567676364
 30
0.0
 40
1.8
  1

  7
GREEKS
  0
TEXT
  5
13FF
 67
     1
  8
VOLL
 10
1587.438057582276997
 20
568.0756737226744235
 30
0.0
 40
1.8
  1

  7
GREEKS
  0
TEXT
  5
1400
 67
     1
  8
VOLL
 10
1583.6057810679399154
 20
556.8718499942134486
 30
0.0
 40
1.8
  1

  7
GREEKS
  0
TEXT
  5
147D
 67
     1
  8
VOLL
 10
541.8878355258799502
 20
83.5838184280439549
 30
0.0
 40
3.6000000000000001
  1

  7
GREEKS
  0
ENDSEC
  0
EOF
