  0
SECTION
  2
HEADER
  9
$ACADVER
  1
AC1009
  9
$INSBASE
 10
0.0
 20
0.0
 30
0.0
  9
$EXTMIN
 10
-78.3812743787761974
 20
-200.8763760036353858
 30
-0.0091545749563693
  9
$EXTMAX
 10
78.6421118130397048
 20
300.0723135126581838
 30
0.0137332594181317
  9
$LIMMIN
 10
0.0
 20
0.0
  9
$LIMMAX
 10
1681.9999999999990905
 20
1188.0
  9
$ORTHOMODE
 70
     1
  9
$REGENMODE
 70
     1
  9
$FILLMODE
 70
     1
  9
$QTEXTMODE
 70
     0
  9
$MIRRTEXT
 70
     1
  9
$DRAGMODE
 70
     2
  9
$LTSCALE
 40
20.0
  9
$OSMODE
 70
   511
  9
$ATTMODE
 70
     1
  9
$TEXTSIZE
 40
3.5
  9
$TRACEWID
 40
1.0
  9
$TEXTSTYLE
  7
STANDARD
  9
$CLAYER
  8
STEMPEL
  9
$CELTYPE
  6
BYLAYER
  9
$CECOLOR
 62
   256
  9
$DIMSCALE
 40
1.0
  9
$DIMASZ
 40
3.5
  9
$DIMEXO
 40
1.0
  9
$DIMDLI
 40
0.38
  9
$DIMRND
 40
0.0
  9
$DIMDLE
 40
0.0
  9
$DIMEXE
 40
1.0
  9
$DIMTP
 40
0.0
  9
$DIMTM
 40
0.000000001
  9
$DIMTXT
 40
3.5
  9
$DIMCEN
 40
0.09
  9
$DIMTSZ
 40
0.0
  9
$DIMTOL
 70
     0
  9
$DIMLIM
 70
     0
  9
$DIMTIH
 70
     0
  9
$DIMTOH
 70
     0
  9
$DIMSE1
 70
     0
  9
$DIMSE2
 70
     0
  9
$DIMTAD
 70
     1
  9
$DIMZIN
 70
     8
  9
$DIMBLK
  1

  9
$DIMASO
 70
     1
  9
$DIMSHO
 70
     0
  9
$DIMPOST
  1

  9
$DIMAPOST
  1

  9
$DIMALT
 70
     0
  9
$DIMALTD
 70
     2
  9
$DIMALTF
 40
25.3999999999999986
  9
$DIMLFAC
 40
2.0
  9
$DIMTOFL
 70
     1
  9
$DIMTVP
 40
0.0
  9
$DIMTIX
 70
     0
  9
$DIMSOXD
 70
     0
  9
$DIMSAH
 70
     0
  9
$DIMBLK1
  1

  9
$DIMBLK2
  1

  9
$DIMSTYLE
  2
LORO
  9
$DIMCLRD
 70
     0
  9
$DIMCLRE
 70
     0
  9
$DIMCLRT
 70
     1
  9
$DIMTFAC
 40
0.5
  9
$DIMGAP
 40
1.5
  9
$LUNITS
 70
     2
  9
$LUPREC
 70
     2
  9
$SKETCHINC
 40
1.0
  9
$FILLETRAD
 40
16.0
  9
$AUNITS
 70
     0
  9
$AUPREC
 70
     0
  9
$MENU
  1
ACAD
  9
$ELEVATION
 40
0.0
  9
$PELEVATION
 40
0.0
  9
$THICKNESS
 40
0.0
  9
$LIMCHECK
 70
     0
  9
$BLIPMODE
 70
     0
  9
$CHAMFERA
 40
2.0
  9
$CHAMFERB
 40
2.0
  9
$SKPOLY
 70
     0
  9
$TDCREATE
 40
2455397.867048610933125
  9
$TDUPDATE
 40
2459636.6165972221642733
  9
$TDINDWG
 40
3.6119446296
  9
$TDUSRTIMER
 40
3.6119446296
  9
$USRTIMER
 70
     1
  9
$ANGBASE
 50
0.0
  9
$ANGDIR
 70
     0
  9
$PDMODE
 70
     0
  9
$PDSIZE
 40
0.0
  9
$PLINEWID
 40
0.0
  9
$COORDS
 70
     1
  9
$SPLFRAME
 70
     0
  9
$SPLINETYPE
 70
     6
  9
$SPLINESEGS
 70
     8
  9
$ATTDIA
 70
     1
  9
$ATTREQ
 70
     1
  9
$HANDLING
 70
     1
  9
$HANDSEED
  5
195E3
  9
$SURFTAB1
 70
     6
  9
$SURFTAB2
 70
     6
  9
$SURFTYPE
 70
     6
  9
$SURFU
 70
     6
  9
$SURFV
 70
     6
  9
$UCSNAME
  2

  9
$UCSORG
 10
0.0
 20
0.0
 30
0.0
  9
$UCSXDIR
 10
1.0
 20
0.0
 30
0.0
  9
$UCSYDIR
 10
0.0
 20
1.0
 30
0.0
  9
$PUCSNAME
  2

  9
$PUCSORG
 10
0.0
 20
0.0
 30
0.0
  9
$PUCSXDIR
 10
1.0
 20
0.0
 30
0.0
  9
$PUCSYDIR
 10
0.0
 20
1.0
 30
0.0
  9
$USERI1
 70
     0
  9
$USERI2
 70
     0
  9
$USERI3
 70
     0
  9
$USERI4
 70
     0
  9
$USERI5
 70
     0
  9
$USERR1
 40
0.0
  9
$USERR2
 40
0.0
  9
$USERR3
 40
0.0
  9
$USERR4
 40
0.0
  9
$USERR5
 40
0.0
  9
$WORLDVIEW
 70
     1
  9
$SHADEDGE
 70
     3
  9
$SHADEDIF
 70
    70
  9
$TILEMODE
 70
     1
  9
$MAXACTVP
 70
    16
  9
$PLIMCHECK
 70
     0
  9
$PEXTMIN
 10
0.0
 20
-3.2500000050005649
 30
-0.0000000000001705
  9
$PEXTMAX
 10
198.7328322904544962
 20
290.9435760000000073
 30
0.0000000000000568
  9
$PLIMMIN
 10
-5.6167987432894497
 20
-4.6801033672703047
  9
$PLIMMAX
 10
204.3832012567106062
 20
292.3198966327296944
  9
$UNITMODE
 70
     0
  9
$VISRETAIN
 70
     0
  9
$PLINEGEN
 70
     0
  9
$PSLTSCALE
 70
     0
  0
ENDSEC
  0
SECTION
  2
TABLES
  0
TABLE
  2
VPORT
 70
     1
  0
VPORT
  2
*ACTIVE
 70
     0
 10
0.0
 20
0.0
 11
1.0
 21
1.0
 12
0.1304187171317039
 22
-62.7046588089651777
 13
0.0
 23
0.0
 14
1.0
 24
1.0
 15
10.0
 25
10.0
 16
-0.0000000000002314
 26
0.0
 36
1041.9721724641519813
 17
0.0
 27
112.3026275634765057
 37
-0.0000000000000333
 40
503.5110869051237046
 41
1.8720136518771331
 42
50.0
 43
0.0
 44
0.0
 50
0.0
 51
0.0
 71
     0
 72
  1500
 73
     1
 74
     0
 75
     0
 76
     0
 77
     0
 78
     0
  0
ENDTAB
  0
TABLE
  2
LTYPE
 70
     3
  0
LTYPE
  2
CONTINUOUS
 70
     0
  3
Solid line
 72
    65
 73
     0
 40
0.0
  0
LTYPE
  2
STRICHPUNKT
 70
     0
  3
__ . __ . __ . __ . __ . __ . __ . __ . __ . __
 72
    65
 73
     4
 40
1.0
 49
0.5
 49
-0.25
 49
0.0
 49
-0.25
  0
LTYPE
  2
VERDECKT
 70
     0
  3
Verdeckt __ __ __ __ __ __ __ __ __ __ __ __ __
 72
    65
 73
     2
 40
0.375
 49
0.25
 49
-0.125
  0
ENDTAB
  0
TABLE
  2
LAYER
 70
     6
  0
LAYER
  2
0
 70
     0
 62
     7
  6
CONTINUOUS
  0
LAYER
  2
VOLL
 70
     0
 62
     1
  6
CONTINUOUS
  0
LAYER
  2
STEMPEL
 70
     0
 62
     3
  6
CONTINUOUS
  0
LAYER
  2
DEFPOINTS
 70
     0
 62
     7
  6
CONTINUOUS
  0
LAYER
  2
ADSK_ASSOC_ENTITY_BACKUPS
 70
     1
 62
    -7
  6
CONTINUOUS
  0
ENDTAB
  0
TABLE
  2
STYLE
 70
     3
  0
STYLE
  2
STANDARD
 70
     0
 40
0.0
 41
0.8
 50
0.0
 71
     0
 42
3.5
  3
simplex.shx
  4

  0
STYLE
  2
GREEKS
 70
     0
 40
0.0
 41
0.8
 50
0.0
 71
     0
 42
2.5
  3
SIMPLEX.shx
  4

  0
ENDTAB
  0
TABLE
  2
VIEW
 70
     0
  0
ENDTAB
  0
TABLE
  2
UCS
 70
     0
  0
ENDTAB
  0
TABLE
  2
APPID
 70
    30
  0
APPID
  2
ACAD
 70
     0
  0
APPID
  2
ACAD_EXEMPT_FROM_CAD_STANDARDS
 70
     0
  0
APPID
  2
ACAD_NAV_VCDISPLAY
 70
     0
  0
APPID
  2
GRADIENTCOLOR1ACI
 70
     0
  0
APPID
  2
GRADIENTCOLOR2ACI
 70
     0
  0
APPID
  2
ACAUTHENVIRON
 70
     0
  0
APPID
  2
ACDBDYNAMICBLOCKTRUENAME
 70
     0
  0
APPID
  2
ACDBDYNAMICBLOCKGUID
 70
     0
  0
APPID
  2
ACAD_PSEXT
 70
     0
  0
APPID
  2
ACAD_MLEADERVER
 70
     0
  0
APPID
  2
ACAECLAYERSTANDARD
 70
     0
  0
APPID
  2
ACCMTRANSPARENCY
 70
     0
  0
APPID
  2
ACAD_STEPID
 70
     0
  0
APPID
  2
ACSYNERGY
 70
     0
  0
APPID
  2
SYNERGY_BODY_TBR_ID
 70
     0
  0
APPID
  2
ACAD_VIEW_EDGE_ID
 70
     0
  0
APPID
  2
ACAD_DSTYLE_DIMJAG
 70
     0
  0
APPID
  2
ACAD_DSTYLE_DIMBREAK
 70
     0
  0
APPID
  2
ACAD_DSTYLE_DIMTALN
 70
     0
  0
APPID
  2
ACADANNOMONITORALERTICONDI
 70
     0
  0
APPID
  2
ACAD_DIMASSOC_CALC_DIMLFAC
 70
     0
  0
APPID
  2
ACAD_DIMASSOC_DIMLFAC
 70
     0
  0
APPID
  2
ACAD_DIMASSOC_OVERRIDDEN_D
 70
     0
  0
APPID
  2
ACAD_DSTYLE_DIMRADIAL_EXTENSION
 70
     0
  0
APPID
  2
ACADANNOPO
 70
     0
  0
APPID
  2
ACSYNERGYSKETCH
 70
     0
  0
APPID
  2
ACAD_MODELDOC_XFORM
 70
     0
  0
APPID
  2
SYNERGY_EXCLUDED_FROM_SNAPSHOT
 70
     0
  0
APPID
  2
PLOTTRANSPARENCY
 70
     0
  0
APPID
  2
ACAD_TC
 70
     0
  0
ENDTAB
  0
TABLE
  2
DIMSTYLE
 70
     2
  0
DIMSTYLE
  2
STANDARD
 70
     0
  3

  4

  5

  6

  7

 40
1.0
 41
0.18
 42
0.0625
 43
0.38
 44
0.18
 45
0.0
 46
0.0
 47
0.0
 48
0.0
140
0.18
141
0.09
142
0.0
143
25.3999999999999986
144
1.0
145
0.0
146
1.0
147
0.09
 71
     0
 72
     0
 73
     1
 74
     1
 75
     0
 76
     0
 77
     0
 78
     0
170
     0
171
     2
172
     0
173
     0
174
     0
175
     0
176
     0
177
     0
178
     0
  0
DIMSTYLE
  2
LORO
 70
     0
  3

  4

  5

  6

  7

 40
1.0
 41
3.5
 42
1.0
 43
0.38
 44
1.0
 45
0.0
 46
0.0
 47
0.0
 48
0.000000001
140
3.5
141
0.09
142
0.0
143
25.3999999999999986
144
2.0
145
0.0
146
0.5
147
1.5
 71
     0
 72
     0
 73
     0
 74
     0
 75
     0
 76
     0
 77
     1
 78
     8
170
     0
171
     2
172
     1
173
     0
174
     0
175
     0
176
     0
177
     0
178
     1
  0
ENDTAB
  0
ENDSEC
  0
SECTION
  2
BLOCKS
  0
BLOCK
  8
0
  2
$MODEL_SPACE
 70
     0
 10
0.0
 20
0.0
 30
0.0
  3
$MODEL_SPACE
  1

  0
ENDBLK
  5
38
  8
0
  0
BLOCK
 67
     1
  8
0
  2
$PAPER_SPACE
 70
     0
 10
0.0
 20
0.0
 30
0.0
  3
$PAPER_SPACE
  1

  0
ENDBLK
  5
36
 67
     1
  8
0
  0
BLOCK
  8
0
  2
*S0
 70
     1
 10
0.0
 20
0.0
 30
0.0
  3
*S0
  1

  0
ENDBLK
  5
46EF
  8
0
  0
BLOCK
  8
0
  2
A$C43FBDCEF
 70
     0
 10
0.0
 20
0.0
 30
0.0
  3
A$C43FBDCEF
  1

  0
CIRCLE
  5
19548
  8
0
  6
CONTINUOUS
 62
     3
 10
0.0
 20
-0.0000000000000107
 30
0.0
 40
48.8059553717479915
  0
CIRCLE
  5
19549
  8
0
  6
CONTINUOUS
 62
     3
 10
0.0000000000000524
 20
-0.0000000000000355
 30
0.0
 40
49.6000000000000014
  0
CIRCLE
  5
1954A
  8
0
  6
CONTINUOUS
 62
     3
 10
0.0000000000000564
 20
-0.0000000000000371
 30
0.0
 40
58.5240493211488086
  0
CIRCLE
  5
1954B
  8
0
  6
CONTINUOUS
 62
     3
 10
0.0000000000000664
 20
-0.0000000000000286
 30
0.0
 40
69.9000000000000057
  0
CIRCLE
  5
1954C
  8
0
  6
CONTINUOUS
 62
     3
 10
0.0000000000000666
 20
-0.0000000000000284
 30
0.0
 40
70.9862068965517352
  0
CIRCLE
  5
1954D
  8
0
  6
CONTINUOUS
 62
     3
 10
0.0000000000000642
 20
-0.0000000000000305
 30
0.0
 40
75.4000000000000057
  0
CIRCLE
  5
1954E
  8
0
  6
VERDECKT
 62
     1
 10
0.0000000000000524
 20
-0.0000000000000355
 30
0.0
 40
50.7999999999999829
  0
CIRCLE
  5
1954F
  8
0
  6
VERDECKT
 62
     1
 10
0.0
 20
-0.0000000000000107
 30
0.0
 40
50.0
  0
CIRCLE
  5
19550
  8
0
  6
VERDECKT
 62
     1
 10
0.0000000000000563
 20
-0.0000000000000374
 30
0.0
 40
58.7692394569190526
  0
CIRCLE
  5
19551
  8
0
  6
VERDECKT
 62
     1
 10
0.0000000000000562
 20
-0.0000000000000373
 30
0.0
 40
59.7500000000000071
  0
CIRCLE
  5
19552
  8
0
  6
VERDECKT
 62
     1
 10
0.0000000000000562
 20
-0.0000000000000373
 30
0.0
 40
59.7500000000000071
  0
CIRCLE
  5
19553
  8
0
  6
VERDECKT
 62
     1
 10
0.0000000000000642
 20
-0.0000000000000305
 30
0.0
 40
73.9000000000000199
  0
ENDBLK
  5
19555
  8
0
  0
BLOCK
  8
0
  2
A$C46D05526
 70
     0
 10
0.0
 20
0.0
 30
0.0
  3
A$C46D05526
  1

  0
LINE
  5
19559
  8
0
  6
CONTINUOUS
 62
     3
 10
-50.0
 20
0.0
 30
0.0
 11
50.0
 21
0.0
 31
0.0
210
0.0
220
1.0
230
-0.0000000000000002
  0
LINE
  5
1955A
  8
0
  6
CONTINUOUS
 62
     3
 10
-59.7499999999999787
 20
253.0000000000001137
 30
-0.0000000000000562
 11
59.75
 21
253.0000000000001137
 31
-0.0000000000000562
210
0.0
220
1.0
230
-0.0000000000000002
  0
ARC
  5
1955B
  8
0
  6
CONTINUOUS
 62
     3
 10
49.7999999999989029
 20
8.0498756211208882
 30
0.0
 40
1.0000000000010869
210
0.0
220
-0.0000000000000002
230
-1.0
 50
354.2894068625008117
 51
359.9999999999952252
  0
ARC
  5
1955C
  8
0
  6
CONTINUOUS
 62
     3
 10
-49.7999999999989171
 20
8.0498756211208882
 30
0.0
 40
1.000000000001058
210
0.0
220
-0.0000000000000002
230
-1.0
 50
180.0000000000046043
 51
185.710593137499103
  0
LINE
  5
1955D
  8
0
  6
CONTINUOUS
 62
     3
 10
50.7999999999999829
 20
236.1833812450811934
 30
-0.0000000000000524
 11
50.7999999999999829
 21
8.0498756211208065
 31
-0.0000000000000018
210
0.0
220
1.0
230
-0.0000000000000002
  0
LINE
  5
1955E
  8
0
  6
CONTINUOUS
 62
     3
 10
-50.7999999999999829
 20
236.1833812450811934
 30
-0.0000000000000524
 11
-50.7999999999999829
 21
8.0498756211208065
 31
-0.0000000000000018
210
0.0
220
1.0
230
-0.0000000000000002
  0
LINE
  5
1955F
  8
0
  6
CONTINUOUS
 62
     3
 10
-50.0
 20
0.0000000000000004
 30
0.0
 11
-50.7950371902099675
 21
7.9503719020997901
 31
-0.0000000000000018
210
0.0
220
1.0
230
-0.0000000000000002
  0
LINE
  5
19560
  8
0
  6
CONTINUOUS
 62
     3
 10
50.0
 20
0.0000000000000004
 30
0.0
 11
50.7950371902099675
 21
7.9503719020997901
 31
-0.0000000000000018
210
0.0
220
1.0
230
-0.0000000000000002
  0
LINE
  5
19561
  8
0
  6
CONTINUOUS
 62
     3
 10
-53.1750941166230717
 20
243.6741338754503943
 30
-0.0000000000000541
 11
-59.7500000000000071
 21
253.0000000000001137
 31
-0.0000000000000562
210
0.0
220
1.0
230
-0.0000000000000002
  0
LINE
  5
19562
  8
0
  6
CONTINUOUS
 62
     3
 10
53.1750941166230717
 20
243.6741338754503943
 30
-0.0000000000000541
 11
59.7500000000000071
 21
253.0000000000001137
 31
-0.0000000000000562
210
0.0
220
1.0
230
-0.0000000000000002
  0
ARC
  5
19563
  8
0
  6
CONTINUOUS
 62
     3
 10
63.7999999999998835
 20
236.183381245081307
 30
0.0
 40
12.9999999999998792
210
0.0
220
-0.0000000000000002
230
-1.0
 50
144.8154646196103101
 51
180.0000000000001137
  0
ARC
  5
19564
  8
0
  6
CONTINUOUS
 62
     3
 10
-63.7999999999998835
 20
236.183381245081307
 30
0.0
 40
12.9999999999998792
210
0.0
220
-0.0000000000000002
230
-1.0
 50
359.9999999999997726
 51
35.1845353803896685
  0
LINE
  5
19565
  8
0
  6
CONTINUOUS
 62
     3
 10
-59.7499999999999787
 20
253.0000000000001137
 30
-0.0000000000000562
 11
59.75
 21
253.0000000000001137
 31
-0.0000000000000562
210
0.0
220
1.0
230
-0.0000000000000002
  0
LINE
  5
19566
  8
0
  6
CONTINUOUS
 62
     3
 10
-70.9862068965517352
 20
300.0
 30
-0.0000000000000666
 11
70.9862068965517352
 21
300.0
 31
-0.0000000000000666
210
0.0
220
1.0
230
-0.0000000000000002
  0
LINE
  5
19567
  8
0
  6
CONTINUOUS
 62
     3
 10
-59.7500000000000071
 20
253.0000000000001137
 30
-0.0000000000000562
 11
-71.8373588250653938
 21
270.1447458262410919
 31
-0.00000000000006
210
0.0
220
1.0
230
-0.0000000000000002
  0
LINE
  5
19568
  8
0
  6
CONTINUOUS
 62
     3
 10
59.7500000000000071
 20
253.0000000000001137
 30
-0.0000000000000562
 11
71.8373588250653938
 21
270.1447458262410919
 31
-0.00000000000006
210
0.0
220
1.0
230
-0.0000000000000002
  0
ARC
  5
19569
  8
0
  6
CONTINUOUS
 62
     3
 10
59.3999999999999417
 20
288.9655172413794162
 30
0.0
 40
16.0000000000000817
210
0.0
220
-0.0000000000000002
230
-1.0
 50
0.0000000000002036
 51
43.6028189727033677
  0
ARC
  5
1956A
  8
0
  6
CONTINUOUS
 62
     3
 10
-59.3999999999999417
 20
288.9655172413794162
 30
0.0
 40
16.0000000000000817
210
0.0
220
-0.0000000000000002
230
-1.0
 50
136.3971810272965968
 51
179.999999999999801
  0
LINE
  5
1956B
  8
0
  6
CONTINUOUS
 62
     3
 10
75.3999999999999915
 20
288.9655172413794162
 30
-0.0000000000000642
 11
75.3999999999999915
 21
281.3808747717948222
 31
-0.0000000000000625
210
0.0
220
1.0
230
-0.0000000000000002
  0
LINE
  5
1956C
  8
0
  6
CONTINUOUS
 62
     3
 10
-75.3999999999999915
 20
288.9655172413794162
 30
-0.0000000000000642
 11
-75.3999999999999915
 21
281.3808747717948222
 31
-0.0000000000000625
210
0.0
220
1.0
230
-0.0000000000000002
  0
ARC
  5
1956D
  8
0
  6
CONTINUOUS
 62
     3
 10
55.8999999999999631
 20
281.3808747717948222
 30
0.0
 40
19.5000000000000391
210
0.0
220
-0.0000000000000002
230
-1.0
 50
324.8154646196102817
 51
0.0000000000000064
  0
ARC
  5
1956E
  8
0
  6
CONTINUOUS
 62
     3
 10
-55.8999999999999631
 20
281.3808747717948222
 30
0.0
 40
19.5000000000000391
210
0.0
220
-0.0000000000000002
230
-1.0
 50
180.0
 51
215.1845353803896046
  0
LINE
  5
1956F
  8
0
  6
VERDECKT
 62
     1
 10
-48.8059553717479986
 20
0.11940446282523
 30
0.0
 11
48.8059553717479986
 21
0.11940446282523
 31
0.0
210
0.0
220
1.0
230
-0.0000000000000002
  0
LINE
  5
19570
  8
0
  6
VERDECKT
 62
     1
 10
-58.7692394569190526
 20
253.6914540889571867
 30
-0.0000000000000563
 11
58.7692394569190526
 21
253.6914540889571867
 31
-0.0000000000000563
210
0.0
220
1.0
230
-0.0000000000000002
  0
ARC
  5
19571
  8
0
  6
VERDECKT
 62
     1
 10
48.5999999999989072
 20
8.109726366466333
 30
0.0
 40
1.000000000001094
210
0.0
220
-0.0000000000000002
230
-1.0
 50
354.2894068625009254
 51
359.9999999999952252
  0
ARC
  5
19572
  8
0
  6
VERDECKT
 62
     1
 10
-48.5999999999989072
 20
8.109726366466333
 30
0.0
 40
1.000000000001094
210
0.0
220
-0.0000000000000002
230
-1.0
 50
180.0000000000046896
 51
185.710593137499103
  0
LINE
  5
19573
  8
0
  6
VERDECKT
 62
     1
 10
-48.8059553717479915
 20
0.1194044628252296
 30
0.0
 11
-49.5950371902099789
 21
8.010222647445234
 31
-0.0000000000000018
210
0.0
220
1.0
230
-0.0000000000000002
  0
LINE
  5
19574
  8
0
  6
VERDECKT
 62
     1
 10
48.8059553717479915
 20
0.1194044628252296
 30
0.0
 11
49.5950371902099789
 21
8.010222647445234
 31
-0.0000000000000018
210
0.0
220
1.0
230
-0.0000000000000002
  0
LINE
  5
19575
  8
0
  6
VERDECKT
 62
     1
 10
49.6000000000000014
 20
236.183381245081307
 30
-0.0000000000000524
 11
49.6000000000000014
 21
8.1097263664662496
 31
-0.0000000000000018
210
0.0
220
1.0
230
-0.0000000000000002
  0
LINE
  5
19576
  8
0
  6
VERDECKT
 62
     1
 10
-49.6000000000000014
 20
236.183381245081307
 30
-0.0000000000000524
 11
-49.6000000000000014
 21
8.1097263664662496
 31
-0.0000000000000018
210
0.0
220
1.0
230
-0.0000000000000002
  0
LINE
  5
19577
  8
0
  6
VERDECKT
 62
     1
 10
58.7692394569190313
 20
253.6914540889571867
 30
-0.0000000000000563
 11
59.75
 21
253.0000000000001137
 31
-0.0000000000000562
210
0.0
220
1.0
230
-0.0000000000000002
  0
LINE
  5
19578
  8
0
  6
VERDECKT
 62
     1
 10
-58.7692394569190313
 20
253.6914540889571867
 30
-0.0000000000000563
 11
-59.75
 21
253.0000000000001137
 31
-0.0000000000000562
210
0.0
220
1.0
230
-0.0000000000000002
  0
LINE
  5
19579
  8
0
  6
VERDECKT
 62
     1
 10
48.8059553717479915
 20
0.1194044628252408
 30
0.0
 11
50.0
 21
0.0000000000000455
 31
0.0
210
0.0
220
1.0
230
-0.0000000000000002
  0
LINE
  5
1957A
  8
0
  6
VERDECKT
 62
     1
 10
-48.8059553717479915
 20
0.1194044628252408
 30
0.0
 11
-50.0
 21
0.0000000000000455
 31
0.0
210
0.0
220
1.0
230
-0.0000000000000002
  0
ARC
  5
1957B
  8
0
  6
VERDECKT
 62
     1
 10
63.7999999999999901
 20
236.1833812450811934
 30
0.0
 40
14.1999999999999993
210
0.0
220
-0.0000000000000002
230
-1.0
 50
144.8154646196103101
 51
180.0
  0
ARC
  5
1957C
  8
0
  6
VERDECKT
 62
     1
 10
-63.7999999999998479
 20
236.183381245081307
 30
0.0
 40
14.1999999999998607
210
0.0
220
-0.0000000000000002
230
-1.0
 50
359.9999999999998863
 51
35.1845353803897183
  0
LINE
  5
1957D
  8
0
  6
VERDECKT
 62
     1
 10
-52.1943335735421172
 20
244.3655879644074957
 30
-0.0000000000000543
 11
-58.7692394569190668
 21
253.6914540889571867
 31
-0.0000000000000563
210
0.0
220
1.0
230
-0.0000000000000002
  0
LINE
  5
1957E
  8
0
  6
VERDECKT
 62
     1
 10
52.1943335735421172
 20
244.3655879644074957
 30
-0.0000000000000543
 11
58.7692394569190668
 21
253.6914540889571867
 31
-0.0000000000000563
210
0.0
220
1.0
230
-0.0000000000000002
  0
LINE
  5
1957F
  8
0
  6
VERDECKT
 62
     1
 10
-58.5240493211488086
 20
253.8643176111964976
 30
-0.0000000000000564
 11
58.5240493211488086
 21
253.8643176111964976
 31
-0.0000000000000564
210
0.0
220
1.0
230
-0.0000000000000002
  0
LINE
  5
19580
  8
0
  6
VERDECKT
 62
     1
 10
-69.8999999999999773
 20
298.9655172413794162
 30
-0.0000000000000664
 11
69.9000000000000057
 21
298.9655172413794162
 31
-0.0000000000000664
210
0.0
220
1.0
230
-0.0000000000000002
  0
LINE
  5
19581
  8
0
  6
VERDECKT
 62
     1
 10
58.5240493211488229
 20
253.8643176111964976
 30
-0.0000000000000564
 11
59.7500000000000213
 21
253.0000000000001137
 31
-0.0000000000000562
210
0.0
220
1.0
230
-0.0000000000000002
  0
LINE
  5
19582
  8
0
  6
VERDECKT
 62
     1
 10
-58.5240493211488229
 20
253.8643176111964976
 30
-0.0000000000000564
 11
-59.7500000000000213
 21
253.0000000000001137
 31
-0.0000000000000562
210
0.0
220
1.0
230
-0.0000000000000002
  0
LINE
  5
19583
  8
0
  6
VERDECKT
 62
     1
 10
-58.5240493211488086
 20
253.8643176111964976
 30
-0.0000000000000564
 11
-70.6114081462142309
 21
271.0090634374374758
 31
-0.0000000000000602
210
0.0
220
1.0
230
-0.0000000000000002
  0
LINE
  5
19584
  8
0
  6
VERDECKT
 62
     1
 10
58.5240493211488086
 20
253.8643176111964976
 30
-0.0000000000000564
 11
70.6114081462142309
 21
271.0090634374374758
 31
-0.0000000000000602
210
0.0
220
1.0
230
-0.0000000000000002
  0
ARC
  5
19585
  8
0
  6
VERDECKT
 62
     1
 10
55.900000000000027
 20
281.3808747717948222
 30
0.0
 40
17.9999999999999503
210
0.0
220
-0.0000000000000002
230
-1.0
 50
324.8154646196106228
 51
0.0000000000001781
  0
ARC
  5
19586
  8
0
  6
VERDECKT
 62
     1
 10
-55.900000000000027
 20
281.3808747717948222
 30
0.0
 40
17.9999999999999716
210
0.0
220
-0.0000000000000002
230
-1.0
 50
179.999999999999801
 51
215.1845353803894056
  0
LINE
  5
19587
  8
0
  6
VERDECKT
 62
     1
 10
73.9000000000000057
 20
288.9655172413794162
 30
-0.0000000000000642
 11
73.9000000000000057
 21
281.3808747717948222
 31
-0.0000000000000625
210
0.0
220
1.0
230
-0.0000000000000002
  0
LINE
  5
19588
  8
0
  6
VERDECKT
 62
     1
 10
-73.9000000000000057
 20
288.9655172413794162
 30
-0.0000000000000642
 11
-73.9000000000000057
 21
281.3808747717948222
 31
-0.0000000000000625
210
0.0
220
1.0
230
-0.0000000000000002
  0
ARC
  5
19589
  8
0
  6
VERDECKT
 62
     1
 10
59.4000000000000696
 20
288.9655172413794162
 30
0.0
 40
14.4999999999999503
210
0.0
220
-0.0000000000000002
230
-1.0
 50
0.0
 51
43.6028189727037585
  0
ARC
  5
1958A
  8
0
  6
VERDECKT
 62
     1
 10
-59.4000000000000696
 20
288.9655172413794162
 30
0.0
 40
14.4999999999999591
210
0.0
220
-0.0000000000000002
230
-1.0
 50
136.3971810272961989
 51
180.0
  0
LINE
  5
1958B
  8
0
  6
VERDECKT
 62
     1
 10
-69.9000000000000057
 20
298.9655172413794162
 30
-0.0000000000000664
 11
-70.9862068965517352
 21
300.0
 31
-0.0000000000000666
210
0.0
220
1.0
230
-0.0000000000000002
  0
LINE
  5
1958C
  8
0
  6
VERDECKT
 62
     1
 10
69.9000000000000057
 20
298.9655172413794162
 30
-0.0000000000000664
 11
70.9862068965517352
 21
300.0
 31
-0.0000000000000666
210
0.0
220
1.0
230
-0.0000000000000002
  0
ENDBLK
  5
1958E
  8
0
  0
ENDSEC
  0
SECTION
  2
ENTITIES
  0
TEXT
  5
416B
  8
VOLL
 10
441.2467849443549994
 20
195.2108867802037935
 30
0.0
 40
1.8
  1

  7
GREEKS
  0
INSERT
  5
46F1
  8
ADSK_ASSOC_ENTITY_BACKUPS
  2
*S0
 10
0.0
 20
0.0
 30
0.0
  0
INSERT
  5
19556
  8
STEMPEL
  2
A$C43FBDCEF
 10
-0.0000000000000688
 20
-125.4000000000000057
 30
0.0
  0
INSERT
  5
1958F
  8
STEMPEL
  2
A$C46D05526
 10
0.0
 20
0.0
 30
0.0
  0
VIEWPORT
  5
46D0
 67
     1
  8
0
 10
86.2336732746623511
 20
126.2981001730571933
 30
0.0
 40
885.9710185126085662
 41
473.2716653130252098
 68
     1
 69
     1
1001
ACAD
1000
MVIEW
1002
{
1070
    16
1010
0.0
1020
0.0
1030
0.0
1010
0.0
1020
0.0
1030
1.0
1040
0.0
1040
473.2716653130252098
1040
86.2336732746623511
1040
126.2981001730571933
1040
50.0
1040
0.0
1040
0.0
1070
     0
1070
  1500
1070
     1
1070
     1
1070
     0
1070
     0
1070
     0
1070
     0
1040
0.0
1040
0.0
1040
0.0
1040
10.0
1040
10.0
1040
10.0
1040
10.0
1070
     0
1002
{
1002
}
1002
}
  0
ENDSEC
  0
EOF
