  0
SECTION
  2
HEADER
  9
$ACADVER
  1
AC1009
  9
$INSBASE
 10
0.0
 20
0.0
 30
0.0
  9
$EXTMIN
 10
-58.5000000000001208
 20
-158.4999999999998863
 30
-0.0000000000000684
  9
$EXTMAX
 10
58.5
 20
300.0000000000002274
 30
0.0000000000000005
  9
$LIMMIN
 10
0.0
 20
0.0
  9
$LIMMAX
 10
419.9999999999998863
 20
594.0
  9
$ORTHOMODE
 70
     1
  9
$REGENMODE
 70
     1
  9
$FILLMODE
 70
     1
  9
$QTEXTMODE
 70
     0
  9
$MIRRTEXT
 70
     1
  9
$DRAGMODE
 70
     2
  9
$LTSCALE
 40
20.0
  9
$OSMODE
 70
   511
  9
$ATTMODE
 70
     1
  9
$TEXTSIZE
 40
3.5
  9
$TRACEWID
 40
0.5
  9
$TEXTSTYLE
  7
STANDARD
  9
$CLAYER
  8
DEFPOINTS
  9
$CELTYPE
  6
BYLAYER
  9
$CECOLOR
 62
   256
  9
$DIMSCALE
 40
2.0
  9
$DIMASZ
 40
3.5
  9
$DIMEXO
 40
1.0
  9
$DIMDLI
 40
7.0
  9
$DIMRND
 40
0.0
  9
$DIMDLE
 40
0.0
  9
$DIMEXE
 40
1.0
  9
$DIMTP
 40
0.0
  9
$DIMTM
 40
0.0
  9
$DIMTXT
 40
3.5
  9
$DIMCEN
 40
1.5
  9
$DIMTSZ
 40
0.0
  9
$DIMTOL
 70
     0
  9
$DIMLIM
 70
     0
  9
$DIMTIH
 70
     0
  9
$DIMTOH
 70
     0
  9
$DIMSE1
 70
     0
  9
$DIMSE2
 70
     0
  9
$DIMTAD
 70
     1
  9
$DIMZIN
 70
     8
  9
$DIMBLK
  1

  9
$DIMASO
 70
     1
  9
$DIMSHO
 70
     0
  9
$DIMPOST
  1

  9
$DIMAPOST
  1

  9
$DIMALT
 70
     0
  9
$DIMALTD
 70
     2
  9
$DIMALTF
 40
25.3999999999999986
  9
$DIMLFAC
 40
1.0
  9
$DIMTOFL
 70
     1
  9
$DIMTVP
 40
0.0
  9
$DIMTIX
 70
     0
  9
$DIMSOXD
 70
     0
  9
$DIMSAH
 70
     0
  9
$DIMBLK1
  1

  9
$DIMBLK2
  1

  9
$DIMSTYLE
  2
STANDARD
  9
$DIMCLRD
 70
     0
  9
$DIMCLRE
 70
     0
  9
$DIMCLRT
 70
     1
  9
$DIMTFAC
 40
0.5
  9
$DIMGAP
 40
1.5
  9
$LUNITS
 70
     2
  9
$LUPREC
 70
     2
  9
$SKETCHINC
 40
1.0
  9
$FILLETRAD
 40
6.0
  9
$AUNITS
 70
     0
  9
$AUPREC
 70
     0
  9
$MENU
  1
ACAD
  9
$ELEVATION
 40
0.0
  9
$PELEVATION
 40
0.0
  9
$THICKNESS
 40
0.0
  9
$LIMCHECK
 70
     0
  9
$BLIPMODE
 70
     0
  9
$CHAMFERA
 40
0.0
  9
$CHAMFERB
 40
0.0
  9
$SKPOLY
 70
     0
  9
$TDCREATE
 40
2455397.8646990740671754
  9
$TDUPDATE
 40
2460614.3018634258769453
  9
$TDINDWG
 40
0.2617902546
  9
$TDUSRTIMER
 40
0.2617902546
  9
$USRTIMER
 70
     1
  9
$ANGBASE
 50
0.0
  9
$ANGDIR
 70
     0
  9
$PDMODE
 70
     0
  9
$PDSIZE
 40
0.0
  9
$PLINEWID
 40
0.0
  9
$COORDS
 70
     1
  9
$SPLFRAME
 70
     0
  9
$SPLINETYPE
 70
     6
  9
$SPLINESEGS
 70
     8
  9
$ATTDIA
 70
     1
  9
$ATTREQ
 70
     1
  9
$HANDLING
 70
     1
  9
$HANDSEED
  5
11FD
  9
$SURFTAB1
 70
     6
  9
$SURFTAB2
 70
     6
  9
$SURFTYPE
 70
     6
  9
$SURFU
 70
     6
  9
$SURFV
 70
     6
  9
$UCSNAME
  2

  9
$UCSORG
 10
0.0
 20
0.0
 30
0.0
  9
$UCSXDIR
 10
1.0
 20
0.0
 30
0.0
  9
$UCSYDIR
 10
0.0
 20
1.0
 30
0.0
  9
$PUCSNAME
  2

  9
$PUCSORG
 10
0.0
 20
0.0
 30
0.0
  9
$PUCSXDIR
 10
1.0
 20
0.0
 30
0.0
  9
$PUCSYDIR
 10
0.0
 20
1.0
 30
0.0
  9
$USERI1
 70
     0
  9
$USERI2
 70
     0
  9
$USERI3
 70
     0
  9
$USERI4
 70
     0
  9
$USERI5
 70
     0
  9
$USERR1
 40
0.0
  9
$USERR2
 40
0.0
  9
$USERR3
 40
0.0
  9
$USERR4
 40
0.0
  9
$USERR5
 40
0.0
  9
$WORLDVIEW
 70
     1
  9
$SHADEDGE
 70
     3
  9
$SHADEDIF
 70
    70
  9
$TILEMODE
 70
     1
  9
$MAXACTVP
 70
    16
  9
$PLIMCHECK
 70
     0
  9
$PEXTMIN
 10
1.0000000000000000E+20
 20
1.0000000000000000E+20
 30
1.0000000000000000E+20
  9
$PEXTMAX
 10
-1.0000000000000000E+20
 20
-1.0000000000000000E+20
 30
-1.0000000000000000E+20
  9
$PLIMMIN
 10
-203.5058657509526938
 20
-372.5886831956752872
  9
$PLIMMAX
 10
216.6745400760179905
 20
221.6664621881830897
  9
$UNITMODE
 70
     0
  9
$VISRETAIN
 70
     0
  9
$PLINEGEN
 70
     0
  9
$PSLTSCALE
 70
     0
  0
ENDSEC
  0
SECTION
  2
TABLES
  0
TABLE
  2
VPORT
 70
     1
  0
VPORT
  2
*ACTIVE
 70
     0
 10
0.0
 20
0.0
 11
1.0
 21
1.0
 12
0.0000000000000568
 22
-50.0
 13
0.0
 23
0.0
 14
1.0
 24
1.0
 15
10.0
 25
10.0
 16
-0.0000000000002178
 26
0.0
 36
915.2987897129714838
 17
-0.0000000000001137
 27
120.7500000000000995
 37
-0.0000000000000952
 40
460.8634020618558225
 41
1.8847807394668961
 42
50.0
 43
0.0
 44
0.0
 50
0.0
 51
0.0
 71
     0
 72
  1500
 73
     1
 74
     0
 75
     0
 76
     0
 77
     0
 78
     0
  0
ENDTAB
  0
TABLE
  2
LTYPE
 70
     2
  0
LTYPE
  2
CONTINUOUS
 70
     0
  3
Solid line
 72
    65
 73
     0
 40
0.0
  0
LTYPE
  2
VERDECKT
 70
     0
  3
Verdeckt __ __ __ __ __ __ __ __ __ __ __ __ __
 72
    65
 73
     2
 40
0.375
 49
0.25
 49
-0.125
  0
ENDTAB
  0
TABLE
  2
LAYER
 70
     6
  0
LAYER
  2
0
 70
     0
 62
     7
  6
CONTINUOUS
  0
LAYER
  2
VOLL
 70
     0
 62
     1
  6
CONTINUOUS
  0
LAYER
  2
TEXT
 70
     0
 62
     7
  6
CONTINUOUS
  0
LAYER
  2
DEFPOINTS
 70
     0
 62
     7
  6
CONTINUOUS
  0
LAYER
  2
ADSK_ASSOC_ENTITY_BACKUPS
 70
     1
 62
    -7
  6
CONTINUOUS
  0
ENDTAB
  0
TABLE
  2
STYLE
 70
     3
  0
STYLE
  2
STANDARD
 70
     0
 40
0.0
 41
0.8
 50
0.0
 71
     0
 42
3.5
  3
simplex.shx
  4

  0
STYLE
  2
GREEKS
 70
     0
 40
0.0
 41
0.8
 50
0.0
 71
     0
 42
2.5
  3
SIMPLEX.shx
  4

  0
ENDTAB
  0
TABLE
  2
VIEW
 70
     0
  0
ENDTAB
  0
TABLE
  2
UCS
 70
     0
  0
ENDTAB
  0
TABLE
  2
APPID
 70
    16
  0
APPID
  2
ACAD
 70
     0
  0
APPID
  2
ACAECLAYERSTANDARD
 70
     0
  0
APPID
  2
ACCMTRANSPARENCY
 70
     0
  0
APPID
  2
ACAD_NAV_VCDISPLAY
 70
     0
  0
APPID
  2
ACAD_PSEXT
 70
     0
  0
APPID
  2
ACAD_EXEMPT_FROM_CAD_STANDARDS
 70
     0
  0
APPID
  2
ACSYNERGY
 70
     0
  0
APPID
  2
SYNERGY_BODY_TBR_ID
 70
     0
  0
APPID
  2
ACAD_VIEW_EDGE_ID
 70
     0
  0
APPID
  2
ACAD_MLEADERVER
 70
     0
  0
APPID
  2
ACADANNOMONITORALERTICONDI
 70
     0
  0
APPID
  2
ACSYNERGYSKETCH
 70
     0
  0
APPID
  2
ACAD_MODELDOC_XFORM
 70
     0
  0
APPID
  2
ACAUTHENVIRON
 70
     0
  0
APPID
  2
ACDBDYNAMICBLOCKTRUENAME
 70
     0
  0
APPID
  2
ACDBDYNAMICBLOCKGUID
 70
     0
  0
ENDTAB
  0
TABLE
  2
DIMSTYLE
 70
     1
  0
DIMSTYLE
  2
STANDARD
 70
     0
  3

  4

  5

  6

  7

 40
1.0
 41
0.18
 42
0.0625
 43
0.38
 44
0.18
 45
0.0
 46
0.0
 47
0.0
 48
0.0
140
0.18
141
0.09
142
0.0
143
25.3999999999999986
144
1.0
145
0.0
146
1.0
147
0.09
 71
     0
 72
     0
 73
     1
 74
     1
 75
     0
 76
     0
 77
     0
 78
     0
170
     0
171
     2
172
     0
173
     0
174
     0
175
     0
176
     0
177
     0
178
     0
  0
ENDTAB
  0
ENDSEC
  0
SECTION
  2
BLOCKS
  0
BLOCK
  8
0
  2
$MODEL_SPACE
 70
     0
 10
0.0
 20
0.0
 30
0.0
  3
$MODEL_SPACE
  1

  0
ENDBLK
  5
36
  8
0
  0
BLOCK
 67
     1
  8
0
  2
$PAPER_SPACE
 70
     0
 10
0.0
 20
0.0
 30
0.0
  3
$PAPER_SPACE
  1

  0
ENDBLK
  5
34
 67
     1
  8
0
  0
BLOCK
  8
0
  2
*S0
 70
     1
 10
0.0
 20
0.0
 30
0.0
  3
*S0
  1

  0
ENDBLK
  5
B24
  8
0
  0
BLOCK
  8
0
  2
A$C0BFB61FC
 70
     0
 10
0.0
 20
0.0
 30
0.0
  3
A$C0BFB61FC
  1

  0
LINE
  5
1175
  8
0
  6
CONTINUOUS
 62
     3
 10
-44.5000000000001066
 20
250.0
 30
-0.0000000000000555
 11
44.4999999999998792
 21
250.0
 31
-0.0000000000000555
210
0.0
220
1.0
230
-0.0000000000000002
  0
LINE
  5
1176
  8
0
  6
CONTINUOUS
 62
     3
 10
-55.1240535027551388
 20
300.0000000000002274
 30
-0.0000000000000666
 11
55.1240535027549186
 21
300.0000000000002274
 31
-0.0000000000000666
210
0.0
220
1.0
230
-0.0000000000000002
  0
LINE
  5
1177
  8
0
  6
CONTINUOUS
 62
     3
 10
-44.5000000000001066
 20
250.0
 30
-0.0000000000000555
 11
-53.8078587697981376
 21
262.6792651648872265
 31
-0.0000000000000583
210
0.0
220
1.0
230
-0.0000000000000002
  0
LINE
  5
1178
  8
0
  6
CONTINUOUS
 62
     3
 10
44.4999999999998792
 20
250.0
 30
-0.0000000000000555
 11
53.8078587697979174
 21
262.6792651648872265
 31
-0.0000000000000583
210
0.0
220
1.0
230
-0.0000000000000002
  0
LINE
  5
1179
  8
0
  6
CONTINUOUS
 62
     3
 10
55.1240535027549186
 20
300.0000000000002274
 30
-0.0000000000000666
 11
56.2326484462868166
 21
297.6226104715540259
 31
-0.0000000000000661
210
0.0
220
1.0
230
-0.0000000000000002
  0
LINE
  5
117A
  8
0
  6
CONTINUOUS
 62
     3
 10
-55.1240535027551388
 20
300.0000000000002274
 30
-0.0000000000000666
 11
-56.2326484462870368
 21
297.6226104715540259
 31
-0.0000000000000661
210
0.0
220
1.0
230
-0.0000000000000002
  0
ARC
  5
117B
  8
0
  6
CONTINUOUS
 62
     3
 10
34.2999999999948386
 20
287.3952485374277899
 30
0.0
 40
24.2000000000052715
210
0.0
220
-0.0000000000000002
230
-1.0
 50
0.0000000000032569
 51
24.999999999997879
  0
ARC
  5
117C
  8
0
  6
CONTINUOUS
 62
     3
 10
-34.2999999999946112
 20
287.3952485374277899
 30
0.0
 40
24.2000000000052715
210
0.0
220
-0.0000000000000002
230
-1.0
 50
155.0000000000021032
 51
179.9999999999967031
  0
LINE
  5
117D
  8
0
  6
CONTINUOUS
 62
     3
 10
58.4999999999998792
 20
287.3952485374290973
 30
-0.0000000000000638
 11
58.4999999999998792
 21
277.0000000000001137
 31
-0.0000000000000615
210
0.0
220
1.0
230
-0.0000000000000002
  0
LINE
  5
117E
  8
0
  6
CONTINUOUS
 62
     3
 10
-58.5000000000001208
 20
287.3952485374290973
 30
-0.0000000000000638
 11
-58.5000000000001208
 21
277.0000000000001137
 31
-0.0000000000000615
210
0.0
220
1.0
230
-0.0000000000000002
  0
ARC
  5
117F
  8
0
  6
CONTINUOUS
 62
     3
 10
34.3000000000000682
 20
277.0
 30
0.0
 40
24.200000000000049
210
0.0
220
-0.0000000000000002
230
-1.0
 50
323.7175776249144974
 51
0.0
  0
ARC
  5
1180
  8
0
  6
CONTINUOUS
 62
     3
 10
-34.2999999999998408
 20
277.0
 30
0.0
 40
24.200000000000049
210
0.0
220
-0.0000000000000002
230
-1.0
 50
180.0
 51
216.2824223750855026
  0
LINE
  5
1181
  8
0
  6
CONTINUOUS
 62
     3
 10
-44.5
 20
250.0
 30
-0.0000000000000555
 11
44.4999999999997726
 21
250.0
 31
-0.0000000000000555
210
0.0
220
1.0
230
-0.0000000000000002
  0
LINE
  5
1182
  8
0
  6
CONTINUOUS
 62
     3
 10
-35.8875793553185076
 20
-0.0000000000000284
 30
0.0
 11
35.8875793553185076
 21
0.0000000000000284
 31
0.0
210
0.0
220
1.0
230
-0.0000000000000002
  0
LINE
  5
1183
  8
0
  6
CONTINUOUS
 62
     3
 10
-37.8147871433419596
 20
241.6434839291771084
 30
-0.0000000000000537
 11
-44.5
 21
250.0
 31
-0.0000000000000555
210
0.0
220
1.0
230
-0.0000000000000002
  0
LINE
  5
1184
  8
0
  6
CONTINUOUS
 62
     3
 10
37.8147871433417322
 20
241.6434839291771937
 30
-0.0000000000000537
 11
44.4999999999997726
 21
250.0000000000001137
 31
-0.0000000000000555
210
0.0
220
1.0
230
-0.0000000000000002
  0
ARC
  5
1185
  8
0
  6
CONTINUOUS
 62
     3
 10
42.4999999999995381
 20
237.8953136438506988
 30
0.0
 40
5.9999999999994458
210
0.0
220
-0.0000000000000002
230
-1.0
 50
141.3401917459050878
 51
180.0000000000015916
  0
ARC
  5
1186
  8
0
  6
CONTINUOUS
 62
     3
 10
-42.4999999999994316
 20
237.8953136438506988
 30
0.0
 40
5.9999999999995444
210
0.0
220
-0.0000000000000002
230
-1.0
 50
359.9999999999984084
 51
38.6598082540895902
  0
LINE
  5
1187
  8
0
  6
CONTINUOUS
 62
     3
 10
36.4999999999997726
 20
237.8953136438504998
 30
-0.0000000000000528
 11
36.5
 21
7.0000000000000853
 31
-0.0000000000000016
210
0.0
220
1.0
230
-0.0000000000000002
  0
LINE
  5
1188
  8
0
  6
CONTINUOUS
 62
     3
 10
-36.5000000000002274
 20
237.8953136438504998
 30
-0.0000000000000528
 11
-36.5
 21
7.0000000000000853
 31
-0.0000000000000016
210
0.0
220
1.0
230
-0.0000000000000002
  0
LINE
  5
1189
  8
0
  6
CONTINUOUS
 62
     3
 10
-35.8875793553185076
 20
-0.0000000000000284
 30
0.0
 11
-36.5
 21
7.0000000000000853
 31
-0.0000000000000016
210
0.0
220
1.0
230
-0.0000000000000002
  0
LINE
  5
118A
  8
0
  6
CONTINUOUS
 62
     3
 10
35.8875793553186213
 20
0.0000000000000284
 30
0.0
 11
36.5
 21
7.0000000000001421
 31
-0.0000000000000016
210
0.0
220
1.0
230
-0.0000000000000002
  0
LINE
  5
118B
  8
0
  6
VERDECKT
 62
     1
 10
-43.5326681601754899
 20
250.7101190827328878
 30
-0.0000000000000557
 11
43.5326681601752625
 21
250.7101190827328878
 31
-0.0000000000000557
210
0.0
220
1.0
230
-0.0000000000000002
  0
LINE
  5
118C
  8
0
  6
VERDECKT
 62
     1
 10
43.5326681601752625
 20
250.7101190827328878
 30
-0.0000000000000557
 11
44.4999999999998792
 21
250.0
 31
-0.0000000000000555
210
0.0
220
1.0
230
-0.0000000000000002
  0
LINE
  5
118D
  8
0
  6
VERDECKT
 62
     1
 10
-43.5326681601754899
 20
250.7101190827328878
 30
-0.0000000000000557
 11
-44.5000000000001066
 21
250.0
 31
-0.0000000000000555
210
0.0
220
1.0
230
-0.0000000000000002
  0
LINE
  5
118E
  8
0
  6
VERDECKT
 62
     1
 10
-43.5326681601754899
 20
250.7101190827328878
 30
-0.0000000000000557
 11
-52.8405269299734073
 21
263.3893842476201144
 31
-0.0000000000000585
210
0.0
220
1.0
230
-0.0000000000000002
  0
LINE
  5
118F
  8
0
  6
VERDECKT
 62
     1
 10
43.5326681601752625
 20
250.7101190827328878
 30
-0.0000000000000557
 11
52.8405269299731799
 21
263.3893842476201144
 31
-0.0000000000000585
210
0.0
220
1.0
230
-0.0000000000000002
  0
ARC
  5
1190
  8
0
  6
VERDECKT
 62
     1
 10
34.2999999999999616
 20
277.0000000000002842
 30
0.0
 40
23.0000000000002203
210
0.0
220
-0.0000000000000002
230
-1.0
 50
323.7175776249144974
 51
0.0
  0
ARC
  5
1191
  8
0
  6
VERDECKT
 62
     1
 10
-34.2999999999997272
 20
277.0000000000002842
 30
0.0
 40
23.0000000000002309
210
0.0
220
-0.0000000000000002
230
-1.0
 50
180.0
 51
216.2824223750855026
  0
LINE
  5
1192
  8
0
  6
VERDECKT
 62
     1
 10
57.2999999999998408
 20
287.3952485374290973
 30
-0.0000000000000638
 11
57.2999999999998408
 21
277.0000000000001137
 31
-0.0000000000000615
210
0.0
220
1.0
230
-0.0000000000000002
  0
LINE
  5
1193
  8
0
  6
VERDECKT
 62
     1
 10
-57.3000000000000682
 20
287.3952485374290973
 30
-0.0000000000000638
 11
-57.3000000000000682
 21
277.0000000000001137
 31
-0.0000000000000615
210
0.0
220
1.0
230
-0.0000000000000002
  0
ARC
  5
1194
  8
0
  6
VERDECKT
 62
     1
 10
34.2999999999963165
 20
287.395248537428472
 30
0.0
 40
23.0000000000037517
210
0.0
220
-0.0000000000000002
230
-1.0
 50
0.0000000000016284
 51
24.9999999999964011
  0
ARC
  5
1195
  8
0
  6
VERDECKT
 62
     1
 10
-34.2999999999960892
 20
287.395248537428472
 30
0.0
 40
23.0000000000037517
210
0.0
220
-0.0000000000000002
230
-1.0
 50
155.0000000000021032
 51
179.9999999999984084
  0
LINE
  5
1196
  8
0
  6
VERDECKT
 62
     1
 10
53.7999999999998408
 20
300.0000000000001137
 30
-0.0000000000000666
 11
55.1450791018429527
 21
297.1154685574650784
 31
-0.000000000000066
210
0.0
220
1.0
230
-0.0000000000000002
  0
LINE
  5
1197
  8
0
  6
VERDECKT
 62
     1
 10
-53.8000000000000611
 20
300.0000000000001137
 30
-0.0000000000000666
 11
-55.1450791018431801
 21
297.1154685574650784
 31
-0.000000000000066
210
0.0
220
1.0
230
-0.0000000000000002
  0
LINE
  5
1198
  8
0
  6
VERDECKT
 62
     1
 10
-34.6921457176084687
 20
0.1045868912971741
 30
0.0
 11
34.6921457176084687
 21
0.104586891297231
 31
0.0
210
0.0
220
1.0
230
-0.0000000000000002
  0
LINE
  5
1199
  8
0
  6
VERDECKT
 62
     1
 10
-43.5629574286683621
 20
250.7496340570652933
 30
-0.0000000000000557
 11
43.5629574286681418
 21
250.7496340570652933
 31
-0.0000000000000557
210
0.0
220
1.0
230
-0.0000000000000002
  0
LINE
  5
119A
  8
0
  6
VERDECKT
 62
     1
 10
-34.6921457176084687
 20
0.1045868912971741
 30
0.0
 11
-35.3000000000000682
 21
7.0523931314894517
 31
-0.0000000000000016
210
0.0
220
1.0
230
-0.0000000000000002
  0
LINE
  5
119B
  8
0
  6
VERDECKT
 62
     1
 10
34.6921457176084687
 20
0.104586891297231
 30
0.0
 11
35.3000000000000682
 21
7.0523931314895094
 31
-0.0000000000000016
210
0.0
220
1.0
230
-0.0000000000000002
  0
LINE
  5
119C
  8
0
  6
VERDECKT
 62
     1
 10
35.2999999999997272
 20
237.8953136438504998
 30
-0.0000000000000528
 11
35.2999999999999616
 21
7.0523931314894801
 31
-0.0000000000000016
210
0.0
220
1.0
230
-0.0000000000000002
  0
LINE
  5
119D
  8
0
  6
VERDECKT
 62
     1
 10
-35.3000000000001819
 20
237.8953136438504998
 30
-0.0000000000000528
 11
-35.2999999999999616
 21
7.0523931314894517
 31
-0.0000000000000016
210
0.0
220
1.0
230
-0.0000000000000002
  0
ARC
  5
119E
  8
0
  6
VERDECKT
 62
     1
 10
42.4999999999990905
 20
237.8953136438506135
 30
0.0
 40
7.1999999999990276
210
0.0
220
-0.0000000000000002
230
-1.0
 50
141.3401917459050878
 51
180.0000000000015916
  0
ARC
  5
119F
  8
0
  6
VERDECKT
 62
     1
 10
-42.4999999999988631
 20
237.8953136438506988
 30
0.0
 40
7.1999999999990214
210
0.0
220
-0.0000000000000002
230
-1.0
 50
359.9999999999984084
 51
38.6598082540949335
  0
LINE
  5
11A0
  8
0
  6
VERDECKT
 62
     1
 10
-36.8777445720103287
 20
242.393117986242288
 30
-0.0000000000000538
 11
-43.5629574286683621
 21
250.749634057065208
 31
-0.0000000000000557
210
0.0
220
1.0
230
-0.0000000000000002
  0
LINE
  5
11A1
  8
0
  6
VERDECKT
 62
     1
 10
36.8777445720101014
 20
242.393117986242288
 30
-0.0000000000000538
 11
43.5629574286681418
 21
250.7496340570652933
 31
-0.0000000000000557
210
0.0
220
1.0
230
-0.0000000000000002
  0
LINE
  5
11A2
  8
0
  6
VERDECKT
 62
     1
 10
43.5629574286681418
 20
250.7496340570652933
 30
-0.0000000000000557
 11
44.4999999999997726
 21
250.0
 31
-0.0000000000000555
210
0.0
220
1.0
230
-0.0000000000000002
  0
LINE
  5
11A3
  8
0
  6
VERDECKT
 62
     1
 10
-43.5629574286683621
 20
250.749634057065208
 30
-0.0000000000000557
 11
-44.5
 21
250.0
 31
-0.0000000000000555
210
0.0
220
1.0
230
-0.0000000000000002
  0
LINE
  5
11A4
  8
0
  6
VERDECKT
 62
     1
 10
34.6921457176084687
 20
0.104586891297231
 30
0.0
 11
35.8875793553185076
 21
0.0000000000000568
 31
0.0
210
0.0
220
1.0
230
-0.0000000000000002
  0
LINE
  5
11A5
  8
0
  6
VERDECKT
 62
     1
 10
-34.6921457176084687
 20
0.1045868912971741
 30
0.0
 11
-35.8875793553185076
 21
-0.0000000000000284
 31
0.0
210
0.0
220
1.0
230
-0.0000000000000002
  0
ENDBLK
  5
1149
  8
0
  0
BLOCK
  8
0
  2
A$CAE420C2F
 70
     0
 10
0.0
 20
0.0
 30
0.0
  3
A$CAE420C2F
  1

  0
CIRCLE
  5
115F
  8
0
  6
CONTINUOUS
 62
     3
 10
0.0
 20
0.0000000000000568
 30
-0.0000000000000013
 40
53.7999999999999474
  0
CIRCLE
  5
1160
  8
0
  6
CONTINUOUS
 62
     3
 10
0.0
 20
0.0000000000000568
 30
-0.0000000000000013
 40
55.1240535027550322
  0
CIRCLE
  5
1161
  8
0
  6
CONTINUOUS
 62
     3
 10
0.0
 20
0.0000000000000568
 30
-0.0000000000000013
 40
58.5
  0
CIRCLE
  5
1162
  8
0
  6
CONTINUOUS
 62
     3
 10
0.0000000000001137
 20
0.0
 30
-0.0000000000000013
 40
34.6921457176084687
  0
CIRCLE
  5
1163
  8
0
  6
CONTINUOUS
 62
     3
 10
0.0
 20
0.0
 30
0.0
 40
35.2999999999999474
  0
CIRCLE
  5
1164
  8
0
  6
VERDECKT
 62
     1
 10
0.0
 20
0.0
 30
0.0000000000000005
 40
44.5
  0
CIRCLE
  5
1165
  8
0
  6
VERDECKT
 62
     1
 10
0.0
 20
0.0
 30
0.0000000000000005
 40
43.5326681601753691
  0
CIRCLE
  5
1166
  8
0
  6
VERDECKT
 62
     1
 10
0.0
 20
0.0000000000000568
 30
-0.0000000000000013
 40
57.2999999999999474
  0
CIRCLE
  5
1167
  8
0
  6
VERDECKT
 62
     1
 10
0.0
 20
0.0
 30
0.0000000000000005
 40
43.5629574286682413
  0
CIRCLE
  5
1168
  8
0
  6
VERDECKT
 62
     1
 10
0.0
 20
0.0
 30
0.0000000000000005
 40
44.4999999999998721
  0
CIRCLE
  5
1169
  8
0
  6
VERDECKT
 62
     1
 10
0.0
 20
0.0
 30
0.0
 40
36.4999999999999929
  0
CIRCLE
  5
116A
  8
0
  6
VERDECKT
 62
     1
 10
0.0000000000001137
 20
0.0
 30
-0.0000000000000013
 40
35.8875793553185076
  0
ENDBLK
  5
115A
  8
0
  0
ENDSEC
  0
SECTION
  2
ENTITIES
  0
TEXT
  5
8F
  8
VOLL
 10
78.076754716981128
 20
31.025947764705851
 30
0.0
 40
1.8
  1

  7
GREEKS
  0
TEXT
  5
97
  8
TEXT
 10
225.1296391125314926
 20
62.1158070677485625
 30
0.0
 40
5.0
  1

 41
0.8
  7
GREEKS
  0
INSERT
  5
B26
  8
ADSK_ASSOC_ENTITY_BACKUPS
  2
*S0
 10
0.0
 20
0.0
 30
0.0
  0
INSERT
  5
114A
  8
DEFPOINTS
  2
A$C0BFB61FC
 10
0.0
 20
0.0
 30
0.0
  0
INSERT
  5
115B
  8
DEFPOINTS
  2
A$CAE420C2F
 10
0.0
 20
-100.0
 30
0.0
  0
VIEWPORT
  5
B03
 67
     1
  8
0
 10
6.584337162532619
 20
-75.461110503746113
 30
0.0
 40
1125.8140577730730456
 41
597.3183162363524161
 68
     1
 69
     1
1001
ACAD
1000
MVIEW
1002
{
1070
    16
1010
0.0
1020
0.0
1030
0.0
1010
0.0
1020
0.0
1030
1.0
1040
0.0
1040
597.3183162363524161
1040
6.584337162532619
1040
-75.461110503746113
1040
50.0
1040
0.0
1040
0.0
1070
     0
1070
  1500
1070
     1
1070
     1
1070
     0
1070
     0
1070
     0
1070
     0
1040
0.0
1040
0.0
1040
0.0
1040
10.0
1040
10.0
1040
10.0
1040
10.0
1070
     0
1002
{
1002
}
1002
}
  0
TEXT
  5
BB3
 67
     1
  8
VOLL
 10
479.1665081468162271
 20
-228.0562788446943046
 30
0.0
 40
3.6000000000000001
  1

  7
GREEKS
  0
ENDSEC
  0
EOF
